ISO-10303-21;
HEADER;
FILE_DESCRIPTION (( 'STEP AP214' ),
    '1' );
FILE_NAME ('84415.STEP',
    '2023-06-23T12:57:45',
    ( '' ),
    ( '' ),
    'SwSTEP 2.0',
    'SolidWorks 2023',
    '' );
FILE_SCHEMA (( 'AUTOMOTIVE_DESIGN' ));
ENDSEC;

DATA;
#1 = EDGE_LOOP ( 'NONE', ( #46, #139, #145, #71 ) ) ;
#2 = FILL_AREA_STYLE ('',( #25 ) ) ;
#3 = ADVANCED_FACE ( 'NONE', ( #90 ), #48, .T. ) ;
#4 = DIMENSIONAL_EXPONENTS ( 1.000000000000000000, 0.000000000000000000, 0.000000000000000000, 0.000000000000000000, 0.000000000000000000, 0.000000000000000000, 0.000000000000000000 ) ;
#5 = DIRECTION ( 'NONE',  ( 0.000000000000000000, -0.000000000000000000, 1.000000000000000000 ) ) ;
#6 = CLOSED_SHELL ( 'NONE', ( #157, #78, #3, #293 ) ) ;
#7 = DIRECTION ( 'NONE',  ( -1.000000000000000000, 0.000000000000000000, 0.000000000000000000 ) ) ;
#8 = DIRECTION ( 'NONE',  ( -1.000000000000000000, -3.768143997376469510E-17, 0.000000000000000000 ) ) ;
#9 = FILL_AREA_STYLE_COLOUR ( '', #218 ) ;
#10 = DIRECTION ( 'NONE',  ( -1.000000000000000000, 0.000000000000000000, 0.000000000000000000 ) ) ;
#11 = AXIS2_PLACEMENT_3D ( 'NONE', #195, #105, #287 ) ;
#12 = PRODUCT_DEFINITION_SHAPE ( 'NONE', 'NONE',  #207 ) ;
#13 = APPLICATION_CONTEXT ( 'automotive_design' ) ;
#14 = DIRECTION ( 'NONE',  ( -1.000000000000000000, 0.000000000000000000, 0.000000000000000000 ) ) ;
#15 = VECTOR ( 'NONE', #103, 39.37007874015748143 ) ;
#16 = EDGE_CURVE ( 'NONE', #153, #57, #196, .T. ) ;
#17 = ORIENTED_EDGE ( 'NONE', *, *, #224, .F. ) ;
#18 = APPLICATION_PROTOCOL_DEFINITION ( 'draft international standard', 'automotive_design', 1998, #13 ) ;
#19 = EDGE_CURVE ( 'NONE', #33, #21, #282, .T. ) ;
#20 = DIMENSIONAL_EXPONENTS ( 1.000000000000000000, 0.000000000000000000, 0.000000000000000000, 0.000000000000000000, 0.000000000000000000, 0.000000000000000000, 0.000000000000000000 ) ;
#21 = VERTEX_POINT ( 'NONE', #77 ) ;
#22 = LENGTH_MEASURE_WITH_UNIT ( LENGTH_MEASURE( 0.02539999999999999897 ), #281 );
#23 = UNCERTAINTY_MEASURE_WITH_UNIT (LENGTH_MEASURE( 1.000000000000000082E-05 ), #306, 'distance_accuracy_value', 'NONE');
#24 = VERTEX_POINT ( 'NONE', #74 ) ;
#25 = FILL_AREA_STYLE_COLOUR ( '', #238 ) ;
#26 =( NAMED_UNIT ( * ) SI_UNIT ( $, .STERADIAN. ) SOLID_ANGLE_UNIT ( ) );
#27 = LENGTH_MEASURE_WITH_UNIT ( LENGTH_MEASURE( 0.02539999999999999897 ), #271 );
#28 = CARTESIAN_POINT ( 'NONE',  ( 0.000000000000000000, 0.3749999999999999445, 0.000000000000000000 ) ) ;
#29 = PRESENTATION_LAYER_ASSIGNMENT (  '', '', ( #267 ) ) ;
#30 = CARTESIAN_POINT ( 'NONE',  ( -6.123233995736763571E-17, 2.000000000000000000, 0.000000000000000000 ) ) ;
#31 = PLANE ( 'NONE',  #120 ) ;
#32 = DIRECTION ( 'NONE',  ( -3.768143997376469510E-17, 1.000000000000000000, -0.000000000000000000 ) ) ;
#33 = VERTEX_POINT ( 'NONE', #206 ) ;
#34 = FACE_OUTER_BOUND ( 'NONE', #140, .T. ) ;
#35 = CIRCLE ( 'NONE', #235, 0.06250000000000000000 ) ;
#36 = PRESENTATION_LAYER_ASSIGNMENT (  '', '', ( #223 ) ) ;
#37 = DIRECTION ( 'NONE',  ( 0.000000000000000000, 1.000000000000000000, 0.000000000000000000 ) ) ;
#38 = FACE_OUTER_BOUND ( 'NONE', #60, .T. ) ;
#39 = MECHANICAL_DESIGN_GEOMETRIC_PRESENTATION_REPRESENTATION (  '', ( #66 ), #111 ) ;
#40 = FACE_OUTER_BOUND ( 'NONE', #1, .T. ) ;
#41 = DIRECTION ( 'NONE',  ( 1.000000000000000000, 3.768143997376469510E-17, 0.000000000000000000 ) ) ;
#42 = ORIENTED_EDGE ( 'NONE', *, *, #128, .T. ) ;
#43 = SURFACE_STYLE_FILL_AREA ( #2 ) ;
#44 = SURFACE_SIDE_STYLE ('',( #176 ) ) ;
#45 = DIRECTION ( 'NONE',  ( -0.000000000000000000, -1.000000000000000000, -0.000000000000000000 ) ) ;
#46 = ORIENTED_EDGE ( 'NONE', *, *, #272, .T. ) ;
#47 =( NAMED_UNIT ( * ) SI_UNIT ( $, .STERADIAN. ) SOLID_ANGLE_UNIT ( ) );
#48 = CYLINDRICAL_SURFACE ( 'NONE', #89, 0.06250000000000000000 ) ;
#49 = LENGTH_MEASURE_WITH_UNIT ( LENGTH_MEASURE( 0.02539999999999999897 ), #250 );
#50 = PRODUCT_DEFINITION_CONTEXT ( 'detailed design', #123, 'design' ) ;
#51 =( NAMED_UNIT ( * ) SI_UNIT ( $, .STERADIAN. ) SOLID_ANGLE_UNIT ( ) );
#52 = FILL_AREA_STYLE_COLOUR ( '', #290 ) ;
#53 = CIRCLE ( 'NONE', #67, 0.06250000000000005551 ) ;
#54 = ORIENTED_EDGE ( 'NONE', *, *, #179, .F. ) ;
#55 = DIRECTION ( 'NONE',  ( 0.000000000000000000, 0.000000000000000000, -1.000000000000000000 ) ) ;
#56 = EDGE_CURVE ( 'NONE', #24, #194, #35, .T. ) ;
#57 = VERTEX_POINT ( 'NONE', #136 ) ;
#58 = CARTESIAN_POINT ( 'NONE',  ( 4.437159120301349476E-35, 0.3750000000000000555, 0.000000000000000000 ) ) ;
#59 = COLOUR_RGB ( '',1.000000000000000000, 0.000000000000000000, 0.000000000000000000 ) ;
#60 = EDGE_LOOP ( 'NONE', ( #97, #166 ) ) ;
#61 = DIRECTION ( 'NONE',  ( 0.000000000000000000, -1.000000000000000000, -0.000000000000000000 ) ) ;
#62 = FILL_AREA_STYLE_COLOUR ( '', #117 ) ;
#63 = PRESENTATION_STYLE_ASSIGNMENT (( #192 ) ) ;
#64 = CARTESIAN_POINT ( 'NONE',  ( 0.000000000000000000, 0.3750000000000000555, 0.000000000000000000 ) ) ;
#65 = MECHANICAL_DESIGN_GEOMETRIC_PRESENTATION_REPRESENTATION (  '', ( #267 ), #228 ) ;
#66 = STYLED_ITEM ( 'NONE', ( #150 ), #78 ) ;
#67 = AXIS2_PLACEMENT_3D ( 'NONE', #118, #200, #10 ) ;
#68 = DIRECTION ( 'NONE',  ( 3.768143997376469510E-17, -1.000000000000000000, 0.000000000000000000 ) ) ;
#69 = ORIENTED_EDGE ( 'NONE', *, *, #19, .F. ) ;
#70 = CARTESIAN_POINT ( 'NONE',  ( 0.000000000000000000, 0.000000000000000000, -0.06250000000000000000 ) ) ;
#71 = ORIENTED_EDGE ( 'NONE', *, *, #128, .F. ) ;
#72 =( NAMED_UNIT ( * ) PLANE_ANGLE_UNIT ( ) SI_UNIT ( $, .RADIAN. ) );
#73 = STYLED_ITEM ( 'NONE', ( #63 ), #293 ) ;
#74 = CARTESIAN_POINT ( 'NONE',  ( 7.654042494670957545E-18, 0.3750000000000000555, 0.06250000000000000000 ) ) ;
#75 = LENGTH_MEASURE_WITH_UNIT ( LENGTH_MEASURE( 0.02539999999999999897 ), #259 );
#76 = DIMENSIONAL_EXPONENTS ( 1.000000000000000000, 0.000000000000000000, 0.000000000000000000, 0.000000000000000000, 0.000000000000000000, 0.000000000000000000, 0.000000000000000000 ) ;
#77 = CARTESIAN_POINT ( 'NONE',  ( -0.06250000000000012490, 2.000000000000000000, 0.000000000000000000 ) ) ;
#78 = ADVANCED_FACE ( 'NONE', ( #110 ), #180, .T. ) ;
#79 = PRODUCT ( '84415', '84415', '', ( #114 ) ) ;
#80 = SURFACE_SIDE_STYLE ('',( #169 ) ) ;
#81 =( NAMED_UNIT ( * ) PLANE_ANGLE_UNIT ( ) SI_UNIT ( $, .RADIAN. ) );
#82 = EDGE_LOOP ( 'NONE', ( #54, #301 ) ) ;
#83 = FACE_OUTER_BOUND ( 'NONE', #87, .T. ) ;
#84 = LINE ( 'NONE', #122, #15 ) ;
#85 = CIRCLE ( 'NONE', #172, 0.06250000000000000000 ) ;
#86 = CYLINDRICAL_SURFACE ( 'NONE', #214, 0.06250000000000000000 ) ;
#87 = EDGE_LOOP ( 'NONE', ( #160, #208, #249, #69 ) ) ;
#88 = UNCERTAINTY_MEASURE_WITH_UNIT (LENGTH_MEASURE( 1.000000000000000082E-05 ), #210, 'distance_accuracy_value', 'NONE');
#89 = AXIS2_PLACEMENT_3D ( 'NONE', #115, #45, #230 ) ;
#90 = FACE_OUTER_BOUND ( 'NONE', #219, .T. ) ;
#91 = EDGE_CURVE ( 'NONE', #276, #21, #204, .T. ) ;
#92 = DIRECTION ( 'NONE',  ( -0.000000000000000000, -1.000000000000000000, -0.000000000000000000 ) ) ;
#93 = ORIENTED_EDGE ( 'NONE', *, *, #199, .T. ) ;
#94 = APPLICATION_PROTOCOL_DEFINITION ( 'draft international standard', 'automotive_design', 1998, #123 ) ;
#95 =( CONVERSION_BASED_UNIT ( 'INCH', #134 ) LENGTH_UNIT ( ) NAMED_UNIT ( #226 ) );
#96 = PRESENTATION_STYLE_ASSIGNMENT (( #303 ) ) ;
#97 = ORIENTED_EDGE ( 'NONE', *, *, #255, .T. ) ;
#98 = SURFACE_SIDE_STYLE ('',( #43 ) ) ;
#99 = PRODUCT_DEFINITION_FORMATION_WITH_SPECIFIED_SOURCE ( 'ANY', '', #79, .NOT_KNOWN. ) ;
#100 = ORIENTED_EDGE ( 'NONE', *, *, #304, .F. ) ;
#101 = CYLINDRICAL_SURFACE ( 'NONE', #209, 0.06250000000000002776 ) ;
#102 = FILL_AREA_STYLE ('',( #269 ) ) ;
#103 = DIRECTION ( 'NONE',  ( -0.000000000000000000, -1.000000000000000000, -0.000000000000000000 ) ) ;
#104 = DIRECTION ( 'NONE',  ( 0.000000000000000000, 0.000000000000000000, -1.000000000000000000 ) ) ;
#105 = DIRECTION ( 'NONE',  ( -0.000000000000000000, -1.000000000000000000, -0.000000000000000000 ) ) ;
#106 = ADVANCED_FACE ( 'NONE', ( #38 ), #298, .F. ) ;
#107 = ADVANCED_BREP_SHAPE_REPRESENTATION ( '84415', ( #299, #297, #130 ), #142 ) ;
#108 = AXIS2_PLACEMENT_3D ( 'NONE', #64, #37, #5 ) ;
#109 = SURFACE_STYLE_USAGE ( .BOTH. , #44 ) ;
#110 = FACE_OUTER_BOUND ( 'NONE', #231, .T. ) ;
#111 =( GEOMETRIC_REPRESENTATION_CONTEXT ( 3 ) GLOBAL_UNCERTAINTY_ASSIGNED_CONTEXT ( ( #88 ) ) GLOBAL_UNIT_ASSIGNED_CONTEXT ( ( #210, #147, #51 ) ) REPRESENTATION_CONTEXT ( 'NONE', 'WORKASPACE' ) );
#112 = CIRCLE ( 'NONE', #165, 0.06250000000000000000 ) ;
#113 = CARTESIAN_POINT ( 'NONE',  ( -0.06250000000000009714, 2.000000000000000000, 0.000000000000000000 ) ) ;
#114 = PRODUCT_CONTEXT ( 'NONE', #13, 'mechanical' ) ;
#115 = CARTESIAN_POINT ( 'NONE',  ( 0.000000000000000000, 0.000000000000000000, 0.000000000000000000 ) ) ;
#116 =( CONVERSION_BASED_UNIT ( 'INCH', #161 ) LENGTH_UNIT ( ) NAMED_UNIT ( #232 ) );
#117 = COLOUR_RGB ( '',0.7921568627450980005, 0.8196078431372548767, 0.9333333333333333481 ) ;
#118 = CARTESIAN_POINT ( 'NONE',  ( -6.123233995736763571E-17, 2.000000000000000000, 0.000000000000000000 ) ) ;
#119 =( GEOMETRIC_REPRESENTATION_CONTEXT ( 3 ) GLOBAL_UNCERTAINTY_ASSIGNED_CONTEXT ( ( #202 ) ) GLOBAL_UNIT_ASSIGNED_CONTEXT ( ( #253, #227, #305 ) ) REPRESENTATION_CONTEXT ( 'NONE', 'WORKASPACE' ) );
#120 = AXIS2_PLACEMENT_3D ( 'NONE', #58, #148, #8 ) ;
#121 = DIRECTION ( 'NONE',  ( -1.000000000000000000, 0.000000000000000000, 0.000000000000000000 ) ) ;
#122 = CARTESIAN_POINT ( 'NONE',  ( 7.654042494670957545E-18, 0.000000000000000000, 0.06250000000000000000 ) ) ;
#123 = APPLICATION_CONTEXT ( 'automotive_design' ) ;
#124 = FILL_AREA_STYLE ('',( #62 ) ) ;
#125 = FACE_OUTER_BOUND ( 'NONE', #82, .T. ) ;
#126 = UNCERTAINTY_MEASURE_WITH_UNIT (LENGTH_MEASURE( 1.000000000000000082E-05 ), #168, 'distance_accuracy_value', 'NONE');
#127 =( LENGTH_UNIT ( ) NAMED_UNIT ( * ) SI_UNIT ( $, .METRE. ) );
#128 = EDGE_CURVE ( 'NONE', #194, #153, #246, .T. ) ;
#129 = DIRECTION ( 'NONE',  ( 0.000000000000000000, 0.000000000000000000, 1.000000000000000000 ) ) ;
#130 = AXIS2_PLACEMENT_3D ( 'NONE', #182, #129, #279 ) ;
#131 = ADVANCED_FACE ( 'NONE', ( #294 ), #225, .T. ) ;
#132 = EDGE_LOOP ( 'NONE', ( #100, #93, #189, #288 ) ) ;
#133 = LINE ( 'NONE', #260, #178 ) ;
#134 = LENGTH_MEASURE_WITH_UNIT ( LENGTH_MEASURE( 0.02539999999999999897 ), #307 );
#135 = AXIS2_PLACEMENT_3D ( 'NONE', #247, #68, #41 ) ;
#136 = CARTESIAN_POINT ( 'NONE',  ( 7.654042494670957545E-18, 0.000000000000000000, 0.06250000000000000000 ) ) ;
#137 =( NAMED_UNIT ( * ) SI_UNIT ( $, .STERADIAN. ) SOLID_ANGLE_UNIT ( ) );
#138 = CARTESIAN_POINT ( 'NONE',  ( 0.000000000000000000, 0.000000000000000000, 0.000000000000000000 ) ) ;
#139 = ORIENTED_EDGE ( 'NONE', *, *, #224, .T. ) ;
#140 = EDGE_LOOP ( 'NONE', ( #236, #240 ) ) ;
#141 = DIRECTION ( 'NONE',  ( -1.000000000000000000, 0.000000000000000000, 0.000000000000000000 ) ) ;
#142 =( GEOMETRIC_REPRESENTATION_CONTEXT ( 3 ) GLOBAL_UNCERTAINTY_ASSIGNED_CONTEXT ( ( #23 ) ) GLOBAL_UNIT_ASSIGNED_CONTEXT ( ( #306, #234, #137 ) ) REPRESENTATION_CONTEXT ( 'NONE', 'WORKASPACE' ) );
#143 = CARTESIAN_POINT ( 'NONE',  ( 0.000000000000000000, 0.3750000000000000555, -0.06250000000000000000 ) ) ;
#144 = VERTEX_POINT ( 'NONE', #277 ) ;
#145 = ORIENTED_EDGE ( 'NONE', *, *, #16, .F. ) ;
#146 = DIRECTION ( 'NONE',  ( -3.768143997376469510E-17, 1.000000000000000000, -0.000000000000000000 ) ) ;
#147 =( NAMED_UNIT ( * ) PLANE_ANGLE_UNIT ( ) SI_UNIT ( $, .RADIAN. ) );
#148 = DIRECTION ( 'NONE',  ( -3.768143997376469510E-17, 1.000000000000000000, 0.000000000000000000 ) ) ;
#149 = PRODUCT_RELATED_PRODUCT_CATEGORY ( 'part', '', ( #79 ) ) ;
#150 = PRESENTATION_STYLE_ASSIGNMENT (( #175 ) ) ;
#151 = STYLED_ITEM ( 'NONE', ( #155 ), #3 ) ;
#152 = DIRECTION ( 'NONE',  ( -0.000000000000000000, -1.000000000000000000, -0.000000000000000000 ) ) ;
#153 = VERTEX_POINT ( 'NONE', #70 ) ;
#154 = DIMENSIONAL_EXPONENTS ( 1.000000000000000000, 0.000000000000000000, 0.000000000000000000, 0.000000000000000000, 0.000000000000000000, 0.000000000000000000, 0.000000000000000000 ) ;
#155 = PRESENTATION_STYLE_ASSIGNMENT (( #261 ) ) ;
#156 = FILL_AREA_STYLE_COLOUR ( '', #59 ) ;
#157 = ADVANCED_FACE ( 'NONE', ( #40 ), #86, .T. ) ;
#158 = AXIS2_PLACEMENT_3D ( 'NONE', #205, #296, #14 ) ;
#159 = MECHANICAL_DESIGN_GEOMETRIC_PRESENTATION_REPRESENTATION (  '', ( #223 ), #197 ) ;
#160 = ORIENTED_EDGE ( 'NONE', *, *, #179, .T. ) ;
#161 = LENGTH_MEASURE_WITH_UNIT ( LENGTH_MEASURE( 0.02539999999999999897 ), #127 );
#162 = SURFACE_STYLE_FILL_AREA ( #280 ) ;
#163 = CARTESIAN_POINT ( 'NONE',  ( 0.000000000000000000, 0.3750000000000000555, 0.000000000000000000 ) ) ;
#164 =( NAMED_UNIT ( * ) SI_UNIT ( $, .STERADIAN. ) SOLID_ANGLE_UNIT ( ) );
#165 = AXIS2_PLACEMENT_3D ( 'NONE', #289, #217, #104 ) ;
#166 = ORIENTED_EDGE ( 'NONE', *, *, #91, .T. ) ;
#167 = DIRECTION ( 'NONE',  ( -3.768143997376469510E-17, 1.000000000000000000, -0.000000000000000000 ) ) ;
#168 =( CONVERSION_BASED_UNIT ( 'INCH', #170 ) LENGTH_UNIT ( ) NAMED_UNIT ( #187 ) );
#169 = SURFACE_STYLE_FILL_AREA ( #102 ) ;
#170 = LENGTH_MEASURE_WITH_UNIT ( LENGTH_MEASURE( 0.02539999999999999897 ), #265 );
#171 = PRESENTATION_LAYER_ASSIGNMENT (  '', '', ( #308 ) ) ;
#172 = AXIS2_PLACEMENT_3D ( 'NONE', #173, #146, #121 ) ;
#173 = CARTESIAN_POINT ( 'NONE',  ( 0.000000000000000000, 0.3749999999999999445, 0.000000000000000000 ) ) ;
#174 = AXIS2_PLACEMENT_3D ( 'NONE', #285, #167, #201 ) ;
#175 = SURFACE_STYLE_USAGE ( .BOTH. , #80 ) ;
#176 = SURFACE_STYLE_FILL_AREA ( #251 ) ;
#177 = MECHANICAL_DESIGN_GEOMETRIC_PRESENTATION_REPRESENTATION (  '', ( #308 ), #283 ) ;
#178 = VECTOR ( 'NONE', #258, 39.37007874015748143 ) ;
#179 = EDGE_CURVE ( 'NONE', #33, #144, #85, .T. ) ;
#180 = PLANE ( 'NONE',  #108 ) ;
#181 = DIRECTION ( 'NONE',  ( 0.000000000000000000, 0.000000000000000000, -1.000000000000000000 ) ) ;
#182 = CARTESIAN_POINT ( 'NONE',  ( 0.000000000000000000, 0.000000000000000000, 0.000000000000000000 ) ) ;
#183 = VECTOR ( 'NONE', #152, 39.37007874015748143 ) ;
#184 = ORIENTED_EDGE ( 'NONE', *, *, #272, .F. ) ;
#185 =( NAMED_UNIT ( * ) PLANE_ANGLE_UNIT ( ) SI_UNIT ( $, .RADIAN. ) );
#186 = CARTESIAN_POINT ( 'NONE',  ( 0.000000000000000000, 0.000000000000000000, 0.000000000000000000 ) ) ;
#187 = DIMENSIONAL_EXPONENTS ( 1.000000000000000000, 0.000000000000000000, 0.000000000000000000, 0.000000000000000000, 0.000000000000000000, 0.000000000000000000, 0.000000000000000000 ) ;
#188 =( CONVERSION_BASED_UNIT ( 'INCH', #22 ) LENGTH_UNIT ( ) NAMED_UNIT ( #76 ) );
#189 = ORIENTED_EDGE ( 'NONE', *, *, #19, .T. ) ;
#190 = VECTOR ( 'NONE', #278, 39.37007874015748143 ) ;
#191 = MECHANICAL_DESIGN_GEOMETRIC_PRESENTATION_REPRESENTATION (  '', ( #151 ), #119 ) ;
#192 = SURFACE_STYLE_USAGE ( .BOTH. , #193 ) ;
#193 = SURFACE_SIDE_STYLE ('',( #215 ) ) ;
#194 = VERTEX_POINT ( 'NONE', #143 ) ;
#195 = CARTESIAN_POINT ( 'NONE',  ( 0.000000000000000000, 0.000000000000000000, 0.000000000000000000 ) ) ;
#196 = CIRCLE ( 'NONE', #244, 0.06250000000000000000 ) ;
#197 =( GEOMETRIC_REPRESENTATION_CONTEXT ( 3 ) GLOBAL_UNCERTAINTY_ASSIGNED_CONTEXT ( ( #220 ) ) GLOBAL_UNIT_ASSIGNED_CONTEXT ( ( #116, #185, #47 ) ) REPRESENTATION_CONTEXT ( 'NONE', 'WORKASPACE' ) );
#198 = SURFACE_STYLE_FILL_AREA ( #124 ) ;
#199 = EDGE_CURVE ( 'NONE', #144, #33, #295, .T. ) ;
#200 = DIRECTION ( 'NONE',  ( -3.768143997376469510E-17, 1.000000000000000000, -0.000000000000000000 ) ) ;
#201 = DIRECTION ( 'NONE',  ( -1.000000000000000000, 0.000000000000000000, 0.000000000000000000 ) ) ;
#202 = UNCERTAINTY_MEASURE_WITH_UNIT (LENGTH_MEASURE( 1.000000000000000082E-05 ), #253, 'distance_accuracy_value', 'NONE');
#203 = SURFACE_SIDE_STYLE ('',( #162 ) ) ;
#204 = CIRCLE ( 'NONE', #174, 0.06250000000000005551 ) ;
#205 = CARTESIAN_POINT ( 'NONE',  ( -6.123233995736763571E-17, 2.000000000000000000, 0.000000000000000000 ) ) ;
#206 = CARTESIAN_POINT ( 'NONE',  ( -0.06250000000000000000, 0.3749999999999999445, 0.000000000000000000 ) ) ;
#207 = PRODUCT_DEFINITION ( 'UNKNOWN', '', #99, #50 ) ;
#208 = ORIENTED_EDGE ( 'NONE', *, *, #304, .T. ) ;
#209 = AXIS2_PLACEMENT_3D ( 'NONE', #30, #268, #141 ) ;
#210 =( CONVERSION_BASED_UNIT ( 'INCH', #27 ) LENGTH_UNIT ( ) NAMED_UNIT ( #4 ) );
#211 = DIRECTION ( 'NONE',  ( -0.000000000000000000, -1.000000000000000000, -0.000000000000000000 ) ) ;
#212 = PRESENTATION_STYLE_ASSIGNMENT (( #270 ) ) ;
#213 = ADVANCED_FACE ( 'NONE', ( #125 ), #31, .F. ) ;
#214 = AXIS2_PLACEMENT_3D ( 'NONE', #138, #211, #55 ) ;
#215 = SURFACE_STYLE_FILL_AREA ( #237 ) ;
#216 = CARTESIAN_POINT ( 'NONE',  ( 0.06250000000000000000, 2.000000000000000000, 7.654042494670963708E-18 ) ) ;
#217 = DIRECTION ( 'NONE',  ( -0.000000000000000000, -1.000000000000000000, -0.000000000000000000 ) ) ;
#218 = COLOUR_RGB ( '',1.000000000000000000, 0.000000000000000000, 0.000000000000000000 ) ;
#219 = EDGE_LOOP ( 'NONE', ( #17, #264, #42, #242 ) ) ;
#220 = UNCERTAINTY_MEASURE_WITH_UNIT (LENGTH_MEASURE( 1.000000000000000082E-05 ), #116, 'distance_accuracy_value', 'NONE');
#221 = CARTESIAN_POINT ( 'NONE',  ( 0.000000000000000000, 0.000000000000000000, -0.06250000000000000000 ) ) ;
#222 = PRESENTATION_LAYER_ASSIGNMENT (  '', '', ( #151 ) ) ;
#223 = STYLED_ITEM ( 'NONE', ( #212 ), #297 ) ;
#224 = EDGE_CURVE ( 'NONE', #24, #57, #84, .T. ) ;
#225 = CYLINDRICAL_SURFACE ( 'NONE', #158, 0.06250000000000002776 ) ;
#226 = DIMENSIONAL_EXPONENTS ( 1.000000000000000000, 0.000000000000000000, 0.000000000000000000, 0.000000000000000000, 0.000000000000000000, 0.000000000000000000, 0.000000000000000000 ) ;
#227 =( NAMED_UNIT ( * ) PLANE_ANGLE_UNIT ( ) SI_UNIT ( $, .RADIAN. ) );
#228 =( GEOMETRIC_REPRESENTATION_CONTEXT ( 3 ) GLOBAL_UNCERTAINTY_ASSIGNED_CONTEXT ( ( #274 ) ) GLOBAL_UNIT_ASSIGNED_CONTEXT ( ( #188, #72, #26 ) ) REPRESENTATION_CONTEXT ( 'NONE', 'WORKASPACE' ) );
#229 = AXIS2_PLACEMENT_3D ( 'NONE', #28, #32, #7 ) ;
#230 = DIRECTION ( 'NONE',  ( 0.000000000000000000, 0.000000000000000000, -1.000000000000000000 ) ) ;
#231 = EDGE_LOOP ( 'NONE', ( #184, #233 ) ) ;
#232 = DIMENSIONAL_EXPONENTS ( 1.000000000000000000, 0.000000000000000000, 0.000000000000000000, 0.000000000000000000, 0.000000000000000000, 0.000000000000000000, 0.000000000000000000 ) ;
#233 = ORIENTED_EDGE ( 'NONE', *, *, #56, .F. ) ;
#234 =( NAMED_UNIT ( * ) PLANE_ANGLE_UNIT ( ) SI_UNIT ( $, .RADIAN. ) );
#235 = AXIS2_PLACEMENT_3D ( 'NONE', #163, #92, #257 ) ;
#236 = ORIENTED_EDGE ( 'NONE', *, *, #16, .T. ) ;
#237 = FILL_AREA_STYLE ('',( #9 ) ) ;
#238 = COLOUR_RGB ( '',0.7921568627450980005, 0.8196078431372548767, 0.9333333333333333481 ) ;
#239 = CARTESIAN_POINT ( 'NONE',  ( 0.000000000000000000, 0.000000000000000000, 0.000000000000000000 ) ) ;
#240 = ORIENTED_EDGE ( 'NONE', *, *, #248, .T. ) ;
#241 = DIRECTION ( 'NONE',  ( 0.000000000000000000, 0.000000000000000000, -1.000000000000000000 ) ) ;
#242 = ORIENTED_EDGE ( 'NONE', *, *, #248, .F. ) ;
#243 = UNCERTAINTY_MEASURE_WITH_UNIT (LENGTH_MEASURE( 1.000000000000000082E-05 ), #95, 'distance_accuracy_value', 'NONE');
#244 = AXIS2_PLACEMENT_3D ( 'NONE', #186, #302, #181 ) ;
#245 = ADVANCED_FACE ( 'NONE', ( #83 ), #101, .T. ) ;
#246 = LINE ( 'NONE', #221, #183 ) ;
#247 = CARTESIAN_POINT ( 'NONE',  ( 0.06250000000000000000, 2.000000000000000000, 0.000000000000000000 ) ) ;
#248 = EDGE_CURVE ( 'NONE', #57, #153, #263, .T. ) ;
#249 = ORIENTED_EDGE ( 'NONE', *, *, #255, .F. ) ;
#250 =( LENGTH_UNIT ( ) NAMED_UNIT ( * ) SI_UNIT ( $, .METRE. ) );
#251 = FILL_AREA_STYLE ('',( #156 ) ) ;
#252 = CLOSED_SHELL ( 'NONE', ( #245, #213, #131, #106 ) ) ;
#253 =( CONVERSION_BASED_UNIT ( 'INCH', #75 ) LENGTH_UNIT ( ) NAMED_UNIT ( #20 ) );
#254 =( GEOMETRIC_REPRESENTATION_CONTEXT ( 3 ) GLOBAL_UNCERTAINTY_ASSIGNED_CONTEXT ( ( #126 ) ) GLOBAL_UNIT_ASSIGNED_CONTEXT ( ( #168, #81, #286 ) ) REPRESENTATION_CONTEXT ( 'NONE', 'WORKASPACE' ) );
#255 = EDGE_CURVE ( 'NONE', #21, #276, #53, .T. ) ;
#256 =( NAMED_UNIT ( * ) PLANE_ANGLE_UNIT ( ) SI_UNIT ( $, .RADIAN. ) );
#257 = DIRECTION ( 'NONE',  ( 0.000000000000000000, 0.000000000000000000, -1.000000000000000000 ) ) ;
#258 = DIRECTION ( 'NONE',  ( -3.768143997376469510E-17, 1.000000000000000000, -0.000000000000000000 ) ) ;
#259 =( LENGTH_UNIT ( ) NAMED_UNIT ( * ) SI_UNIT ( $, .METRE. ) );
#260 = CARTESIAN_POINT ( 'NONE',  ( 0.06249999999999997224, 2.000000000000000000, 7.654042494670960626E-18 ) ) ;
#261 = SURFACE_STYLE_USAGE ( .BOTH. , #203 ) ;
#262 = COLOUR_RGB ( '',1.000000000000000000, 0.000000000000000000, 0.000000000000000000 ) ;
#263 = CIRCLE ( 'NONE', #11, 0.06250000000000000000 ) ;
#264 = ORIENTED_EDGE ( 'NONE', *, *, #56, .T. ) ;
#265 =( LENGTH_UNIT ( ) NAMED_UNIT ( * ) SI_UNIT ( $, .METRE. ) );
#266 = PLANE ( 'NONE',  #284 ) ;
#267 = STYLED_ITEM ( 'NONE', ( #96 ), #299 ) ;
#268 = DIRECTION ( 'NONE',  ( -3.768143997376469510E-17, 1.000000000000000000, -0.000000000000000000 ) ) ;
#269 = FILL_AREA_STYLE_COLOUR ( '', #262 ) ;
#270 = SURFACE_STYLE_USAGE ( .BOTH. , #292 ) ;
#271 =( LENGTH_UNIT ( ) NAMED_UNIT ( * ) SI_UNIT ( $, .METRE. ) );
#272 = EDGE_CURVE ( 'NONE', #194, #24, #112, .T. ) ;
#273 = PRESENTATION_STYLE_ASSIGNMENT (( #109 ) ) ;
#274 = UNCERTAINTY_MEASURE_WITH_UNIT (LENGTH_MEASURE( 1.000000000000000082E-05 ), #188, 'distance_accuracy_value', 'NONE');
#275 = PRESENTATION_LAYER_ASSIGNMENT (  '', '', ( #66 ) ) ;
#276 = VERTEX_POINT ( 'NONE', #216 ) ;
#277 = CARTESIAN_POINT ( 'NONE',  ( 0.06250000000000000000, 0.3749999999999999445, 7.654042494670963708E-18 ) ) ;
#278 = DIRECTION ( 'NONE',  ( -3.768143997376469510E-17, 1.000000000000000000, -0.000000000000000000 ) ) ;
#279 = DIRECTION ( 'NONE',  ( 1.000000000000000000, 0.000000000000000000, 0.000000000000000000 ) ) ;
#280 = FILL_AREA_STYLE ('',( #52 ) ) ;
#281 =( LENGTH_UNIT ( ) NAMED_UNIT ( * ) SI_UNIT ( $, .METRE. ) );
#282 = LINE ( 'NONE', #113, #190 ) ;
#283 =( GEOMETRIC_REPRESENTATION_CONTEXT ( 3 ) GLOBAL_UNCERTAINTY_ASSIGNED_CONTEXT ( ( #243 ) ) GLOBAL_UNIT_ASSIGNED_CONTEXT ( ( #95, #256, #164 ) ) REPRESENTATION_CONTEXT ( 'NONE', 'WORKASPACE' ) );
#284 = AXIS2_PLACEMENT_3D ( 'NONE', #239, #61, #241 ) ;
#285 = CARTESIAN_POINT ( 'NONE',  ( -6.123233995736763571E-17, 2.000000000000000000, 0.000000000000000000 ) ) ;
#286 =( NAMED_UNIT ( * ) SI_UNIT ( $, .STERADIAN. ) SOLID_ANGLE_UNIT ( ) );
#287 = DIRECTION ( 'NONE',  ( 0.000000000000000000, 0.000000000000000000, -1.000000000000000000 ) ) ;
#288 = ORIENTED_EDGE ( 'NONE', *, *, #91, .F. ) ;
#289 = CARTESIAN_POINT ( 'NONE',  ( 0.000000000000000000, 0.3750000000000000555, 0.000000000000000000 ) ) ;
#290 = COLOUR_RGB ( '',1.000000000000000000, 0.000000000000000000, 0.000000000000000000 ) ;
#291 = MECHANICAL_DESIGN_GEOMETRIC_PRESENTATION_REPRESENTATION (  '', ( #73 ), #254 ) ;
#292 = SURFACE_SIDE_STYLE ('',( #198 ) ) ;
#293 = ADVANCED_FACE ( 'NONE', ( #34 ), #266, .T. ) ;
#294 = FACE_OUTER_BOUND ( 'NONE', #132, .T. ) ;
#295 = CIRCLE ( 'NONE', #229, 0.06250000000000000000 ) ;
#296 = DIRECTION ( 'NONE',  ( -3.768143997376469510E-17, 1.000000000000000000, -0.000000000000000000 ) ) ;
#297 = MANIFOLD_SOLID_BREP ( 'Revolve - Tool Body (Straight Shanked)', #252 ) ;
#298 = PLANE ( 'NONE',  #135 ) ;
#299 = MANIFOLD_SOLID_BREP ( 'Revolve - Cutting Edge', #6 ) ;
#300 = PRESENTATION_LAYER_ASSIGNMENT (  '', '', ( #73 ) ) ;
#301 = ORIENTED_EDGE ( 'NONE', *, *, #199, .F. ) ;
#302 = DIRECTION ( 'NONE',  ( -0.000000000000000000, -1.000000000000000000, -0.000000000000000000 ) ) ;
#303 = SURFACE_STYLE_USAGE ( .BOTH. , #98 ) ;
#304 = EDGE_CURVE ( 'NONE', #144, #276, #133, .T. ) ;
#305 =( NAMED_UNIT ( * ) SI_UNIT ( $, .STERADIAN. ) SOLID_ANGLE_UNIT ( ) );
#306 =( CONVERSION_BASED_UNIT ( 'INCH', #49 ) LENGTH_UNIT ( ) NAMED_UNIT ( #154 ) );
#307 =( LENGTH_UNIT ( ) NAMED_UNIT ( * ) SI_UNIT ( $, .METRE. ) );
#308 = STYLED_ITEM ( 'NONE', ( #273 ), #157 ) ;
#309 = SHAPE_DEFINITION_REPRESENTATION ( #12, #107 ) ;
ENDSEC;
END-ISO-10303-21;
