ISO-10303-21;
HEADER;
FILE_DESCRIPTION (( 'STEP AP214' ),
    '1' );
FILE_NAME ('44167.STEP',
    '2023-06-22T19:31:45',
    ( '' ),
    ( '' ),
    'SwSTEP 2.0',
    'SolidWorks 2023',
    '' );
FILE_SCHEMA (( 'AUTOMOTIVE_DESIGN' ));
ENDSEC;

DATA;
#1 = PRESENTATION_STYLE_ASSIGNMENT (( #55 ) ) ;
#2 = CARTESIAN_POINT ( 'NONE',  ( 1.913510623667739463E-17, 0.000000000000000000, 0.1562500000000000000 ) ) ;
#3 =( GEOMETRIC_REPRESENTATION_CONTEXT ( 3 ) GLOBAL_UNCERTAINTY_ASSIGNED_CONTEXT ( ( #101 ) ) GLOBAL_UNIT_ASSIGNED_CONTEXT ( ( #284, #141, #186 ) ) REPRESENTATION_CONTEXT ( 'NONE', 'WORKASPACE' ) );
#4 = FACE_OUTER_BOUND ( 'NONE', #255, .T. ) ;
#5 = LINE ( 'NONE', #176, #308 ) ;
#6 = SURFACE_SIDE_STYLE ('',( #30 ) ) ;
#7 = CARTESIAN_POINT ( 'NONE',  ( 0.000000000000000000, 0.4374999999999998890, 0.000000000000000000 ) ) ;
#8 = VERTEX_POINT ( 'NONE', #252 ) ;
#9 = VECTOR ( 'NONE', #67, 39.37007874015748143 ) ;
#10 = PRODUCT_DEFINITION_SHAPE ( 'NONE', 'NONE',  #195 ) ;
#11 = ORIENTED_EDGE ( 'NONE', *, *, #306, .T. ) ;
#12 =( CONVERSION_BASED_UNIT ( 'INCH', #64 ) LENGTH_UNIT ( ) NAMED_UNIT ( #296 ) );
#13 = ORIENTED_EDGE ( 'NONE', *, *, #267, .F. ) ;
#14 = PLANE ( 'NONE',  #133 ) ;
#15 = ORIENTED_EDGE ( 'NONE', *, *, #187, .F. ) ;
#16 = CYLINDRICAL_SURFACE ( 'NONE', #51, 0.1562499999999999722 ) ;
#17 =( CONVERSION_BASED_UNIT ( 'INCH', #279 ) LENGTH_UNIT ( ) NAMED_UNIT ( #277 ) );
#18 = EDGE_CURVE ( 'NONE', #204, #271, #260, .T. ) ;
#19 = PRODUCT_DEFINITION_FORMATION_WITH_SPECIFIED_SOURCE ( 'ANY', '', #196, .NOT_KNOWN. ) ;
#20 =( LENGTH_UNIT ( ) NAMED_UNIT ( * ) SI_UNIT ( $, .METRE. ) );
#21 =( NAMED_UNIT ( * ) PLANE_ANGLE_UNIT ( ) SI_UNIT ( $, .RADIAN. ) );
#22 = LENGTH_MEASURE_WITH_UNIT ( LENGTH_MEASURE( 0.02539999999999999897 ), #94 );
#23 = STYLED_ITEM ( 'NONE', ( #285 ), #161 ) ;
#24 = DIRECTION ( 'NONE',  ( 0.000000000000000000, -0.000000000000000000, 1.000000000000000000 ) ) ;
#25 = CARTESIAN_POINT ( 'NONE',  ( 0.1562500000000000278, 0.4374999999999998890, 1.913510623667739463E-17 ) ) ;
#26 = DIRECTION ( 'NONE',  ( 0.000000000000000000, 0.000000000000000000, -1.000000000000000000 ) ) ;
#27 = DIRECTION ( 'NONE',  ( -0.000000000000000000, -1.000000000000000000, -0.000000000000000000 ) ) ;
#28 =( GEOMETRIC_REPRESENTATION_CONTEXT ( 3 ) GLOBAL_UNCERTAINTY_ASSIGNED_CONTEXT ( ( #46 ) ) GLOBAL_UNIT_ASSIGNED_CONTEXT ( ( #17, #88, #124 ) ) REPRESENTATION_CONTEXT ( 'NONE', 'WORKASPACE' ) );
#29 = PLANE ( 'NONE',  #125 ) ;
#30 = SURFACE_STYLE_FILL_AREA ( #92 ) ;
#31 = ADVANCED_BREP_SHAPE_REPRESENTATION ( '44167', ( #89, #183, #256 ), #105 ) ;
#32 = DIRECTION ( 'NONE',  ( -7.837739514543064125E-17, -1.000000000000000000, 0.000000000000000000 ) ) ;
#33 = ORIENTED_EDGE ( 'NONE', *, *, #187, .T. ) ;
#34 = MECHANICAL_DESIGN_GEOMETRIC_PRESENTATION_REPRESENTATION (  '', ( #231 ), #263 ) ;
#35 = CARTESIAN_POINT ( 'NONE',  ( 0.000000000000000000, 0.4374999999999998890, 0.000000000000000000 ) ) ;
#36 = ORIENTED_EDGE ( 'NONE', *, *, #306, .F. ) ;
#37 = VERTEX_POINT ( 'NONE', #297 ) ;
#38 = DIRECTION ( 'NONE',  ( 7.837739514543064125E-17, 1.000000000000000000, -0.000000000000000000 ) ) ;
#39 =( LENGTH_UNIT ( ) NAMED_UNIT ( * ) SI_UNIT ( $, .METRE. ) );
#40 = ORIENTED_EDGE ( 'NONE', *, *, #110, .F. ) ;
#41 = EDGE_CURVE ( 'NONE', #200, #37, #77, .T. ) ;
#42 = DIRECTION ( 'NONE',  ( 0.000000000000000000, -1.000000000000000000, -0.000000000000000000 ) ) ;
#43 = FILL_AREA_STYLE_COLOUR ( '', #283 ) ;
#44 = SURFACE_STYLE_FILL_AREA ( #259 ) ;
#45 = PRESENTATION_LAYER_ASSIGNMENT (  '', '', ( #231 ) ) ;
#46 = UNCERTAINTY_MEASURE_WITH_UNIT (LENGTH_MEASURE( 1.000000000000000082E-05 ), #17, 'distance_accuracy_value', 'NONE');
#47 = EDGE_CURVE ( 'NONE', #8, #63, #131, .T. ) ;
#48 = SURFACE_STYLE_USAGE ( .BOTH. , #309 ) ;
#49 = UNCERTAINTY_MEASURE_WITH_UNIT (LENGTH_MEASURE( 1.000000000000000082E-05 ), #221, 'distance_accuracy_value', 'NONE');
#50 = CARTESIAN_POINT ( 'NONE',  ( 0.000000000000000000, 0.000000000000000000, 0.000000000000000000 ) ) ;
#51 = AXIS2_PLACEMENT_3D ( 'NONE', #61, #227, #281 ) ;
#52 = DIRECTION ( 'NONE',  ( -1.000000000000000000, 0.000000000000000000, 0.000000000000000000 ) ) ;
#53 = SURFACE_SIDE_STYLE ('',( #175 ) ) ;
#54 = DIRECTION ( 'NONE',  ( 0.000000000000000000, 0.000000000000000000, -1.000000000000000000 ) ) ;
#55 = SURFACE_STYLE_USAGE ( .BOTH. , #53 ) ;
#56 = UNCERTAINTY_MEASURE_WITH_UNIT (LENGTH_MEASURE( 1.000000000000000082E-05 ), #90, 'distance_accuracy_value', 'NONE');
#57 = CIRCLE ( 'NONE', #65, 0.1562500000000000000 ) ;
#58 = DIRECTION ( 'NONE',  ( -0.000000000000000000, -1.000000000000000000, -0.000000000000000000 ) ) ;
#59 = ORIENTED_EDGE ( 'NONE', *, *, #137, .F. ) ;
#60 = ORIENTED_EDGE ( 'NONE', *, *, #41, .T. ) ;
#61 = CARTESIAN_POINT ( 'NONE',  ( 1.224646799147353700E-16, 2.000000000000000000, 0.000000000000000000 ) ) ;
#62 = CIRCLE ( 'NONE', #181, 0.1562499999999999167 ) ;
#63 = VERTEX_POINT ( 'NONE', #258 ) ;
#64 = LENGTH_MEASURE_WITH_UNIT ( LENGTH_MEASURE( 0.02539999999999999897 ), #111 );
#65 = AXIS2_PLACEMENT_3D ( 'NONE', #241, #269, #140 ) ;
#66 = ORIENTED_EDGE ( 'NONE', *, *, #47, .T. ) ;
#67 = DIRECTION ( 'NONE',  ( -0.000000000000000000, -1.000000000000000000, -0.000000000000000000 ) ) ;
#68 = AXIS2_PLACEMENT_3D ( 'NONE', #123, #222, #248 ) ;
#69 = CARTESIAN_POINT ( 'NONE',  ( 0.000000000000000000, 0.4374999999999998890, 0.000000000000000000 ) ) ;
#70 = ADVANCED_FACE ( 'NONE', ( #238 ), #213, .T. ) ;
#71 = PRESENTATION_STYLE_ASSIGNMENT (( #302 ) ) ;
#72 = SURFACE_STYLE_FILL_AREA ( #287 ) ;
#73 = COLOUR_RGB ( '',1.000000000000000000, 0.000000000000000000, 0.000000000000000000 ) ;
#74 = FILL_AREA_STYLE_COLOUR ( '', #293 ) ;
#75 = DIRECTION ( 'NONE',  ( 0.000000000000000000, 0.000000000000000000, -1.000000000000000000 ) ) ;
#76 = LENGTH_MEASURE_WITH_UNIT ( LENGTH_MEASURE( 0.02539999999999999897 ), #168 );
#77 = CIRCLE ( 'NONE', #278, 0.1562500000000000000 ) ;
#78 = VECTOR ( 'NONE', #38, 39.37007874015748143 ) ;
#79 = CARTESIAN_POINT ( 'NONE',  ( 0.000000000000000000, 0.000000000000000000, -0.1562500000000000000 ) ) ;
#80 = CARTESIAN_POINT ( 'NONE',  ( 0.000000000000000000, 0.000000000000000000, 0.000000000000000000 ) ) ;
#81 = DIMENSIONAL_EXPONENTS ( 1.000000000000000000, 0.000000000000000000, 0.000000000000000000, 0.000000000000000000, 0.000000000000000000, 0.000000000000000000, 0.000000000000000000 ) ;
#82 = VERTEX_POINT ( 'NONE', #25 ) ;
#83 = DIRECTION ( 'NONE',  ( 1.000000000000000000, 0.000000000000000000, 0.000000000000000000 ) ) ;
#84 = EDGE_CURVE ( 'NONE', #271, #204, #62, .T. ) ;
#85 = MECHANICAL_DESIGN_GEOMETRIC_PRESENTATION_REPRESENTATION (  '', ( #23 ), #3 ) ;
#86 = FILL_AREA_STYLE_COLOUR ( '', #207 ) ;
#87 = FACE_OUTER_BOUND ( 'NONE', #230, .T. ) ;
#88 =( NAMED_UNIT ( * ) PLANE_ANGLE_UNIT ( ) SI_UNIT ( $, .RADIAN. ) );
#89 = MANIFOLD_SOLID_BREP ( 'Revolve - Cutting Edge', #177 ) ;
#90 =( CONVERSION_BASED_UNIT ( 'INCH', #163 ) LENGTH_UNIT ( ) NAMED_UNIT ( #294 ) );
#91 = PRESENTATION_LAYER_ASSIGNMENT (  '', '', ( #23 ) ) ;
#92 = FILL_AREA_STYLE ('',( #86 ) ) ;
#93 = DIRECTION ( 'NONE',  ( 0.000000000000000000, 0.000000000000000000, -1.000000000000000000 ) ) ;
#94 =( LENGTH_UNIT ( ) NAMED_UNIT ( * ) SI_UNIT ( $, .METRE. ) );
#95 = AXIS2_PLACEMENT_3D ( 'NONE', #148, #205, #102 ) ;
#96 = MECHANICAL_DESIGN_GEOMETRIC_PRESENTATION_REPRESENTATION (  '', ( #251 ), #28 ) ;
#97 = DIRECTION ( 'NONE',  ( -0.000000000000000000, -1.000000000000000000, -0.000000000000000000 ) ) ;
#98 = CYLINDRICAL_SURFACE ( 'NONE', #109, 0.1562500000000000000 ) ;
#99 = FILL_AREA_STYLE_COLOUR ( '', #240 ) ;
#100 = EDGE_CURVE ( 'NONE', #8, #37, #218, .T. ) ;
#101 = UNCERTAINTY_MEASURE_WITH_UNIT (LENGTH_MEASURE( 1.000000000000000082E-05 ), #284, 'distance_accuracy_value', 'NONE');
#102 = DIRECTION ( 'NONE',  ( -1.000000000000000000, 0.000000000000000000, 0.000000000000000000 ) ) ;
#103 = LENGTH_MEASURE_WITH_UNIT ( LENGTH_MEASURE( 0.02539999999999999897 ), #189 );
#104 = CARTESIAN_POINT ( 'NONE',  ( 1.224646799147353700E-16, 2.000000000000000000, 0.000000000000000000 ) ) ;
#105 =( GEOMETRIC_REPRESENTATION_CONTEXT ( 3 ) GLOBAL_UNCERTAINTY_ASSIGNED_CONTEXT ( ( #143 ) ) GLOBAL_UNIT_ASSIGNED_CONTEXT ( ( #12, #203, #127 ) ) REPRESENTATION_CONTEXT ( 'NONE', 'WORKASPACE' ) );
#106 = DIMENSIONAL_EXPONENTS ( 1.000000000000000000, 0.000000000000000000, 0.000000000000000000, 0.000000000000000000, 0.000000000000000000, 0.000000000000000000, 0.000000000000000000 ) ;
#107 = ORIENTED_EDGE ( 'NONE', *, *, #110, .T. ) ;
#108 = ORIENTED_EDGE ( 'NONE', *, *, #41, .F. ) ;
#109 = AXIS2_PLACEMENT_3D ( 'NONE', #266, #58, #54 ) ;
#110 = EDGE_CURVE ( 'NONE', #132, #271, #5, .T. ) ;
#111 =( LENGTH_UNIT ( ) NAMED_UNIT ( * ) SI_UNIT ( $, .METRE. ) );
#112 = SURFACE_STYLE_USAGE ( .BOTH. , #223 ) ;
#113 = CARTESIAN_POINT ( 'NONE',  ( 0.1562500000000000278, 2.000000000000000000, 0.000000000000000000 ) ) ;
#114 = PRESENTATION_LAYER_ASSIGNMENT (  '', '', ( #117 ) ) ;
#115 = FACE_OUTER_BOUND ( 'NONE', #129, .T. ) ;
#116 = AXIS2_PLACEMENT_3D ( 'NONE', #69, #185, #93 ) ;
#117 = STYLED_ITEM ( 'NONE', ( #138 ), #183 ) ;
#118 = SURFACE_STYLE_USAGE ( .BOTH. , #193 ) ;
#119 =( NAMED_UNIT ( * ) PLANE_ANGLE_UNIT ( ) SI_UNIT ( $, .RADIAN. ) );
#120 =( NAMED_UNIT ( * ) SI_UNIT ( $, .STERADIAN. ) SOLID_ANGLE_UNIT ( ) );
#121 = LINE ( 'NONE', #147, #78 ) ;
#122 = AXIS2_PLACEMENT_3D ( 'NONE', #113, #32, #303 ) ;
#123 = CARTESIAN_POINT ( 'NONE',  ( 0.000000000000000000, 0.4374999999999998890, 0.000000000000000000 ) ) ;
#124 =( NAMED_UNIT ( * ) SI_UNIT ( $, .STERADIAN. ) SOLID_ANGLE_UNIT ( ) );
#125 = AXIS2_PLACEMENT_3D ( 'NONE', #134, #209, #135 ) ;
#126 = ORIENTED_EDGE ( 'NONE', *, *, #18, .F. ) ;
#127 =( NAMED_UNIT ( * ) SI_UNIT ( $, .STERADIAN. ) SOLID_ANGLE_UNIT ( ) );
#128 = DIMENSIONAL_EXPONENTS ( 1.000000000000000000, 0.000000000000000000, 0.000000000000000000, 0.000000000000000000, 0.000000000000000000, 0.000000000000000000, 0.000000000000000000 ) ;
#129 = EDGE_LOOP ( 'NONE', ( #60, #178 ) ) ;
#130 = EDGE_LOOP ( 'NONE', ( #15, #151 ) ) ;
#131 = CIRCLE ( 'NONE', #116, 0.1562500000000000278 ) ;
#132 = VERTEX_POINT ( 'NONE', #290 ) ;
#133 = AXIS2_PLACEMENT_3D ( 'NONE', #165, #166, #24 ) ;
#134 = CARTESIAN_POINT ( 'NONE',  ( 4.799231304517950640E-34, 0.4374999999999998890, 0.000000000000000000 ) ) ;
#135 = DIRECTION ( 'NONE',  ( -1.000000000000000000, 7.837739514543064125E-17, 0.000000000000000000 ) ) ;
#136 = FACE_OUTER_BOUND ( 'NONE', #280, .T. ) ;
#137 = EDGE_CURVE ( 'NONE', #37, #200, #57, .T. ) ;
#138 = PRESENTATION_STYLE_ASSIGNMENT (( #48 ) ) ;
#139 = UNCERTAINTY_MEASURE_WITH_UNIT (LENGTH_MEASURE( 1.000000000000000082E-05 ), #272, 'distance_accuracy_value', 'NONE');
#140 = DIRECTION ( 'NONE',  ( 0.000000000000000000, 0.000000000000000000, -1.000000000000000000 ) ) ;
#141 =( NAMED_UNIT ( * ) PLANE_ANGLE_UNIT ( ) SI_UNIT ( $, .RADIAN. ) );
#142 = AXIS2_PLACEMENT_3D ( 'NONE', #104, #274, #180 ) ;
#143 = UNCERTAINTY_MEASURE_WITH_UNIT (LENGTH_MEASURE( 1.000000000000000082E-05 ), #12, 'distance_accuracy_value', 'NONE');
#144 =( NAMED_UNIT ( * ) PLANE_ANGLE_UNIT ( ) SI_UNIT ( $, .RADIAN. ) );
#145 = LENGTH_MEASURE_WITH_UNIT ( LENGTH_MEASURE( 0.02539999999999999897 ), #243 );
#146 = DIRECTION ( 'NONE',  ( -1.000000000000000000, 0.000000000000000000, 0.000000000000000000 ) ) ;
#147 = CARTESIAN_POINT ( 'NONE',  ( 0.1562500000000001110, 2.000000000000000000, 1.913510623667738847E-17 ) ) ;
#148 = CARTESIAN_POINT ( 'NONE',  ( 1.224646799147353700E-16, 2.000000000000000000, 0.000000000000000000 ) ) ;
#149 = FACE_OUTER_BOUND ( 'NONE', #154, .T. ) ;
#150 = ADVANCED_FACE ( 'NONE', ( #115 ), #215, .T. ) ;
#151 = ORIENTED_EDGE ( 'NONE', *, *, #244, .F. ) ;
#152 = LINE ( 'NONE', #159, #9 ) ;
#153 = STYLED_ITEM ( 'NONE', ( #1 ), #210 ) ;
#154 = EDGE_LOOP ( 'NONE', ( #33, #250, #228, #40 ) ) ;
#155 = PRODUCT_CONTEXT ( 'NONE', #191, 'mechanical' ) ;
#156 = ADVANCED_FACE ( 'NONE', ( #136 ), #234, .F. ) ;
#157 = ORIENTED_EDGE ( 'NONE', *, *, #84, .T. ) ;
#158 = ORIENTED_EDGE ( 'NONE', *, *, #18, .T. ) ;
#159 = CARTESIAN_POINT ( 'NONE',  ( 0.000000000000000000, 0.000000000000000000, -0.1562500000000000000 ) ) ;
#160 = MECHANICAL_DESIGN_GEOMETRIC_PRESENTATION_REPRESENTATION (  '', ( #262 ), #169 ) ;
#161 = ADVANCED_FACE ( 'NONE', ( #224 ), #14, .T. ) ;
#162 = SURFACE_STYLE_FILL_AREA ( #211 ) ;
#163 = LENGTH_MEASURE_WITH_UNIT ( LENGTH_MEASURE( 0.02539999999999999897 ), #20 );
#164 =( GEOMETRIC_REPRESENTATION_CONTEXT ( 3 ) GLOBAL_UNCERTAINTY_ASSIGNED_CONTEXT ( ( #139 ) ) GLOBAL_UNIT_ASSIGNED_CONTEXT ( ( #272, #144, #120 ) ) REPRESENTATION_CONTEXT ( 'NONE', 'WORKASPACE' ) );
#165 = CARTESIAN_POINT ( 'NONE',  ( 0.000000000000000000, 0.4374999999999998890, 0.000000000000000000 ) ) ;
#166 = DIRECTION ( 'NONE',  ( 0.000000000000000000, 1.000000000000000000, 0.000000000000000000 ) ) ;
#167 = SURFACE_STYLE_FILL_AREA ( #174 ) ;
#168 =( LENGTH_UNIT ( ) NAMED_UNIT ( * ) SI_UNIT ( $, .METRE. ) );
#169 =( GEOMETRIC_REPRESENTATION_CONTEXT ( 3 ) GLOBAL_UNCERTAINTY_ASSIGNED_CONTEXT ( ( #56 ) ) GLOBAL_UNIT_ASSIGNED_CONTEXT ( ( #90, #21, #188 ) ) REPRESENTATION_CONTEXT ( 'NONE', 'WORKASPACE' ) );
#170 = VECTOR ( 'NONE', #27, 39.37007874015748143 ) ;
#171 = PRODUCT_DEFINITION_CONTEXT ( 'detailed design', #217, 'design' ) ;
#172 = DIRECTION ( 'NONE',  ( 7.837739514543064125E-17, 1.000000000000000000, -0.000000000000000000 ) ) ;
#173 = ADVANCED_FACE ( 'NONE', ( #246 ), #29, .F. ) ;
#174 = FILL_AREA_STYLE ('',( #74 ) ) ;
#175 = SURFACE_STYLE_FILL_AREA ( #201 ) ;
#176 = CARTESIAN_POINT ( 'NONE',  ( -0.1562499999999998335, 2.000000000000000000, 0.000000000000000000 ) ) ;
#177 = CLOSED_SHELL ( 'NONE', ( #210, #161, #70, #150 ) ) ;
#178 = ORIENTED_EDGE ( 'NONE', *, *, #137, .T. ) ;
#179 = ORIENTED_EDGE ( 'NONE', *, *, #244, .T. ) ;
#180 = DIRECTION ( 'NONE',  ( -1.000000000000000000, 0.000000000000000000, 0.000000000000000000 ) ) ;
#181 = AXIS2_PLACEMENT_3D ( 'NONE', #288, #172, #52 ) ;
#182 = MECHANICAL_DESIGN_GEOMETRIC_PRESENTATION_REPRESENTATION (  '', ( #153 ), #164 ) ;
#183 = MANIFOLD_SOLID_BREP ( 'Revolve - Tool Body (Straight Shanked)', #307 ) ;
#184 = DIRECTION ( 'NONE',  ( -0.000000000000000000, -1.000000000000000000, -0.000000000000000000 ) ) ;
#185 = DIRECTION ( 'NONE',  ( -0.000000000000000000, -1.000000000000000000, -0.000000000000000000 ) ) ;
#186 =( NAMED_UNIT ( * ) SI_UNIT ( $, .STERADIAN. ) SOLID_ANGLE_UNIT ( ) );
#187 = EDGE_CURVE ( 'NONE', #132, #82, #220, .T. ) ;
#188 =( NAMED_UNIT ( * ) SI_UNIT ( $, .STERADIAN. ) SOLID_ANGLE_UNIT ( ) );
#189 =( LENGTH_UNIT ( ) NAMED_UNIT ( * ) SI_UNIT ( $, .METRE. ) );
#190 = FILL_AREA_STYLE_COLOUR ( '', #73 ) ;
#191 = APPLICATION_CONTEXT ( 'automotive_design' ) ;
#192 = FILL_AREA_STYLE_COLOUR ( '', #304 ) ;
#193 = SURFACE_SIDE_STYLE ('',( #167 ) ) ;
#194 =( CONVERSION_BASED_UNIT ( 'INCH', #103 ) LENGTH_UNIT ( ) NAMED_UNIT ( #229 ) );
#195 = PRODUCT_DEFINITION ( 'UNKNOWN', '', #19, #171 ) ;
#196 = PRODUCT ( '44167', '44167', '', ( #155 ) ) ;
#197 =( NAMED_UNIT ( * ) PLANE_ANGLE_UNIT ( ) SI_UNIT ( $, .RADIAN. ) );
#198 = DIRECTION ( 'NONE',  ( 7.837739514543064125E-17, 1.000000000000000000, -0.000000000000000000 ) ) ;
#199 = SURFACE_STYLE_USAGE ( .BOTH. , #6 ) ;
#200 = VERTEX_POINT ( 'NONE', #79 ) ;
#201 = FILL_AREA_STYLE ('',( #99 ) ) ;
#202 = CIRCLE ( 'NONE', #286, 0.1562500000000000278 ) ;
#203 =( NAMED_UNIT ( * ) PLANE_ANGLE_UNIT ( ) SI_UNIT ( $, .RADIAN. ) );
#204 = VERTEX_POINT ( 'NONE', #264 ) ;
#205 = DIRECTION ( 'NONE',  ( 7.837739514543064125E-17, 1.000000000000000000, -0.000000000000000000 ) ) ;
#206 = DIRECTION ( 'NONE',  ( 0.000000000000000000, 0.000000000000000000, 1.000000000000000000 ) ) ;
#207 = COLOUR_RGB ( '',1.000000000000000000, 0.000000000000000000, 0.000000000000000000 ) ;
#208 = CYLINDRICAL_SURFACE ( 'NONE', #142, 0.1562499999999999722 ) ;
#209 = DIRECTION ( 'NONE',  ( 7.837739514543064125E-17, 1.000000000000000000, -0.000000000000000000 ) ) ;
#210 = ADVANCED_FACE ( 'NONE', ( #4 ), #98, .T. ) ;
#211 = FILL_AREA_STYLE ('',( #43 ) ) ;
#212 = EDGE_CURVE ( 'NONE', #63, #8, #202, .T. ) ;
#213 = CYLINDRICAL_SURFACE ( 'NONE', #236, 0.1562500000000000000 ) ;
#214 = UNCERTAINTY_MEASURE_WITH_UNIT (LENGTH_MEASURE( 1.000000000000000082E-05 ), #194, 'distance_accuracy_value', 'NONE');
#215 = PLANE ( 'NONE',  #300 ) ;
#216 = AXIS2_PLACEMENT_3D ( 'NONE', #35, #219, #146 ) ;
#217 = APPLICATION_CONTEXT ( 'automotive_design' ) ;
#218 = LINE ( 'NONE', #2, #170 ) ;
#219 = DIRECTION ( 'NONE',  ( 7.837739514543064125E-17, 1.000000000000000000, -0.000000000000000000 ) ) ;
#220 = CIRCLE ( 'NONE', #216, 0.1562500000000000278 ) ;
#221 =( CONVERSION_BASED_UNIT ( 'INCH', #145 ) LENGTH_UNIT ( ) NAMED_UNIT ( #81 ) );
#222 = DIRECTION ( 'NONE',  ( 7.837739514543064125E-17, 1.000000000000000000, -0.000000000000000000 ) ) ;
#223 = SURFACE_SIDE_STYLE ('',( #72 ) ) ;
#224 = FACE_OUTER_BOUND ( 'NONE', #276, .T. ) ;
#225 = EDGE_LOOP ( 'NONE', ( #301, #66, #11, #59 ) ) ;
#226 = ORIENTED_EDGE ( 'NONE', *, *, #47, .F. ) ;
#227 = DIRECTION ( 'NONE',  ( 7.837739514543064125E-17, 1.000000000000000000, -0.000000000000000000 ) ) ;
#228 = ORIENTED_EDGE ( 'NONE', *, *, #84, .F. ) ;
#229 = DIMENSIONAL_EXPONENTS ( 1.000000000000000000, 0.000000000000000000, 0.000000000000000000, 0.000000000000000000, 0.000000000000000000, 0.000000000000000000, 0.000000000000000000 ) ;
#230 = EDGE_LOOP ( 'NONE', ( #13, #179, #107, #126 ) ) ;
#231 = STYLED_ITEM ( 'NONE', ( #268 ), #89 ) ;
#232 = CARTESIAN_POINT ( 'NONE',  ( 0.000000000000000000, 0.000000000000000000, 0.000000000000000000 ) ) ;
#233 = DIRECTION ( 'NONE',  ( 0.000000000000000000, 0.000000000000000000, -1.000000000000000000 ) ) ;
#234 = PLANE ( 'NONE',  #122 ) ;
#235 = SURFACE_SIDE_STYLE ('',( #162 ) ) ;
#236 = AXIS2_PLACEMENT_3D ( 'NONE', #50, #97, #75 ) ;
#237 = PRESENTATION_LAYER_ASSIGNMENT (  '', '', ( #251 ) ) ;
#238 = FACE_OUTER_BOUND ( 'NONE', #225, .T. ) ;
#239 =( NAMED_UNIT ( * ) SI_UNIT ( $, .STERADIAN. ) SOLID_ANGLE_UNIT ( ) );
#240 = COLOUR_RGB ( '',1.000000000000000000, 0.000000000000000000, 0.000000000000000000 ) ;
#241 = CARTESIAN_POINT ( 'NONE',  ( 0.000000000000000000, 0.000000000000000000, 0.000000000000000000 ) ) ;
#242 = DIRECTION ( 'NONE',  ( -0.000000000000000000, -1.000000000000000000, -0.000000000000000000 ) ) ;
#243 =( LENGTH_UNIT ( ) NAMED_UNIT ( * ) SI_UNIT ( $, .METRE. ) );
#244 = EDGE_CURVE ( 'NONE', #82, #132, #270, .T. ) ;
#245 = PRESENTATION_LAYER_ASSIGNMENT (  '', '', ( #153 ) ) ;
#246 = FACE_OUTER_BOUND ( 'NONE', #130, .T. ) ;
#247 = DIRECTION ( 'NONE',  ( 0.000000000000000000, 0.000000000000000000, -1.000000000000000000 ) ) ;
#248 = DIRECTION ( 'NONE',  ( -1.000000000000000000, 0.000000000000000000, 0.000000000000000000 ) ) ;
#249 = CARTESIAN_POINT ( 'NONE',  ( -0.1562499999999997780, 2.000000000000000000, 0.000000000000000000 ) ) ;
#250 = ORIENTED_EDGE ( 'NONE', *, *, #267, .T. ) ;
#251 = STYLED_ITEM ( 'NONE', ( #257 ), #150 ) ;
#252 = CARTESIAN_POINT ( 'NONE',  ( 1.913510623667739771E-17, 0.4374999999999998890, 0.1562500000000000278 ) ) ;
#253 = APPLICATION_PROTOCOL_DEFINITION ( 'draft international standard', 'automotive_design', 1998, #217 ) ;
#254 = ORIENTED_EDGE ( 'NONE', *, *, #212, .T. ) ;
#255 = EDGE_LOOP ( 'NONE', ( #254, #273, #108, #36 ) ) ;
#256 = AXIS2_PLACEMENT_3D ( 'NONE', #80, #206, #83 ) ;
#257 = PRESENTATION_STYLE_ASSIGNMENT (( #112 ) ) ;
#258 = CARTESIAN_POINT ( 'NONE',  ( 0.000000000000000000, 0.4374999999999998890, -0.1562500000000000278 ) ) ;
#259 = FILL_AREA_STYLE ('',( #192 ) ) ;
#260 = CIRCLE ( 'NONE', #95, 0.1562499999999999167 ) ;
#261 =( GEOMETRIC_REPRESENTATION_CONTEXT ( 3 ) GLOBAL_UNCERTAINTY_ASSIGNED_CONTEXT ( ( #214 ) ) GLOBAL_UNIT_ASSIGNED_CONTEXT ( ( #194, #197, #239 ) ) REPRESENTATION_CONTEXT ( 'NONE', 'WORKASPACE' ) );
#262 = STYLED_ITEM ( 'NONE', ( #71 ), #70 ) ;
#263 =( GEOMETRIC_REPRESENTATION_CONTEXT ( 3 ) GLOBAL_UNCERTAINTY_ASSIGNED_CONTEXT ( ( #49 ) ) GLOBAL_UNIT_ASSIGNED_CONTEXT ( ( #221, #119, #265 ) ) REPRESENTATION_CONTEXT ( 'NONE', 'WORKASPACE' ) );
#264 = CARTESIAN_POINT ( 'NONE',  ( 0.1562500000000000278, 2.000000000000000000, 1.913510623667739463E-17 ) ) ;
#265 =( NAMED_UNIT ( * ) SI_UNIT ( $, .STERADIAN. ) SOLID_ANGLE_UNIT ( ) );
#266 = CARTESIAN_POINT ( 'NONE',  ( 0.000000000000000000, 0.000000000000000000, 0.000000000000000000 ) ) ;
#267 = EDGE_CURVE ( 'NONE', #82, #204, #121, .T. ) ;
#268 = PRESENTATION_STYLE_ASSIGNMENT (( #118 ) ) ;
#269 = DIRECTION ( 'NONE',  ( -0.000000000000000000, -1.000000000000000000, -0.000000000000000000 ) ) ;
#270 = CIRCLE ( 'NONE', #68, 0.1562500000000000278 ) ;
#271 = VERTEX_POINT ( 'NONE', #249 ) ;
#272 =( CONVERSION_BASED_UNIT ( 'INCH', #76 ) LENGTH_UNIT ( ) NAMED_UNIT ( #128 ) );
#273 = ORIENTED_EDGE ( 'NONE', *, *, #100, .T. ) ;
#274 = DIRECTION ( 'NONE',  ( 7.837739514543064125E-17, 1.000000000000000000, -0.000000000000000000 ) ) ;
#275 = PRODUCT_RELATED_PRODUCT_CATEGORY ( 'part', '', ( #196 ) ) ;
#276 = EDGE_LOOP ( 'NONE', ( #295, #226 ) ) ;
#277 = DIMENSIONAL_EXPONENTS ( 1.000000000000000000, 0.000000000000000000, 0.000000000000000000, 0.000000000000000000, 0.000000000000000000, 0.000000000000000000, 0.000000000000000000 ) ;
#278 = AXIS2_PLACEMENT_3D ( 'NONE', #291, #184, #233 ) ;
#279 = LENGTH_MEASURE_WITH_UNIT ( LENGTH_MEASURE( 0.02539999999999999897 ), #39 );
#280 = EDGE_LOOP ( 'NONE', ( #157, #158 ) ) ;
#281 = DIRECTION ( 'NONE',  ( -1.000000000000000000, 0.000000000000000000, 0.000000000000000000 ) ) ;
#282 = SHAPE_DEFINITION_REPRESENTATION ( #10, #31 ) ;
#283 = COLOUR_RGB ( '',1.000000000000000000, 0.000000000000000000, 0.000000000000000000 ) ;
#284 =( CONVERSION_BASED_UNIT ( 'INCH', #22 ) LENGTH_UNIT ( ) NAMED_UNIT ( #106 ) );
#285 = PRESENTATION_STYLE_ASSIGNMENT (( #199 ) ) ;
#286 = AXIS2_PLACEMENT_3D ( 'NONE', #7, #242, #26 ) ;
#287 = FILL_AREA_STYLE ('',( #190 ) ) ;
#288 = CARTESIAN_POINT ( 'NONE',  ( 1.224646799147353700E-16, 2.000000000000000000, 0.000000000000000000 ) ) ;
#289 = MECHANICAL_DESIGN_GEOMETRIC_PRESENTATION_REPRESENTATION (  '', ( #117 ), #261 ) ;
#290 = CARTESIAN_POINT ( 'NONE',  ( -0.1562500000000000278, 0.4374999999999998890, 0.000000000000000000 ) ) ;
#291 = CARTESIAN_POINT ( 'NONE',  ( 0.000000000000000000, 0.000000000000000000, 0.000000000000000000 ) ) ;
#292 = PRESENTATION_LAYER_ASSIGNMENT (  '', '', ( #262 ) ) ;
#293 = COLOUR_RGB ( '',0.7921568627450980005, 0.8196078431372548767, 0.9333333333333333481 ) ;
#294 = DIMENSIONAL_EXPONENTS ( 1.000000000000000000, 0.000000000000000000, 0.000000000000000000, 0.000000000000000000, 0.000000000000000000, 0.000000000000000000, 0.000000000000000000 ) ;
#295 = ORIENTED_EDGE ( 'NONE', *, *, #212, .F. ) ;
#296 = DIMENSIONAL_EXPONENTS ( 1.000000000000000000, 0.000000000000000000, 0.000000000000000000, 0.000000000000000000, 0.000000000000000000, 0.000000000000000000, 0.000000000000000000 ) ;
#297 = CARTESIAN_POINT ( 'NONE',  ( 1.913510623667739463E-17, 0.000000000000000000, 0.1562500000000000000 ) ) ;
#298 = APPLICATION_PROTOCOL_DEFINITION ( 'draft international standard', 'automotive_design', 1998, #191 ) ;
#299 = ADVANCED_FACE ( 'NONE', ( #149 ), #208, .T. ) ;
#300 = AXIS2_PLACEMENT_3D ( 'NONE', #232, #42, #247 ) ;
#301 = ORIENTED_EDGE ( 'NONE', *, *, #100, .F. ) ;
#302 = SURFACE_STYLE_USAGE ( .BOTH. , #235 ) ;
#303 = DIRECTION ( 'NONE',  ( 1.000000000000000000, -7.837739514543064125E-17, 0.000000000000000000 ) ) ;
#304 = COLOUR_RGB ( '',0.7921568627450980005, 0.8196078431372548767, 0.9333333333333333481 ) ;
#305 = ADVANCED_FACE ( 'NONE', ( #87 ), #16, .T. ) ;
#306 = EDGE_CURVE ( 'NONE', #63, #200, #152, .T. ) ;
#307 = CLOSED_SHELL ( 'NONE', ( #299, #173, #305, #156 ) ) ;
#308 = VECTOR ( 'NONE', #198, 39.37007874015748143 ) ;
#309 = SURFACE_SIDE_STYLE ('',( #44 ) ) ;
ENDSEC;
END-ISO-10303-21;
