ISO-10303-21;
HEADER;
FILE_DESCRIPTION (( 'STEP AP214' ),
    '1' );
FILE_NAME ('86078.STEP',
    '2023-07-01T00:02:34',
    ( '' ),
    ( '' ),
    'SwSTEP 2.0',
    'SolidWorks 2023',
    '' );
FILE_SCHEMA (( 'AUTOMOTIVE_DESIGN' ));
ENDSEC;

DATA;
#1 = VERTEX_POINT ( 'NONE', #187 ) ;
#2 = DIRECTION ( 'NONE',  ( -2.058076797766554415E-16, 1.000000000000000000, -0.000000000000000000 ) ) ;
#3 = ORIENTED_EDGE ( 'NONE', *, *, #147, .T. ) ;
#4 = SURFACE_STYLE_USAGE ( .BOTH. , #280 ) ;
#5 = EDGE_LOOP ( 'NONE', ( #295, #235, #302, #66 ) ) ;
#6 =( NAMED_UNIT ( * ) PLANE_ANGLE_UNIT ( ) SI_UNIT ( $, .RADIAN. ) );
#7 = DIRECTION ( 'NONE',  ( 1.000000000000000000, 0.000000000000000000, 0.000000000000000000 ) ) ;
#8 = COLOUR_RGB ( '',1.000000000000000000, 0.000000000000000000, 0.000000000000000000 ) ;
#9 = DIRECTION ( 'NONE',  ( -0.000000000000000000, -1.000000000000000000, -0.000000000000000000 ) ) ;
#10 = APPLICATION_CONTEXT ( 'automotive_design' ) ;
#11 = AXIS2_PLACEMENT_3D ( 'NONE', #161, #253, #368 ) ;
#12 = LENGTH_MEASURE_WITH_UNIT ( LENGTH_MEASURE( 0.02539999999999999897 ), #355 );
#13 =( LENGTH_UNIT ( ) NAMED_UNIT ( * ) SI_UNIT ( $, .METRE. ) );
#14 = CARTESIAN_POINT ( 'NONE',  ( 0.1249999999999999584, 0.1250000000000000278, 0.000000000000000000 ) ) ;
#15 = EDGE_CURVE ( 'NONE', #197, #35, #22, .T. ) ;
#16 = EDGE_LOOP ( 'NONE', ( #82, #75, #148, #261, #346 ) ) ;
#17 = DIMENSIONAL_EXPONENTS ( 1.000000000000000000, 0.000000000000000000, 0.000000000000000000, 0.000000000000000000, 0.000000000000000000, 0.000000000000000000, 0.000000000000000000 ) ;
#18 = DIRECTION ( 'NONE',  ( -1.000000000000000000, 0.000000000000000000, 0.000000000000000000 ) ) ;
#19 =( GEOMETRIC_REPRESENTATION_CONTEXT ( 3 ) GLOBAL_UNCERTAINTY_ASSIGNED_CONTEXT ( ( #162 ) ) GLOBAL_UNIT_ASSIGNED_CONTEXT ( ( #105, #292, #153 ) ) REPRESENTATION_CONTEXT ( 'NONE', 'WORKASPACE' ) );
#20 = SURFACE_STYLE_USAGE ( .BOTH. , #46 ) ;
#21 = DIRECTION ( 'NONE',  ( -0.000000000000000000, -1.000000000000000000, -0.000000000000000000 ) ) ;
#22 = CIRCLE ( 'NONE', #278, 0.1249999999999995143 ) ;
#23 = SURFACE_SIDE_STYLE ('',( #275 ) ) ;
#24 = AXIS2_PLACEMENT_3D ( 'NONE', #371, #234, #281 ) ;
#25 = FILL_AREA_STYLE ('',( #85 ) ) ;
#26 = CARTESIAN_POINT ( 'NONE',  ( 0.1249999999999998057, 1.750000000000000000, 1.530808498934189968E-17 ) ) ;
#27 = FILL_AREA_STYLE ('',( #309 ) ) ;
#28 = PRESENTATION_LAYER_ASSIGNMENT (  '', '', ( #191 ) ) ;
#29 = AXIS2_PLACEMENT_3D ( 'NONE', #127, #2, #30 ) ;
#30 = DIRECTION ( 'NONE',  ( -1.000000000000000000, 0.000000000000000000, 0.000000000000000000 ) ) ;
#31 = DIRECTION ( 'NONE',  ( 0.000000000000000000, 0.000000000000000000, -1.000000000000000000 ) ) ;
#32 = FILL_AREA_STYLE_COLOUR ( '', #220 ) ;
#33 = AXIS2_PLACEMENT_3D ( 'NONE', #369, #337, #336 ) ;
#34 = SURFACE_SIDE_STYLE ('',( #239 ) ) ;
#35 = VERTEX_POINT ( 'NONE', #59 ) ;
#36 = PRESENTATION_STYLE_ASSIGNMENT (( #67 ) ) ;
#37 = VERTEX_POINT ( 'NONE', #370 ) ;
#38 = UNCERTAINTY_MEASURE_WITH_UNIT (LENGTH_MEASURE( 1.000000000000000082E-05 ), #218, 'distance_accuracy_value', 'NONE');
#39 = ADVANCED_FACE ( 'NONE', ( #55 ), #276, .T. ) ;
#40 = PRODUCT_CONTEXT ( 'NONE', #10, 'mechanical' ) ;
#41 = PRESENTATION_STYLE_ASSIGNMENT (( #293 ) ) ;
#42 =( LENGTH_UNIT ( ) NAMED_UNIT ( * ) SI_UNIT ( $, .METRE. ) );
#43 = SURFACE_SIDE_STYLE ('',( #202 ) ) ;
#44 = ADVANCED_FACE ( 'NONE', ( #139 ), #237, .T. ) ;
#45 = MANIFOLD_SOLID_BREP ( 'Revolve - Cutting Edge', #185 ) ;
#46 = SURFACE_SIDE_STYLE ('',( #270 ) ) ;
#47 = CARTESIAN_POINT ( 'NONE',  ( 2.793702596253717253E-16, 1.750000000000000000, 0.000000000000000000 ) ) ;
#48 = ORIENTED_EDGE ( 'NONE', *, *, #107, .F. ) ;
#49 = MANIFOLD_SOLID_BREP ( 'Revolve - Tool Body (Straight Shanked)', #167 ) ;
#50 = MECHANICAL_DESIGN_GEOMETRIC_PRESENTATION_REPRESENTATION (  '', ( #126 ), #214 ) ;
#51 = FILL_AREA_STYLE ('',( #209 ) ) ;
#52 = ORIENTED_EDGE ( 'NONE', *, *, #338, .F. ) ;
#53 = ORIENTED_EDGE ( 'NONE', *, *, #195, .T. ) ;
#54 = UNCERTAINTY_MEASURE_WITH_UNIT (LENGTH_MEASURE( 1.000000000000000082E-05 ), #84, 'distance_accuracy_value', 'NONE');
#55 = FACE_OUTER_BOUND ( 'NONE', #321, .T. ) ;
#56 = UNCERTAINTY_MEASURE_WITH_UNIT (LENGTH_MEASURE( 1.000000000000000082E-05 ), #170, 'distance_accuracy_value', 'NONE');
#57 = AXIS2_PLACEMENT_3D ( 'NONE', #350, #320, #267 ) ;
#58 = CARTESIAN_POINT ( 'NONE',  ( -0.1250000000000001665, 4.000000000000000000, 0.000000000000000000 ) ) ;
#59 = CARTESIAN_POINT ( 'NONE',  ( -0.1249999999999992506, 1.750000000000000000, 0.000000000000000000 ) ) ;
#60 = CARTESIAN_POINT ( 'NONE',  ( -7.654042494670957545E-18, 0.000000000000000000, 0.000000000000000000 ) ) ;
#61 = PLANE ( 'NONE',  #372 ) ;
#62 =( GEOMETRIC_REPRESENTATION_CONTEXT ( 3 ) GLOBAL_UNCERTAINTY_ASSIGNED_CONTEXT ( ( #115 ) ) GLOBAL_UNIT_ASSIGNED_CONTEXT ( ( #213, #113, #194 ) ) REPRESENTATION_CONTEXT ( 'NONE', 'WORKASPACE' ) );
#63 = DIRECTION ( 'NONE',  ( -0.000000000000000000, -1.000000000000000000, -0.000000000000000000 ) ) ;
#64 = LENGTH_MEASURE_WITH_UNIT ( LENGTH_MEASURE( 0.02539999999999999897 ), #143 );
#65 = CARTESIAN_POINT ( 'NONE',  ( 0.1249999999999998057, 4.000000000000000000, 1.530808498934189968E-17 ) ) ;
#66 = ORIENTED_EDGE ( 'NONE', *, *, #338, .T. ) ;
#67 = SURFACE_STYLE_USAGE ( .BOTH. , #43 ) ;
#68 = ORIENTED_EDGE ( 'NONE', *, *, #222, .F. ) ;
#69 = CIRCLE ( 'NONE', #272, 0.1249999999999995143 ) ;
#70 =( CONVERSION_BASED_UNIT ( 'INCH', #12 ) LENGTH_UNIT ( ) NAMED_UNIT ( #180 ) );
#71 =( GEOMETRIC_REPRESENTATION_CONTEXT ( 3 ) GLOBAL_UNCERTAINTY_ASSIGNED_CONTEXT ( ( #254 ) ) GLOBAL_UNIT_ASSIGNED_CONTEXT ( ( #70, #6, #108 ) ) REPRESENTATION_CONTEXT ( 'NONE', 'WORKASPACE' ) );
#72 = ADVANCED_FACE ( 'NONE', ( #184 ), #365, .F. ) ;
#73 = LENGTH_MEASURE_WITH_UNIT ( LENGTH_MEASURE( 0.02539999999999999897 ), #328 );
#74 =( NAMED_UNIT ( * ) PLANE_ANGLE_UNIT ( ) SI_UNIT ( $, .RADIAN. ) );
#75 = ORIENTED_EDGE ( 'NONE', *, *, #367, .T. ) ;
#76 = MECHANICAL_DESIGN_GEOMETRIC_PRESENTATION_REPRESENTATION (  '', ( #341 ), #205 ) ;
#77 = CYLINDRICAL_SURFACE ( 'NONE', #33, 0.1249999999999998751 ) ;
#78 = MECHANICAL_DESIGN_GEOMETRIC_PRESENTATION_REPRESENTATION (  '', ( #131 ), #71 ) ;
#79 = LINE ( 'NONE', #277, #251 ) ;
#80 = FACE_OUTER_BOUND ( 'NONE', #339, .T. ) ;
#81 = ORIENTED_EDGE ( 'NONE', *, *, #301, .F. ) ;
#82 = ORIENTED_EDGE ( 'NONE', *, *, #301, .T. ) ;
#83 = COLOUR_RGB ( '',0.7921568627450980005, 0.8196078431372548767, 0.9333333333333333481 ) ;
#84 =( CONVERSION_BASED_UNIT ( 'INCH', #252 ) LENGTH_UNIT ( ) NAMED_UNIT ( #210 ) );
#85 = FILL_AREA_STYLE_COLOUR ( '', #8 ) ;
#86 = DIRECTION ( 'NONE',  ( -1.000000000000000000, 0.000000000000000000, 0.000000000000000000 ) ) ;
#87 = EDGE_CURVE ( 'NONE', #112, #37, #363, .T. ) ;
#88 = PRESENTATION_LAYER_ASSIGNMENT (  '', '', ( #341 ) ) ;
#89 = DIRECTION ( 'NONE',  ( 0.000000000000000000, 0.000000000000000000, -1.000000000000000000 ) ) ;
#90 = ORIENTED_EDGE ( 'NONE', *, *, #367, .F. ) ;
#91 = CIRCLE ( 'NONE', #186, 0.1249999999999997918 ) ;
#92 = AXIS2_PLACEMENT_3D ( 'NONE', #212, #296, #318 ) ;
#93 = CARTESIAN_POINT ( 'NONE',  ( 1.530808498934190893E-17, 0.1250000000000000278, 0.1249999999999999584 ) ) ;
#94 = DIRECTION ( 'NONE',  ( 1.224646799147353207E-16, -0.000000000000000000, 1.000000000000000000 ) ) ;
#95 = ORIENTED_EDGE ( 'NONE', *, *, #87, .T. ) ;
#96 = LENGTH_MEASURE_WITH_UNIT ( LENGTH_MEASURE( 0.02539999999999999897 ), #169 );
#97 = EDGE_CURVE ( 'NONE', #35, #197, #69, .T. ) ;
#98 = EDGE_LOOP ( 'NONE', ( #102, #310 ) ) ;
#99 = AXIS2_PLACEMENT_3D ( 'NONE', #216, #327, #7 ) ;
#100 = CARTESIAN_POINT ( 'NONE',  ( 0.000000000000000000, 0.1250000000000000278, 0.000000000000000000 ) ) ;
#101 = FILL_AREA_STYLE ('',( #291 ) ) ;
#102 = ORIENTED_EDGE ( 'NONE', *, *, #97, .F. ) ;
#103 = CYLINDRICAL_SURFACE ( 'NONE', #92, 0.1249999999999998751 ) ;
#104 = AXIS2_PLACEMENT_3D ( 'NONE', #260, #313, #123 ) ;
#105 =( CONVERSION_BASED_UNIT ( 'INCH', #349 ) LENGTH_UNIT ( ) NAMED_UNIT ( #271 ) );
#106 = CIRCLE ( 'NONE', #120, 0.1249999999999999861 ) ;
#107 = EDGE_CURVE ( 'NONE', #35, #201, #110, .T. ) ;
#108 =( NAMED_UNIT ( * ) SI_UNIT ( $, .STERADIAN. ) SOLID_ANGLE_UNIT ( ) );
#109 =( NAMED_UNIT ( * ) SI_UNIT ( $, .STERADIAN. ) SOLID_ANGLE_UNIT ( ) );
#110 = LINE ( 'NONE', #221, #118 ) ;
#111 = DIMENSIONAL_EXPONENTS ( 1.000000000000000000, 0.000000000000000000, 0.000000000000000000, 0.000000000000000000, 0.000000000000000000, 0.000000000000000000, 0.000000000000000000 ) ;
#112 = VERTEX_POINT ( 'NONE', #304 ) ;
#113 =( NAMED_UNIT ( * ) PLANE_ANGLE_UNIT ( ) SI_UNIT ( $, .RADIAN. ) );
#114 = CARTESIAN_POINT ( 'NONE',  ( 0.000000000000000000, 0.000000000000000000, -0.1249999999999998751 ) ) ;
#115 = UNCERTAINTY_MEASURE_WITH_UNIT (LENGTH_MEASURE( 1.000000000000000082E-05 ), #213, 'distance_accuracy_value', 'NONE');
#116 = DIRECTION ( 'NONE',  ( -0.000000000000000000, -1.000000000000000000, -0.000000000000000000 ) ) ;
#117 = ADVANCED_FACE ( 'NONE', ( #80 ), #366, .T. ) ;
#118 = VECTOR ( 'NONE', #188, 39.37007874015748143 ) ;
#119 = LINE ( 'NONE', #255, #300 ) ;
#120 = AXIS2_PLACEMENT_3D ( 'NONE', #335, #315, #121 ) ;
#121 = DIRECTION ( 'NONE',  ( -1.000000000000000000, 0.000000000000000000, 0.000000000000000000 ) ) ;
#122 = UNCERTAINTY_MEASURE_WITH_UNIT (LENGTH_MEASURE( 1.000000000000000082E-05 ), #156, 'distance_accuracy_value', 'NONE');
#123 = DIRECTION ( 'NONE',  ( 0.000000000000000000, -0.000000000000000000, 1.000000000000000000 ) ) ;
#124 =( NAMED_UNIT ( * ) PLANE_ANGLE_UNIT ( ) SI_UNIT ( $, .RADIAN. ) );
#125 = EDGE_CURVE ( 'NONE', #197, #133, #119, .T. ) ;
#126 = STYLED_ITEM ( 'NONE', ( #359 ), #44 ) ;
#127 = CARTESIAN_POINT ( 'NONE',  ( -1.836970198721029688E-16, 4.000000000000000000, 0.000000000000000000 ) ) ;
#128 = AXIS2_PLACEMENT_3D ( 'NONE', #47, #330, #159 ) ;
#129 = SURFACE_STYLE_FILL_AREA ( #154 ) ;
#130 = CARTESIAN_POINT ( 'NONE',  ( 0.000000000000000000, 0.1250000000000000278, 0.000000000000000000 ) ) ;
#131 = STYLED_ITEM ( 'NONE', ( #353 ), #345 ) ;
#132 =( LENGTH_UNIT ( ) NAMED_UNIT ( * ) SI_UNIT ( $, .METRE. ) );
#133 = VERTEX_POINT ( 'NONE', #65 ) ;
#134 = DIRECTION ( 'NONE',  ( -1.000000000000000000, 0.000000000000000000, 0.000000000000000000 ) ) ;
#135 = CIRCLE ( 'NONE', #266, 0.1250000000000000000 ) ;
#136 = PRODUCT ( '86078', '86078', '', ( #40 ) ) ;
#137 = SPHERICAL_SURFACE ( 'NONE', #11, 0.1250000000000000000 ) ;
#138 = DIRECTION ( 'NONE',  ( 0.000000000000000000, 0.000000000000000000, -1.000000000000000000 ) ) ;
#139 = FACE_OUTER_BOUND ( 'NONE', #317, .T. ) ;
#140 = CIRCLE ( 'NONE', #348, 0.1249999999999999584 ) ;
#141 = CARTESIAN_POINT ( 'NONE',  ( 0.1249999999999997918, 4.000000000000000000, 0.000000000000000000 ) ) ;
#142 = MECHANICAL_DESIGN_GEOMETRIC_PRESENTATION_REPRESENTATION (  '', ( #179 ), #19 ) ;
#143 =( LENGTH_UNIT ( ) NAMED_UNIT ( * ) SI_UNIT ( $, .METRE. ) );
#144 = CARTESIAN_POINT ( 'NONE',  ( 0.000000000000000000, 0.1250000000000000278, 0.000000000000000000 ) ) ;
#145 = DIRECTION ( 'NONE',  ( 0.000000000000000000, 0.000000000000000000, -1.000000000000000000 ) ) ;
#146 = ORIENTED_EDGE ( 'NONE', *, *, #97, .T. ) ;
#147 = EDGE_CURVE ( 'NONE', #333, #258, #140, .T. ) ;
#148 = ORIENTED_EDGE ( 'NONE', *, *, #147, .F. ) ;
#149 = PRESENTATION_LAYER_ASSIGNMENT (  '', '', ( #179 ) ) ;
#150 = SURFACE_STYLE_USAGE ( .BOTH. , #208 ) ;
#151 = VERTEX_POINT ( 'NONE', #60 ) ;
#152 = DIMENSIONAL_EXPONENTS ( 1.000000000000000000, 0.000000000000000000, 0.000000000000000000, 0.000000000000000000, 0.000000000000000000, 0.000000000000000000, 0.000000000000000000 ) ;
#153 =( NAMED_UNIT ( * ) SI_UNIT ( $, .STERADIAN. ) SOLID_ANGLE_UNIT ( ) );
#154 = FILL_AREA_STYLE ('',( #32 ) ) ;
#155 = CIRCLE ( 'NONE', #206, 0.1249999999999999584 ) ;
#156 =( CONVERSION_BASED_UNIT ( 'INCH', #73 ) LENGTH_UNIT ( ) NAMED_UNIT ( #152 ) );
#157 = EDGE_LOOP ( 'NONE', ( #90, #290, #95, #68, #274 ) ) ;
#158 = CARTESIAN_POINT ( 'NONE',  ( 0.000000000000000000, 0.1250000000000000278, 0.000000000000000000 ) ) ;
#159 = DIRECTION ( 'NONE',  ( -1.000000000000000000, -2.058076797766554415E-16, 0.000000000000000000 ) ) ;
#160 = ADVANCED_FACE ( 'NONE', ( #308 ), #256, .T. ) ;
#161 = CARTESIAN_POINT ( 'NONE',  ( -1.530808498934191509E-17, 0.1250000000000000000, 0.000000000000000000 ) ) ;
#162 = UNCERTAINTY_MEASURE_WITH_UNIT (LENGTH_MEASURE( 1.000000000000000082E-05 ), #105, 'distance_accuracy_value', 'NONE');
#163 =( NAMED_UNIT ( * ) SI_UNIT ( $, .STERADIAN. ) SOLID_ANGLE_UNIT ( ) );
#164 = COLOUR_RGB ( '',1.000000000000000000, 0.000000000000000000, 0.000000000000000000 ) ;
#165 = DIRECTION ( 'NONE',  ( 2.058076797766554415E-16, -1.000000000000000000, 0.000000000000000000 ) ) ;
#166 =( NAMED_UNIT ( * ) SI_UNIT ( $, .STERADIAN. ) SOLID_ANGLE_UNIT ( ) );
#167 = CLOSED_SHELL ( 'NONE', ( #160, #72, #39, #231 ) ) ;
#168 = CARTESIAN_POINT ( 'NONE',  ( -0.1250000000000000000, 0.1250000000000000278, 1.530808498934191201E-17 ) ) ;
#169 =( LENGTH_UNIT ( ) NAMED_UNIT ( * ) SI_UNIT ( $, .METRE. ) );
#170 =( CONVERSION_BASED_UNIT ( 'INCH', #96 ) LENGTH_UNIT ( ) NAMED_UNIT ( #240 ) );
#171 = DIRECTION ( 'NONE',  ( -0.000000000000000000, -1.000000000000000000, -0.000000000000000000 ) ) ;
#172 = PRODUCT_RELATED_PRODUCT_CATEGORY ( 'part', '', ( #136 ) ) ;
#173 = PRESENTATION_LAYER_ASSIGNMENT (  '', '', ( #126 ) ) ;
#174 = EDGE_LOOP ( 'NONE', ( #146, #364, #232, #48 ) ) ;
#175 =( GEOMETRIC_REPRESENTATION_CONTEXT ( 3 ) GLOBAL_UNCERTAINTY_ASSIGNED_CONTEXT ( ( #38 ) ) GLOBAL_UNIT_ASSIGNED_CONTEXT ( ( #218, #74, #238 ) ) REPRESENTATION_CONTEXT ( 'NONE', 'WORKASPACE' ) );
#176 = DIRECTION ( 'NONE',  ( 0.000000000000000000, 0.000000000000000000, -1.000000000000000000 ) ) ;
#177 = FILL_AREA_STYLE ('',( #242 ) ) ;
#178 =( CONVERSION_BASED_UNIT ( 'INCH', #211 ) LENGTH_UNIT ( ) NAMED_UNIT ( #111 ) );
#179 = STYLED_ITEM ( 'NONE', ( #36 ), #354 ) ;
#180 = DIMENSIONAL_EXPONENTS ( 1.000000000000000000, 0.000000000000000000, 0.000000000000000000, 0.000000000000000000, 0.000000000000000000, 0.000000000000000000, 0.000000000000000000 ) ;
#181 = SURFACE_STYLE_USAGE ( .BOTH. , #325 ) ;
#182 =( NAMED_UNIT ( * ) PLANE_ANGLE_UNIT ( ) SI_UNIT ( $, .RADIAN. ) );
#183 = APPLICATION_CONTEXT ( 'automotive_design' ) ;
#184 = FACE_OUTER_BOUND ( 'NONE', #98, .T. ) ;
#185 = CLOSED_SHELL ( 'NONE', ( #44, #354, #117, #345, #361 ) ) ;
#186 = AXIS2_PLACEMENT_3D ( 'NONE', #229, #63, #145 ) ;
#187 = CARTESIAN_POINT ( 'NONE',  ( 1.530808498934189660E-17, 1.750000000000000000, 0.1249999999999997918 ) ) ;
#188 = DIRECTION ( 'NONE',  ( -2.058076797766554415E-16, 1.000000000000000000, -0.000000000000000000 ) ) ;
#189 = DIRECTION ( 'NONE',  ( -2.058076797766554415E-16, 1.000000000000000000, -0.000000000000000000 ) ) ;
#190 = CARTESIAN_POINT ( 'NONE',  ( -1.836970198721029688E-16, 4.000000000000000000, 0.000000000000000000 ) ) ;
#191 = STYLED_ITEM ( 'NONE', ( #332 ), #49 ) ;
#192 = CARTESIAN_POINT ( 'NONE',  ( 2.793702596253717253E-16, 1.750000000000000000, 0.000000000000000000 ) ) ;
#193 = CIRCLE ( 'NONE', #24, 0.1249999999999999861 ) ;
#194 =( NAMED_UNIT ( * ) SI_UNIT ( $, .STERADIAN. ) SOLID_ANGLE_UNIT ( ) );
#195 = EDGE_CURVE ( 'NONE', #201, #133, #193, .T. ) ;
#196 = ORIENTED_EDGE ( 'NONE', *, *, #15, .T. ) ;
#197 = VERTEX_POINT ( 'NONE', #26 ) ;
#198 = AXIS2_PLACEMENT_3D ( 'NONE', #287, #265, #323 ) ;
#199 = PRODUCT_DEFINITION_CONTEXT ( 'detailed design', #183, 'design' ) ;
#200 = DIRECTION ( 'NONE',  ( -0.000000000000000000, -1.000000000000000000, -0.000000000000000000 ) ) ;
#201 = VERTEX_POINT ( 'NONE', #58 ) ;
#202 = SURFACE_STYLE_FILL_AREA ( #101 ) ;
#203 = ORIENTED_EDGE ( 'NONE', *, *, #307, .T. ) ;
#204 = FACE_OUTER_BOUND ( 'NONE', #157, .T. ) ;
#205 =( GEOMETRIC_REPRESENTATION_CONTEXT ( 3 ) GLOBAL_UNCERTAINTY_ASSIGNED_CONTEXT ( ( #56 ) ) GLOBAL_UNIT_ASSIGNED_CONTEXT ( ( #170, #124, #166 ) ) REPRESENTATION_CONTEXT ( 'NONE', 'WORKASPACE' ) );
#206 = AXIS2_PLACEMENT_3D ( 'NONE', #130, #9, #176 ) ;
#207 = PRESENTATION_STYLE_ASSIGNMENT (( #20 ) ) ;
#208 = SURFACE_SIDE_STYLE ('',( #129 ) ) ;
#209 = FILL_AREA_STYLE_COLOUR ( '', #289 ) ;
#210 = DIMENSIONAL_EXPONENTS ( 1.000000000000000000, 0.000000000000000000, 0.000000000000000000, 0.000000000000000000, 0.000000000000000000, 0.000000000000000000, 0.000000000000000000 ) ;
#211 = LENGTH_MEASURE_WITH_UNIT ( LENGTH_MEASURE( 0.02539999999999999897 ), #13 );
#212 = CARTESIAN_POINT ( 'NONE',  ( 0.000000000000000000, 0.000000000000000000, 0.000000000000000000 ) ) ;
#213 =( CONVERSION_BASED_UNIT ( 'INCH', #356 ) LENGTH_UNIT ( ) NAMED_UNIT ( #17 ) );
#214 =( GEOMETRIC_REPRESENTATION_CONTEXT ( 3 ) GLOBAL_UNCERTAINTY_ASSIGNED_CONTEXT ( ( #122 ) ) GLOBAL_UNIT_ASSIGNED_CONTEXT ( ( #156, #357, #109 ) ) REPRESENTATION_CONTEXT ( 'NONE', 'WORKASPACE' ) );
#215 = ORIENTED_EDGE ( 'NONE', *, *, #107, .T. ) ;
#216 = CARTESIAN_POINT ( 'NONE',  ( 0.000000000000000000, 0.000000000000000000, 0.000000000000000000 ) ) ;
#217 = PRESENTATION_LAYER_ASSIGNMENT (  '', '', ( #131 ) ) ;
#218 =( CONVERSION_BASED_UNIT ( 'INCH', #64 ) LENGTH_UNIT ( ) NAMED_UNIT ( #297 ) );
#219 = PRODUCT_DEFINITION_SHAPE ( 'NONE', 'NONE',  #245 ) ;
#220 = COLOUR_RGB ( '',1.000000000000000000, 0.000000000000000000, 0.000000000000000000 ) ;
#221 = CARTESIAN_POINT ( 'NONE',  ( -0.1249999999999999445, 4.000000000000000000, 0.000000000000000000 ) ) ;
#222 = EDGE_CURVE ( 'NONE', #223, #37, #227, .T. ) ;
#223 = VERTEX_POINT ( 'NONE', #168 ) ;
#224 = DIRECTION ( 'NONE',  ( -2.058076797766554415E-16, 1.000000000000000000, -0.000000000000000000 ) ) ;
#225 =( GEOMETRIC_REPRESENTATION_CONTEXT ( 3 ) GLOBAL_UNCERTAINTY_ASSIGNED_CONTEXT ( ( #54 ) ) GLOBAL_UNIT_ASSIGNED_CONTEXT ( ( #84, #182, #248 ) ) REPRESENTATION_CONTEXT ( 'NONE', 'WORKASPACE' ) );
#226 = SURFACE_STYLE_FILL_AREA ( #25 ) ;
#227 = CIRCLE ( 'NONE', #247, 0.1249999999999999584 ) ;
#228 = CARTESIAN_POINT ( 'NONE',  ( -1.530808498934191509E-17, 0.1250000000000000000, 0.000000000000000000 ) ) ;
#229 = CARTESIAN_POINT ( 'NONE',  ( 0.000000000000000000, 1.750000000000000000, 0.000000000000000000 ) ) ;
#230 = COLOUR_RGB ( '',0.7921568627450980005, 0.8196078431372548767, 0.9333333333333333481 ) ;
#231 = ADVANCED_FACE ( 'NONE', ( #285 ), #61, .F. ) ;
#232 = ORIENTED_EDGE ( 'NONE', *, *, #195, .F. ) ;
#233 = CIRCLE ( 'NONE', #273, 0.1249999999999999584 ) ;
#234 = DIRECTION ( 'NONE',  ( -2.058076797766554415E-16, 1.000000000000000000, -0.000000000000000000 ) ) ;
#235 = ORIENTED_EDGE ( 'NONE', *, *, #222, .T. ) ;
#236 = EDGE_CURVE ( 'NONE', #1, #112, #294, .T. ) ;
#237 = SPHERICAL_SURFACE ( 'NONE', #57, 0.1250000000000000000 ) ;
#238 =( NAMED_UNIT ( * ) SI_UNIT ( $, .STERADIAN. ) SOLID_ANGLE_UNIT ( ) );
#239 = SURFACE_STYLE_FILL_AREA ( #177 ) ;
#240 = DIMENSIONAL_EXPONENTS ( 1.000000000000000000, 0.000000000000000000, 0.000000000000000000, 0.000000000000000000, 0.000000000000000000, 0.000000000000000000, 0.000000000000000000 ) ;
#241 = FACE_OUTER_BOUND ( 'NONE', #16, .T. ) ;
#242 = FILL_AREA_STYLE_COLOUR ( '', #83 ) ;
#243 = APPLICATION_PROTOCOL_DEFINITION ( 'draft international standard', 'automotive_design', 1998, #10 ) ;
#244 =( GEOMETRIC_REPRESENTATION_CONTEXT ( 3 ) GLOBAL_UNCERTAINTY_ASSIGNED_CONTEXT ( ( #340 ) ) GLOBAL_UNIT_ASSIGNED_CONTEXT ( ( #178, #305, #163 ) ) REPRESENTATION_CONTEXT ( 'NONE', 'WORKASPACE' ) );
#245 = PRODUCT_DEFINITION ( 'UNKNOWN', '', #326, #199 ) ;
#246 = APPLICATION_PROTOCOL_DEFINITION ( 'draft international standard', 'automotive_design', 1998, #183 ) ;
#247 = AXIS2_PLACEMENT_3D ( 'NONE', #144, #259, #89 ) ;
#248 =( NAMED_UNIT ( * ) SI_UNIT ( $, .STERADIAN. ) SOLID_ANGLE_UNIT ( ) );
#249 = SURFACE_STYLE_USAGE ( .BOTH. , #23 ) ;
#250 = EDGE_CURVE ( 'NONE', #133, #201, #106, .T. ) ;
#251 = VECTOR ( 'NONE', #21, 39.37007874015748143 ) ;
#252 = LENGTH_MEASURE_WITH_UNIT ( LENGTH_MEASURE( 0.02539999999999999897 ), #132 );
#253 = DIRECTION ( 'NONE',  ( 0.000000000000000000, 0.000000000000000000, 1.000000000000000000 ) ) ;
#254 = UNCERTAINTY_MEASURE_WITH_UNIT (LENGTH_MEASURE( 1.000000000000000082E-05 ), #70, 'distance_accuracy_value', 'NONE');
#255 = CARTESIAN_POINT ( 'NONE',  ( 0.1249999999999995698, 4.000000000000000000, 1.530808498934188736E-17 ) ) ;
#256 = CYLINDRICAL_SURFACE ( 'NONE', #29, 0.1249999999999997641 ) ;
#257 = COLOUR_RGB ( '',1.000000000000000000, 0.000000000000000000, 0.000000000000000000 ) ;
#258 = VERTEX_POINT ( 'NONE', #93 ) ;
#259 = DIRECTION ( 'NONE',  ( -0.000000000000000000, -1.000000000000000000, -0.000000000000000000 ) ) ;
#260 = CARTESIAN_POINT ( 'NONE',  ( 0.000000000000000000, 1.750000000000000000, 0.000000000000000000 ) ) ;
#261 = ORIENTED_EDGE ( 'NONE', *, *, #322, .F. ) ;
#262 = AXIS2_PLACEMENT_3D ( 'NONE', #190, #224, #134 ) ;
#263 = DIRECTION ( 'NONE',  ( -0.000000000000000000, -1.000000000000000000, -0.000000000000000000 ) ) ;
#264 = ORIENTED_EDGE ( 'NONE', *, *, #288, .T. ) ;
#265 = DIRECTION ( 'NONE',  ( 0.000000000000000000, 0.000000000000000000, -1.000000000000000000 ) ) ;
#266 = AXIS2_PLACEMENT_3D ( 'NONE', #228, #94, #311 ) ;
#267 = DIRECTION ( 'NONE',  ( 1.000000000000000000, 0.000000000000000000, 0.000000000000000000 ) ) ;
#268 = ORIENTED_EDGE ( 'NONE', *, *, #125, .F. ) ;
#269 = DIRECTION ( 'NONE',  ( 0.000000000000000000, 0.000000000000000000, -1.000000000000000000 ) ) ;
#270 = SURFACE_STYLE_FILL_AREA ( #51 ) ;
#271 = DIMENSIONAL_EXPONENTS ( 1.000000000000000000, 0.000000000000000000, 0.000000000000000000, 0.000000000000000000, 0.000000000000000000, 0.000000000000000000, 0.000000000000000000 ) ;
#272 = AXIS2_PLACEMENT_3D ( 'NONE', #299, #189, #18 ) ;
#273 = AXIS2_PLACEMENT_3D ( 'NONE', #158, #171, #269 ) ;
#274 = ORIENTED_EDGE ( 'NONE', *, *, #307, .F. ) ;
#275 = SURFACE_STYLE_FILL_AREA ( #329 ) ;
#276 = CYLINDRICAL_SURFACE ( 'NONE', #262, 0.1249999999999997641 ) ;
#277 = CARTESIAN_POINT ( 'NONE',  ( 1.530808498934189968E-17, 0.000000000000000000, 0.1249999999999998751 ) ) ;
#278 = AXIS2_PLACEMENT_3D ( 'NONE', #192, #303, #86 ) ;
#279 = FILL_AREA_STYLE_COLOUR ( '', #230 ) ;
#280 = SURFACE_SIDE_STYLE ('',( #226 ) ) ;
#281 = DIRECTION ( 'NONE',  ( -1.000000000000000000, 0.000000000000000000, 0.000000000000000000 ) ) ;
#282 = ORIENTED_EDGE ( 'NONE', *, *, #250, .T. ) ;
#283 = MECHANICAL_DESIGN_GEOMETRIC_PRESENTATION_REPRESENTATION (  '', ( #191 ), #225 ) ;
#284 = PRESENTATION_STYLE_ASSIGNMENT (( #4 ) ) ;
#285 = FACE_OUTER_BOUND ( 'NONE', #312, .T. ) ;
#286 = DIRECTION ( 'NONE',  ( -2.058076797766554415E-16, 1.000000000000000000, -0.000000000000000000 ) ) ;
#287 = CARTESIAN_POINT ( 'NONE',  ( -1.530808498934191509E-17, 0.1250000000000000000, 0.000000000000000000 ) ) ;
#288 = EDGE_CURVE ( 'NONE', #223, #151, #135, .T. ) ;
#289 = COLOUR_RGB ( '',1.000000000000000000, 0.000000000000000000, 0.000000000000000000 ) ;
#290 = ORIENTED_EDGE ( 'NONE', *, *, #236, .T. ) ;
#291 = FILL_AREA_STYLE_COLOUR ( '', #257 ) ;
#292 =( NAMED_UNIT ( * ) PLANE_ANGLE_UNIT ( ) SI_UNIT ( $, .RADIAN. ) );
#293 = SURFACE_STYLE_USAGE ( .BOTH. , #34 ) ;
#294 = CIRCLE ( 'NONE', #351, 0.1249999999999997918 ) ;
#295 = ORIENTED_EDGE ( 'NONE', *, *, #288, .F. ) ;
#296 = DIRECTION ( 'NONE',  ( -0.000000000000000000, -1.000000000000000000, -0.000000000000000000 ) ) ;
#297 = DIMENSIONAL_EXPONENTS ( 1.000000000000000000, 0.000000000000000000, 0.000000000000000000, 0.000000000000000000, 0.000000000000000000, 0.000000000000000000, 0.000000000000000000 ) ;
#298 = SHAPE_DEFINITION_REPRESENTATION ( #219, #352 ) ;
#299 = CARTESIAN_POINT ( 'NONE',  ( 2.793702596253717253E-16, 1.750000000000000000, 0.000000000000000000 ) ) ;
#300 = VECTOR ( 'NONE', #286, 39.37007874015748143 ) ;
#301 = EDGE_CURVE ( 'NONE', #112, #1, #91, .T. ) ;
#302 = ORIENTED_EDGE ( 'NONE', *, *, #322, .T. ) ;
#303 = DIRECTION ( 'NONE',  ( -2.058076797766554415E-16, 1.000000000000000000, -0.000000000000000000 ) ) ;
#304 = CARTESIAN_POINT ( 'NONE',  ( 0.000000000000000000, 1.750000000000000000, -0.1249999999999997918 ) ) ;
#305 =( NAMED_UNIT ( * ) PLANE_ANGLE_UNIT ( ) SI_UNIT ( $, .RADIAN. ) );
#306 = PRESENTATION_LAYER_ASSIGNMENT (  '', '', ( #324 ) ) ;
#307 = EDGE_CURVE ( 'NONE', #258, #223, #233, .T. ) ;
#308 = FACE_OUTER_BOUND ( 'NONE', #174, .T. ) ;
#309 = FILL_AREA_STYLE_COLOUR ( '', #164 ) ;
#310 = ORIENTED_EDGE ( 'NONE', *, *, #15, .F. ) ;
#311 = DIRECTION ( 'NONE',  ( 1.000000000000000000, 0.000000000000000000, -1.224646799147353207E-16 ) ) ;
#312 = EDGE_LOOP ( 'NONE', ( #53, #282 ) ) ;
#313 = DIRECTION ( 'NONE',  ( 0.000000000000000000, 1.000000000000000000, 0.000000000000000000 ) ) ;
#314 = CIRCLE ( 'NONE', #198, 0.1250000000000000000 ) ;
#315 = DIRECTION ( 'NONE',  ( -2.058076797766554415E-16, 1.000000000000000000, -0.000000000000000000 ) ) ;
#316 = ORIENTED_EDGE ( 'NONE', *, *, #236, .F. ) ;
#317 = EDGE_LOOP ( 'NONE', ( #203, #264, #52, #3 ) ) ;
#318 = DIRECTION ( 'NONE',  ( 0.000000000000000000, 0.000000000000000000, -1.000000000000000000 ) ) ;
#319 =( LENGTH_UNIT ( ) NAMED_UNIT ( * ) SI_UNIT ( $, .METRE. ) );
#320 = DIRECTION ( 'NONE',  ( 0.000000000000000000, 0.000000000000000000, 1.000000000000000000 ) ) ;
#321 = EDGE_LOOP ( 'NONE', ( #268, #196, #215, #344 ) ) ;
#322 = EDGE_CURVE ( 'NONE', #37, #333, #155, .T. ) ;
#323 = DIRECTION ( 'NONE',  ( -1.000000000000000000, 0.000000000000000000, 0.000000000000000000 ) ) ;
#324 = STYLED_ITEM ( 'NONE', ( #41 ), #45 ) ;
#325 = SURFACE_SIDE_STYLE ('',( #347 ) ) ;
#326 = PRODUCT_DEFINITION_FORMATION_WITH_SPECIFIED_SOURCE ( 'ANY', '', #136, .NOT_KNOWN. ) ;
#327 = DIRECTION ( 'NONE',  ( 0.000000000000000000, 0.000000000000000000, 1.000000000000000000 ) ) ;
#328 =( LENGTH_UNIT ( ) NAMED_UNIT ( * ) SI_UNIT ( $, .METRE. ) );
#329 = FILL_AREA_STYLE ('',( #279 ) ) ;
#330 = DIRECTION ( 'NONE',  ( -2.058076797766554415E-16, 1.000000000000000000, 0.000000000000000000 ) ) ;
#331 = VECTOR ( 'NONE', #116, 39.37007874015748143 ) ;
#332 = PRESENTATION_STYLE_ASSIGNMENT (( #249 ) ) ;
#333 = VERTEX_POINT ( 'NONE', #14 ) ;
#334 = PRESENTATION_LAYER_ASSIGNMENT (  '', '', ( #343 ) ) ;
#335 = CARTESIAN_POINT ( 'NONE',  ( -1.836970198721029688E-16, 4.000000000000000000, 0.000000000000000000 ) ) ;
#336 = DIRECTION ( 'NONE',  ( 0.000000000000000000, 0.000000000000000000, -1.000000000000000000 ) ) ;
#337 = DIRECTION ( 'NONE',  ( -0.000000000000000000, -1.000000000000000000, -0.000000000000000000 ) ) ;
#338 = EDGE_CURVE ( 'NONE', #333, #151, #314, .T. ) ;
#339 = EDGE_LOOP ( 'NONE', ( #81, #316 ) ) ;
#340 = UNCERTAINTY_MEASURE_WITH_UNIT (LENGTH_MEASURE( 1.000000000000000082E-05 ), #178, 'distance_accuracy_value', 'NONE');
#341 = STYLED_ITEM ( 'NONE', ( #284 ), #117 ) ;
#342 = CARTESIAN_POINT ( 'NONE',  ( 0.000000000000000000, 1.750000000000000000, 0.000000000000000000 ) ) ;
#343 = STYLED_ITEM ( 'NONE', ( #207 ), #361 ) ;
#344 = ORIENTED_EDGE ( 'NONE', *, *, #250, .F. ) ;
#345 = ADVANCED_FACE ( 'NONE', ( #204 ), #103, .T. ) ;
#346 = ORIENTED_EDGE ( 'NONE', *, *, #87, .F. ) ;
#347 = SURFACE_STYLE_FILL_AREA ( #27 ) ;
#348 = AXIS2_PLACEMENT_3D ( 'NONE', #100, #263, #138 ) ;
#349 = LENGTH_MEASURE_WITH_UNIT ( LENGTH_MEASURE( 0.02539999999999999897 ), #319 );
#350 = CARTESIAN_POINT ( 'NONE',  ( -1.530808498934191509E-17, 0.1250000000000000000, 0.000000000000000000 ) ) ;
#351 = AXIS2_PLACEMENT_3D ( 'NONE', #342, #200, #31 ) ;
#352 = ADVANCED_BREP_SHAPE_REPRESENTATION ( '86078', ( #45, #49, #99 ), #175 ) ;
#353 = PRESENTATION_STYLE_ASSIGNMENT (( #150 ) ) ;
#354 = ADVANCED_FACE ( 'NONE', ( #241 ), #77, .T. ) ;
#355 =( LENGTH_UNIT ( ) NAMED_UNIT ( * ) SI_UNIT ( $, .METRE. ) );
#356 = LENGTH_MEASURE_WITH_UNIT ( LENGTH_MEASURE( 0.02539999999999999897 ), #42 );
#357 =( NAMED_UNIT ( * ) PLANE_ANGLE_UNIT ( ) SI_UNIT ( $, .RADIAN. ) );
#358 = MECHANICAL_DESIGN_GEOMETRIC_PRESENTATION_REPRESENTATION (  '', ( #324 ), #244 ) ;
#359 = PRESENTATION_STYLE_ASSIGNMENT (( #181 ) ) ;
#360 = MECHANICAL_DESIGN_GEOMETRIC_PRESENTATION_REPRESENTATION (  '', ( #343 ), #62 ) ;
#361 = ADVANCED_FACE ( 'NONE', ( #362 ), #137, .T. ) ;
#362 = FACE_OUTER_BOUND ( 'NONE', #5, .T. ) ;
#363 = LINE ( 'NONE', #114, #331 ) ;
#364 = ORIENTED_EDGE ( 'NONE', *, *, #125, .T. ) ;
#365 = PLANE ( 'NONE',  #128 ) ;
#366 = PLANE ( 'NONE',  #104 ) ;
#367 = EDGE_CURVE ( 'NONE', #1, #258, #79, .T. ) ;
#368 = DIRECTION ( 'NONE',  ( 1.000000000000000000, 0.000000000000000000, 0.000000000000000000 ) ) ;
#369 = CARTESIAN_POINT ( 'NONE',  ( 0.000000000000000000, 0.000000000000000000, 0.000000000000000000 ) ) ;
#370 = CARTESIAN_POINT ( 'NONE',  ( 0.000000000000000000, 0.1250000000000000278, -0.1249999999999999584 ) ) ;
#371 = CARTESIAN_POINT ( 'NONE',  ( -1.836970198721029688E-16, 4.000000000000000000, 0.000000000000000000 ) ) ;
#372 = AXIS2_PLACEMENT_3D ( 'NONE', #141, #165, #373 ) ;
#373 = DIRECTION ( 'NONE',  ( 1.000000000000000000, 2.058076797766554415E-16, 0.000000000000000000 ) ) ;
ENDSEC;
END-ISO-10303-21;
