ISO-10303-21;
HEADER;
FILE_DESCRIPTION (( 'STEP AP214' ),
    '1' );
FILE_NAME ('59264.STEP',
    '2023-06-22T22:29:39',
    ( '' ),
    ( '' ),
    'SwSTEP 2.0',
    'SolidWorks 2023',
    '' );
FILE_SCHEMA (( 'AUTOMOTIVE_DESIGN' ));
ENDSEC;

DATA;
#1 = STYLED_ITEM ( 'NONE', ( #249 ), #190 ) ;
#2 = CARTESIAN_POINT ( 'NONE',  ( -0.2500000000000001110, 3.000000000000000444, 0.000000000000000000 ) ) ;
#3 = CARTESIAN_POINT ( 'NONE',  ( 0.2500000000000000555, 3.000000000000000444, 3.061616997868384251E-17 ) ) ;
#4 = DIRECTION ( 'NONE',  ( -3.498990854706726443E-17, 1.000000000000000000, -0.000000000000000000 ) ) ;
#5 = PRODUCT_CONTEXT ( 'NONE', #194, 'mechanical' ) ;
#6 = SURFACE_STYLE_FILL_AREA ( #48 ) ;
#7 = DIRECTION ( 'NONE',  ( -3.498990854706726443E-17, 1.000000000000000000, -0.000000000000000000 ) ) ;
#8 = ORIENTED_EDGE ( 'NONE', *, *, #11, .F. ) ;
#9 = PRESENTATION_LAYER_ASSIGNMENT (  '', '', ( #1 ) ) ;
#10 = LENGTH_MEASURE_WITH_UNIT ( LENGTH_MEASURE( 0.02539999999999999897 ), #106 );
#11 = EDGE_CURVE ( 'NONE', #43, #181, #137, .T. ) ;
#12 = DIRECTION ( 'NONE',  ( 0.000000000000000000, -0.000000000000000000, 1.000000000000000000 ) ) ;
#13 = AXIS2_PLACEMENT_3D ( 'NONE', #279, #79, #107 ) ;
#14 = DIMENSIONAL_EXPONENTS ( 1.000000000000000000, 0.000000000000000000, 0.000000000000000000, 0.000000000000000000, 0.000000000000000000, 0.000000000000000000, 0.000000000000000000 ) ;
#15 = ORIENTED_EDGE ( 'NONE', *, *, #162, .T. ) ;
#16 = LENGTH_MEASURE_WITH_UNIT ( LENGTH_MEASURE( 0.02539999999999999897 ), #177 );
#17 = UNCERTAINTY_MEASURE_WITH_UNIT (LENGTH_MEASURE( 1.000000000000000082E-05 ), #143, 'distance_accuracy_value', 'NONE');
#18 = CARTESIAN_POINT ( 'NONE',  ( 3.061616997868383018E-17, 0.000000000000000000, 0.2500000000000000000 ) ) ;
#19 = LINE ( 'NONE', #90, #251 ) ;
#20 = CARTESIAN_POINT ( 'NONE',  ( 1.530367125165163381E-34, 1.250000000000000000, 0.000000000000000000 ) ) ;
#21 = EDGE_LOOP ( 'NONE', ( #305, #34 ) ) ;
#22 =( NAMED_UNIT ( * ) PLANE_ANGLE_UNIT ( ) SI_UNIT ( $, .RADIAN. ) );
#23 = ADVANCED_FACE ( 'NONE', ( #213 ), #56, .T. ) ;
#24 = AXIS2_PLACEMENT_3D ( 'NONE', #27, #7, #102 ) ;
#25 = LINE ( 'NONE', #289, #302 ) ;
#26 = SURFACE_STYLE_FILL_AREA ( #153 ) ;
#27 = CARTESIAN_POINT ( 'NONE',  ( -6.123233995736772199E-17, 3.000000000000000444, 0.000000000000000000 ) ) ;
#28 = DIRECTION ( 'NONE',  ( 0.000000000000000000, 0.000000000000000000, -1.000000000000000000 ) ) ;
#29 = DIRECTION ( 'NONE',  ( -3.498990854706726443E-17, 1.000000000000000000, -0.000000000000000000 ) ) ;
#30 = CIRCLE ( 'NONE', #109, 0.2500000000000001110 ) ;
#31 = ORIENTED_EDGE ( 'NONE', *, *, #304, .T. ) ;
#32 =( CONVERSION_BASED_UNIT ( 'INCH', #10 ) LENGTH_UNIT ( ) NAMED_UNIT ( #260 ) );
#33 = DIRECTION ( 'NONE',  ( -0.000000000000000000, -1.000000000000000000, -0.000000000000000000 ) ) ;
#34 = ORIENTED_EDGE ( 'NONE', *, *, #265, .T. ) ;
#35 = CARTESIAN_POINT ( 'NONE',  ( 0.000000000000000000, 1.250000000000000000, -0.2499999999999999722 ) ) ;
#36 = APPLICATION_CONTEXT ( 'automotive_design' ) ;
#37 = AXIS2_PLACEMENT_3D ( 'NONE', #142, #273, #73 ) ;
#38 =( GEOMETRIC_REPRESENTATION_CONTEXT ( 3 ) GLOBAL_UNCERTAINTY_ASSIGNED_CONTEXT ( ( #40 ) ) GLOBAL_UNIT_ASSIGNED_CONTEXT ( ( #211, #22, #58 ) ) REPRESENTATION_CONTEXT ( 'NONE', 'WORKASPACE' ) );
#39 = SURFACE_STYLE_USAGE ( .BOTH. , #281 ) ;
#40 = UNCERTAINTY_MEASURE_WITH_UNIT (LENGTH_MEASURE( 1.000000000000000082E-05 ), #211, 'distance_accuracy_value', 'NONE');
#41 = EDGE_CURVE ( 'NONE', #155, #214, #174, .T. ) ;
#42 =( GEOMETRIC_REPRESENTATION_CONTEXT ( 3 ) GLOBAL_UNCERTAINTY_ASSIGNED_CONTEXT ( ( #231 ) ) GLOBAL_UNIT_ASSIGNED_CONTEXT ( ( #188, #152, #250 ) ) REPRESENTATION_CONTEXT ( 'NONE', 'WORKASPACE' ) );
#43 = VERTEX_POINT ( 'NONE', #179 ) ;
#44 = LINE ( 'NONE', #136, #264 ) ;
#45 = PRESENTATION_STYLE_ASSIGNMENT (( #69 ) ) ;
#46 = ORIENTED_EDGE ( 'NONE', *, *, #216, .T. ) ;
#47 = DIRECTION ( 'NONE',  ( -3.498990854706726443E-17, 1.000000000000000000, -0.000000000000000000 ) ) ;
#48 = FILL_AREA_STYLE ('',( #100 ) ) ;
#49 =( LENGTH_UNIT ( ) NAMED_UNIT ( * ) SI_UNIT ( $, .METRE. ) );
#50 = ORIENTED_EDGE ( 'NONE', *, *, #95, .T. ) ;
#51 =( GEOMETRIC_REPRESENTATION_CONTEXT ( 3 ) GLOBAL_UNCERTAINTY_ASSIGNED_CONTEXT ( ( #259 ) ) GLOBAL_UNIT_ASSIGNED_CONTEXT ( ( #32, #151, #154 ) ) REPRESENTATION_CONTEXT ( 'NONE', 'WORKASPACE' ) );
#52 = PRODUCT_DEFINITION_FORMATION_WITH_SPECIFIED_SOURCE ( 'ANY', '', #158, .NOT_KNOWN. ) ;
#53 = DIRECTION ( 'NONE',  ( -0.000000000000000000, -1.000000000000000000, -0.000000000000000000 ) ) ;
#54 = UNCERTAINTY_MEASURE_WITH_UNIT (LENGTH_MEASURE( 1.000000000000000082E-05 ), #294, 'distance_accuracy_value', 'NONE');
#55 = FACE_OUTER_BOUND ( 'NONE', #105, .T. ) ;
#56 = CYLINDRICAL_SURFACE ( 'NONE', #263, 0.2500000000000000000 ) ;
#57 = FILL_AREA_STYLE ('',( #217 ) ) ;
#58 =( NAMED_UNIT ( * ) SI_UNIT ( $, .STERADIAN. ) SOLID_ANGLE_UNIT ( ) );
#59 = DIRECTION ( 'NONE',  ( -3.498990854706726443E-17, 1.000000000000000000, -0.000000000000000000 ) ) ;
#60 = PRESENTATION_STYLE_ASSIGNMENT (( #244 ) ) ;
#61 = COLOUR_RGB ( '',1.000000000000000000, 0.000000000000000000, 0.000000000000000000 ) ;
#62 = AXIS2_PLACEMENT_3D ( 'NONE', #173, #59, #248 ) ;
#63 = FACE_OUTER_BOUND ( 'NONE', #135, .T. ) ;
#64 = EDGE_CURVE ( 'NONE', #155, #43, #44, .T. ) ;
#65 = ORIENTED_EDGE ( 'NONE', *, *, #227, .F. ) ;
#66 = STYLED_ITEM ( 'NONE', ( #45 ), #185 ) ;
#67 =( NAMED_UNIT ( * ) SI_UNIT ( $, .STERADIAN. ) SOLID_ANGLE_UNIT ( ) );
#68 = DIRECTION ( 'NONE',  ( -0.000000000000000000, -1.000000000000000000, -0.000000000000000000 ) ) ;
#69 = SURFACE_STYLE_USAGE ( .BOTH. , #288 ) ;
#70 = PRODUCT_DEFINITION ( 'UNKNOWN', '', #52, #292 ) ;
#71 = AXIS2_PLACEMENT_3D ( 'NONE', #130, #221, #12 ) ;
#72 = CARTESIAN_POINT ( 'NONE',  ( 0.000000000000000000, 0.000000000000000000, 0.000000000000000000 ) ) ;
#73 = DIRECTION ( 'NONE',  ( -1.000000000000000000, 0.000000000000000000, 0.000000000000000000 ) ) ;
#74 = DIRECTION ( 'NONE',  ( 0.000000000000000000, 0.000000000000000000, -1.000000000000000000 ) ) ;
#75 = AXIS2_PLACEMENT_3D ( 'NONE', #239, #161, #163 ) ;
#76 = UNCERTAINTY_MEASURE_WITH_UNIT (LENGTH_MEASURE( 1.000000000000000082E-05 ), #241, 'distance_accuracy_value', 'NONE');
#77 = CARTESIAN_POINT ( 'NONE',  ( -0.2500000000000001665, 3.000000000000000444, 0.000000000000000000 ) ) ;
#78 = ORIENTED_EDGE ( 'NONE', *, *, #265, .F. ) ;
#79 = DIRECTION ( 'NONE',  ( 0.000000000000000000, -1.000000000000000000, -0.000000000000000000 ) ) ;
#80 = LENGTH_MEASURE_WITH_UNIT ( LENGTH_MEASURE( 0.02539999999999999897 ), #300 );
#81 = COLOUR_RGB ( '',1.000000000000000000, 0.000000000000000000, 0.000000000000000000 ) ;
#82 = AXIS2_PLACEMENT_3D ( 'NONE', #192, #269, #212 ) ;
#83 = FILL_AREA_STYLE_COLOUR ( '', #191 ) ;
#84 = CIRCLE ( 'NONE', #203, 0.2500000000000001110 ) ;
#85 = ORIENTED_EDGE ( 'NONE', *, *, #258, .T. ) ;
#86 = SURFACE_STYLE_USAGE ( .BOTH. , #189 ) ;
#87 =( NAMED_UNIT ( * ) PLANE_ANGLE_UNIT ( ) SI_UNIT ( $, .RADIAN. ) );
#88 = EDGE_LOOP ( 'NONE', ( #15, #299, #65, #157 ) ) ;
#89 =( NAMED_UNIT ( * ) SI_UNIT ( $, .STERADIAN. ) SOLID_ANGLE_UNIT ( ) );
#90 = CARTESIAN_POINT ( 'NONE',  ( 0.2499999999999999722, 3.000000000000000444, 3.061616997868383634E-17 ) ) ;
#91 = LENGTH_MEASURE_WITH_UNIT ( LENGTH_MEASURE( 0.02539999999999999897 ), #226 );
#92 =( NAMED_UNIT ( * ) PLANE_ANGLE_UNIT ( ) SI_UNIT ( $, .RADIAN. ) );
#93 = DIRECTION ( 'NONE',  ( -1.000000000000000000, 0.000000000000000000, 0.000000000000000000 ) ) ;
#94 = DIRECTION ( 'NONE',  ( -0.000000000000000000, -1.000000000000000000, -0.000000000000000000 ) ) ;
#95 = EDGE_CURVE ( 'NONE', #214, #155, #149, .T. ) ;
#96 = DIRECTION ( 'NONE',  ( -3.498990854706726443E-17, 1.000000000000000000, -0.000000000000000000 ) ) ;
#97 =( NAMED_UNIT ( * ) PLANE_ANGLE_UNIT ( ) SI_UNIT ( $, .RADIAN. ) );
#98 = LENGTH_MEASURE_WITH_UNIT ( LENGTH_MEASURE( 0.02539999999999999897 ), #233 );
#99 = FACE_OUTER_BOUND ( 'NONE', #169, .T. ) ;
#100 = FILL_AREA_STYLE_COLOUR ( '', #128 ) ;
#101 = CARTESIAN_POINT ( 'NONE',  ( -6.123233995736772199E-17, 3.000000000000000444, 0.000000000000000000 ) ) ;
#102 = DIRECTION ( 'NONE',  ( -1.000000000000000000, 0.000000000000000000, 0.000000000000000000 ) ) ;
#103 = MECHANICAL_DESIGN_GEOMETRIC_PRESENTATION_REPRESENTATION (  '', ( #276 ), #51 ) ;
#104 = FILL_AREA_STYLE_COLOUR ( '', #61 ) ;
#105 = EDGE_LOOP ( 'NONE', ( #307, #110, #46, #78 ) ) ;
#106 =( LENGTH_UNIT ( ) NAMED_UNIT ( * ) SI_UNIT ( $, .METRE. ) );
#107 = DIRECTION ( 'NONE',  ( 0.000000000000000000, 0.000000000000000000, -1.000000000000000000 ) ) ;
#108 = AXIS2_PLACEMENT_3D ( 'NONE', #261, #168, #140 ) ;
#109 = AXIS2_PLACEMENT_3D ( 'NONE', #182, #47, #125 ) ;
#110 = ORIENTED_EDGE ( 'NONE', *, *, #150, .T. ) ;
#111 = DIRECTION ( 'NONE',  ( -0.000000000000000000, -1.000000000000000000, -0.000000000000000000 ) ) ;
#112 = ADVANCED_FACE ( 'NONE', ( #55 ), #146, .T. ) ;
#113 = PLANE ( 'NONE',  #13 ) ;
#114 = VERTEX_POINT ( 'NONE', #77 ) ;
#115 = MECHANICAL_DESIGN_GEOMETRIC_PRESENTATION_REPRESENTATION (  '', ( #257 ), #178 ) ;
#116 = SURFACE_STYLE_USAGE ( .BOTH. , #243 ) ;
#117 = DIRECTION ( 'NONE',  ( 0.000000000000000000, 0.000000000000000000, -1.000000000000000000 ) ) ;
#118 = PRODUCT_DEFINITION_SHAPE ( 'NONE', 'NONE',  #70 ) ;
#119 =( GEOMETRIC_REPRESENTATION_CONTEXT ( 3 ) GLOBAL_UNCERTAINTY_ASSIGNED_CONTEXT ( ( #76 ) ) GLOBAL_UNIT_ASSIGNED_CONTEXT ( ( #241, #87, #89 ) ) REPRESENTATION_CONTEXT ( 'NONE', 'WORKASPACE' ) );
#120 = MECHANICAL_DESIGN_GEOMETRIC_PRESENTATION_REPRESENTATION (  '', ( #66 ), #218 ) ;
#121 = ADVANCED_FACE ( 'NONE', ( #274 ), #225, .T. ) ;
#122 = LINE ( 'NONE', #2, #166 ) ;
#123 = STYLED_ITEM ( 'NONE', ( #256 ), #121 ) ;
#124 = DIRECTION ( 'NONE',  ( -3.498990854706726443E-17, 1.000000000000000000, 0.000000000000000000 ) ) ;
#125 = DIRECTION ( 'NONE',  ( -1.000000000000000000, 0.000000000000000000, 0.000000000000000000 ) ) ;
#126 = LENGTH_MEASURE_WITH_UNIT ( LENGTH_MEASURE( 0.02539999999999999897 ), #49 );
#127 = MECHANICAL_DESIGN_GEOMETRIC_PRESENTATION_REPRESENTATION (  '', ( #132 ), #119 ) ;
#128 = COLOUR_RGB ( '',1.000000000000000000, 0.000000000000000000, 0.000000000000000000 ) ;
#129 = CYLINDRICAL_SURFACE ( 'NONE', #37, 0.2500000000000000555 ) ;
#130 = CARTESIAN_POINT ( 'NONE',  ( 0.000000000000000000, 1.250000000000000000, 0.000000000000000000 ) ) ;
#131 = CARTESIAN_POINT ( 'NONE',  ( 0.000000000000000000, 0.000000000000000000, 0.000000000000000000 ) ) ;
#132 = STYLED_ITEM ( 'NONE', ( #60 ), #23 ) ;
#133 = PRESENTATION_STYLE_ASSIGNMENT (( #39 ) ) ;
#134 = CIRCLE ( 'NONE', #283, 0.2499999999999999722 ) ;
#135 = EDGE_LOOP ( 'NONE', ( #175, #31 ) ) ;
#136 = CARTESIAN_POINT ( 'NONE',  ( 0.000000000000000000, 0.000000000000000000, -0.2500000000000000000 ) ) ;
#137 = CIRCLE ( 'NONE', #271, 0.2500000000000000000 ) ;
#138 = ORIENTED_EDGE ( 'NONE', *, *, #162, .F. ) ;
#139 = COLOUR_RGB ( '',0.7921568627450980005, 0.8196078431372548767, 0.9333333333333333481 ) ;
#140 = DIRECTION ( 'NONE',  ( 0.000000000000000000, 0.000000000000000000, -1.000000000000000000 ) ) ;
#141 = SURFACE_STYLE_FILL_AREA ( #285 ) ;
#142 = CARTESIAN_POINT ( 'NONE',  ( -6.123233995736772199E-17, 3.000000000000000444, 0.000000000000000000 ) ) ;
#143 =( CONVERSION_BASED_UNIT ( 'INCH', #98 ) LENGTH_UNIT ( ) NAMED_UNIT ( #193 ) );
#144 = SURFACE_SIDE_STYLE ('',( #6 ) ) ;
#145 = PRESENTATION_LAYER_ASSIGNMENT (  '', '', ( #257 ) ) ;
#146 = CYLINDRICAL_SURFACE ( 'NONE', #24, 0.2500000000000000555 ) ;
#147 = FILL_AREA_STYLE ('',( #104 ) ) ;
#148 = VERTEX_POINT ( 'NONE', #296 ) ;
#149 = CIRCLE ( 'NONE', #306, 0.2499999999999999722 ) ;
#150 = EDGE_CURVE ( 'NONE', #148, #255, #224, .T. ) ;
#151 =( NAMED_UNIT ( * ) PLANE_ANGLE_UNIT ( ) SI_UNIT ( $, .RADIAN. ) );
#152 =( NAMED_UNIT ( * ) PLANE_ANGLE_UNIT ( ) SI_UNIT ( $, .RADIAN. ) );
#153 = FILL_AREA_STYLE ('',( #298 ) ) ;
#154 =( NAMED_UNIT ( * ) SI_UNIT ( $, .STERADIAN. ) SOLID_ANGLE_UNIT ( ) );
#155 = VERTEX_POINT ( 'NONE', #35 ) ;
#156 = PRESENTATION_LAYER_ASSIGNMENT (  '', '', ( #66 ) ) ;
#157 = ORIENTED_EDGE ( 'NONE', *, *, #216, .F. ) ;
#158 = PRODUCT ( '59264', '59264', '', ( #5 ) ) ;
#159 = ADVANCED_FACE ( 'NONE', ( #63 ), #113, .T. ) ;
#160 = MECHANICAL_DESIGN_GEOMETRIC_PRESENTATION_REPRESENTATION (  '', ( #1 ), #209 ) ;
#161 = DIRECTION ( 'NONE',  ( 3.498990854706726443E-17, -1.000000000000000000, 0.000000000000000000 ) ) ;
#162 = EDGE_CURVE ( 'NONE', #255, #148, #134, .T. ) ;
#163 = DIRECTION ( 'NONE',  ( 1.000000000000000000, 3.498990854706726443E-17, 0.000000000000000000 ) ) ;
#164 = DIRECTION ( 'NONE',  ( -1.000000000000000000, 0.000000000000000000, 0.000000000000000000 ) ) ;
#165 = CARTESIAN_POINT ( 'NONE',  ( 0.000000000000000000, 1.250000000000000000, 0.000000000000000000 ) ) ;
#166 = VECTOR ( 'NONE', #29, 39.37007874015748143 ) ;
#167 = AXIS2_PLACEMENT_3D ( 'NONE', #72, #53, #268 ) ;
#168 = DIRECTION ( 'NONE',  ( -0.000000000000000000, -1.000000000000000000, -0.000000000000000000 ) ) ;
#169 = EDGE_LOOP ( 'NONE', ( #262, #85, #8, #282 ) ) ;
#170 = ADVANCED_FACE ( 'NONE', ( #99 ), #267, .T. ) ;
#171 = ORIENTED_EDGE ( 'NONE', *, *, #64, .T. ) ;
#172 = APPLICATION_PROTOCOL_DEFINITION ( 'draft international standard', 'automotive_design', 1998, #36 ) ;
#173 = CARTESIAN_POINT ( 'NONE',  ( 0.000000000000000000, 1.250000000000000000, 0.000000000000000000 ) ) ;
#174 = CIRCLE ( 'NONE', #108, 0.2499999999999999722 ) ;
#175 = ORIENTED_EDGE ( 'NONE', *, *, #11, .T. ) ;
#176 =( CONVERSION_BASED_UNIT ( 'INCH', #16 ) LENGTH_UNIT ( ) NAMED_UNIT ( #14 ) );
#177 =( LENGTH_UNIT ( ) NAMED_UNIT ( * ) SI_UNIT ( $, .METRE. ) );
#178 =( GEOMETRIC_REPRESENTATION_CONTEXT ( 3 ) GLOBAL_UNCERTAINTY_ASSIGNED_CONTEXT ( ( #54 ) ) GLOBAL_UNIT_ASSIGNED_CONTEXT ( ( #294, #97, #270 ) ) REPRESENTATION_CONTEXT ( 'NONE', 'WORKASPACE' ) );
#179 = CARTESIAN_POINT ( 'NONE',  ( 0.000000000000000000, 0.000000000000000000, -0.2500000000000000000 ) ) ;
#180 = DIRECTION ( 'NONE',  ( -3.498990854706726443E-17, 1.000000000000000000, -0.000000000000000000 ) ) ;
#181 = VERTEX_POINT ( 'NONE', #18 ) ;
#182 = CARTESIAN_POINT ( 'NONE',  ( -6.123233995736772199E-17, 3.000000000000000444, 0.000000000000000000 ) ) ;
#183 = CARTESIAN_POINT ( 'NONE',  ( 3.061616997868382402E-17, 1.250000000000000000, 0.2499999999999999722 ) ) ;
#184 = SURFACE_STYLE_USAGE ( .BOTH. , #144 ) ;
#185 = MANIFOLD_SOLID_BREP ( 'Revolve - Cutting Edge', #197 ) ;
#186 = ADVANCED_FACE ( 'NONE', ( #266 ), #236, .F. ) ;
#187 = VERTEX_POINT ( 'NONE', #3 ) ;
#188 =( CONVERSION_BASED_UNIT ( 'INCH', #80 ) LENGTH_UNIT ( ) NAMED_UNIT ( #198 ) );
#189 = SURFACE_SIDE_STYLE ('',( #222 ) ) ;
#190 = MANIFOLD_SOLID_BREP ( 'Revolve - Tool Body (Straight Shanked)', #223 ) ;
#191 = COLOUR_RGB ( '',1.000000000000000000, 0.000000000000000000, 0.000000000000000000 ) ;
#192 = CARTESIAN_POINT ( 'NONE',  ( 0.000000000000000000, 0.000000000000000000, 0.000000000000000000 ) ) ;
#193 = DIMENSIONAL_EXPONENTS ( 1.000000000000000000, 0.000000000000000000, 0.000000000000000000, 0.000000000000000000, 0.000000000000000000, 0.000000000000000000, 0.000000000000000000 ) ;
#194 = APPLICATION_CONTEXT ( 'automotive_design' ) ;
#195 = UNCERTAINTY_MEASURE_WITH_UNIT (LENGTH_MEASURE( 1.000000000000000082E-05 ), #176, 'distance_accuracy_value', 'NONE');
#196 = FILL_AREA_STYLE ('',( #83 ) ) ;
#197 = CLOSED_SHELL ( 'NONE', ( #170, #121, #23, #159 ) ) ;
#198 = DIMENSIONAL_EXPONENTS ( 1.000000000000000000, 0.000000000000000000, 0.000000000000000000, 0.000000000000000000, 0.000000000000000000, 0.000000000000000000, 0.000000000000000000 ) ;
#199 = PRODUCT_RELATED_PRODUCT_CATEGORY ( 'part', '', ( #158 ) ) ;
#200 = ADVANCED_FACE ( 'NONE', ( #308 ), #129, .T. ) ;
#201 = DIMENSIONAL_EXPONENTS ( 1.000000000000000000, 0.000000000000000000, 0.000000000000000000, 0.000000000000000000, 0.000000000000000000, 0.000000000000000000, 0.000000000000000000 ) ;
#202 =( NAMED_UNIT ( * ) PLANE_ANGLE_UNIT ( ) SI_UNIT ( $, .RADIAN. ) );
#203 = AXIS2_PLACEMENT_3D ( 'NONE', #101, #96, #164 ) ;
#204 = EDGE_LOOP ( 'NONE', ( #219, #240 ) ) ;
#205 = LENGTH_MEASURE_WITH_UNIT ( LENGTH_MEASURE( 0.02539999999999999897 ), #284 );
#206 = FACE_OUTER_BOUND ( 'NONE', #21, .T. ) ;
#207 = EDGE_LOOP ( 'NONE', ( #245, #50, #171, #286 ) ) ;
#208 = FILL_AREA_STYLE_COLOUR ( '', #280 ) ;
#209 =( GEOMETRIC_REPRESENTATION_CONTEXT ( 3 ) GLOBAL_UNCERTAINTY_ASSIGNED_CONTEXT ( ( #195 ) ) GLOBAL_UNIT_ASSIGNED_CONTEXT ( ( #176, #202, #67 ) ) REPRESENTATION_CONTEXT ( 'NONE', 'WORKASPACE' ) );
#210 = CARTESIAN_POINT ( 'NONE',  ( -0.2499999999999999722, 1.250000000000000000, 0.000000000000000000 ) ) ;
#211 =( CONVERSION_BASED_UNIT ( 'INCH', #126 ) LENGTH_UNIT ( ) NAMED_UNIT ( #201 ) );
#212 = DIRECTION ( 'NONE',  ( 1.000000000000000000, 0.000000000000000000, 0.000000000000000000 ) ) ;
#213 = FACE_OUTER_BOUND ( 'NONE', #207, .T. ) ;
#214 = VERTEX_POINT ( 'NONE', #183 ) ;
#215 = DIRECTION ( 'NONE',  ( 0.000000000000000000, 0.000000000000000000, -1.000000000000000000 ) ) ;
#216 = EDGE_CURVE ( 'NONE', #255, #114, #122, .T. ) ;
#217 = FILL_AREA_STYLE_COLOUR ( '', #81 ) ;
#218 =( GEOMETRIC_REPRESENTATION_CONTEXT ( 3 ) GLOBAL_UNCERTAINTY_ASSIGNED_CONTEXT ( ( #17 ) ) GLOBAL_UNIT_ASSIGNED_CONTEXT ( ( #143, #92, #237 ) ) REPRESENTATION_CONTEXT ( 'NONE', 'WORKASPACE' ) );
#219 = ORIENTED_EDGE ( 'NONE', *, *, #41, .F. ) ;
#220 = ORIENTED_EDGE ( 'NONE', *, *, #150, .F. ) ;
#221 = DIRECTION ( 'NONE',  ( 0.000000000000000000, 1.000000000000000000, 0.000000000000000000 ) ) ;
#222 = SURFACE_STYLE_FILL_AREA ( #57 ) ;
#223 = CLOSED_SHELL ( 'NONE', ( #200, #186, #112, #246 ) ) ;
#224 = CIRCLE ( 'NONE', #62, 0.2499999999999999722 ) ;
#225 = PLANE ( 'NONE',  #71 ) ;
#226 =( LENGTH_UNIT ( ) NAMED_UNIT ( * ) SI_UNIT ( $, .METRE. ) );
#227 = EDGE_CURVE ( 'NONE', #114, #187, #84, .T. ) ;
#228 = AXIS2_PLACEMENT_3D ( 'NONE', #20, #124, #291 ) ;
#229 = DIMENSIONAL_EXPONENTS ( 1.000000000000000000, 0.000000000000000000, 0.000000000000000000, 0.000000000000000000, 0.000000000000000000, 0.000000000000000000, 0.000000000000000000 ) ;
#230 = CARTESIAN_POINT ( 'NONE',  ( 0.000000000000000000, 0.000000000000000000, 0.000000000000000000 ) ) ;
#231 = UNCERTAINTY_MEASURE_WITH_UNIT (LENGTH_MEASURE( 1.000000000000000082E-05 ), #188, 'distance_accuracy_value', 'NONE');
#232 = PRESENTATION_LAYER_ASSIGNMENT (  '', '', ( #132 ) ) ;
#233 =( LENGTH_UNIT ( ) NAMED_UNIT ( * ) SI_UNIT ( $, .METRE. ) );
#234 = PRESENTATION_STYLE_ASSIGNMENT (( #184 ) ) ;
#235 = ADVANCED_BREP_SHAPE_REPRESENTATION ( '59264', ( #185, #190, #82 ), #38 ) ;
#236 = PLANE ( 'NONE',  #228 ) ;
#237 =( NAMED_UNIT ( * ) SI_UNIT ( $, .STERADIAN. ) SOLID_ANGLE_UNIT ( ) );
#238 = PRESENTATION_LAYER_ASSIGNMENT (  '', '', ( #276 ) ) ;
#239 = CARTESIAN_POINT ( 'NONE',  ( 0.2500000000000000555, 3.000000000000000444, 0.000000000000000000 ) ) ;
#240 = ORIENTED_EDGE ( 'NONE', *, *, #95, .F. ) ;
#241 =( CONVERSION_BASED_UNIT ( 'INCH', #205 ) LENGTH_UNIT ( ) NAMED_UNIT ( #229 ) );
#242 = SURFACE_STYLE_FILL_AREA ( #147 ) ;
#243 = SURFACE_SIDE_STYLE ('',( #26 ) ) ;
#244 = SURFACE_STYLE_USAGE ( .BOTH. , #275 ) ;
#245 = ORIENTED_EDGE ( 'NONE', *, *, #258, .F. ) ;
#246 = ADVANCED_FACE ( 'NONE', ( #206 ), #309, .F. ) ;
#247 = CARTESIAN_POINT ( 'NONE',  ( 0.000000000000000000, 0.000000000000000000, 0.000000000000000000 ) ) ;
#248 = DIRECTION ( 'NONE',  ( -1.000000000000000000, 0.000000000000000000, 0.000000000000000000 ) ) ;
#249 = PRESENTATION_STYLE_ASSIGNMENT (( #116 ) ) ;
#250 =( NAMED_UNIT ( * ) SI_UNIT ( $, .STERADIAN. ) SOLID_ANGLE_UNIT ( ) );
#251 = VECTOR ( 'NONE', #180, 39.37007874015748143 ) ;
#252 = CIRCLE ( 'NONE', #167, 0.2500000000000000000 ) ;
#253 = SHAPE_DEFINITION_REPRESENTATION ( #118, #235 ) ;
#254 = EDGE_CURVE ( 'NONE', #148, #187, #19, .T. ) ;
#255 = VERTEX_POINT ( 'NONE', #210 ) ;
#256 = PRESENTATION_STYLE_ASSIGNMENT (( #86 ) ) ;
#257 = STYLED_ITEM ( 'NONE', ( #133 ), #159 ) ;
#258 = EDGE_CURVE ( 'NONE', #214, #181, #25, .T. ) ;
#259 = UNCERTAINTY_MEASURE_WITH_UNIT (LENGTH_MEASURE( 1.000000000000000082E-05 ), #32, 'distance_accuracy_value', 'NONE');
#260 = DIMENSIONAL_EXPONENTS ( 1.000000000000000000, 0.000000000000000000, 0.000000000000000000, 0.000000000000000000, 0.000000000000000000, 0.000000000000000000, 0.000000000000000000 ) ;
#261 = CARTESIAN_POINT ( 'NONE',  ( 0.000000000000000000, 1.250000000000000000, 0.000000000000000000 ) ) ;
#262 = ORIENTED_EDGE ( 'NONE', *, *, #41, .T. ) ;
#263 = AXIS2_PLACEMENT_3D ( 'NONE', #230, #68, #74 ) ;
#264 = VECTOR ( 'NONE', #287, 39.37007874015748143 ) ;
#265 = EDGE_CURVE ( 'NONE', #187, #114, #30, .T. ) ;
#266 = FACE_OUTER_BOUND ( 'NONE', #295, .T. ) ;
#267 = CYLINDRICAL_SURFACE ( 'NONE', #297, 0.2500000000000000000 ) ;
#268 = DIRECTION ( 'NONE',  ( 0.000000000000000000, 0.000000000000000000, -1.000000000000000000 ) ) ;
#269 = DIRECTION ( 'NONE',  ( 0.000000000000000000, 0.000000000000000000, 1.000000000000000000 ) ) ;
#270 =( NAMED_UNIT ( * ) SI_UNIT ( $, .STERADIAN. ) SOLID_ANGLE_UNIT ( ) );
#271 = AXIS2_PLACEMENT_3D ( 'NONE', #247, #33, #28 ) ;
#272 = DIRECTION ( 'NONE',  ( -0.000000000000000000, -1.000000000000000000, -0.000000000000000000 ) ) ;
#273 = DIRECTION ( 'NONE',  ( -3.498990854706726443E-17, 1.000000000000000000, -0.000000000000000000 ) ) ;
#274 = FACE_OUTER_BOUND ( 'NONE', #204, .T. ) ;
#275 = SURFACE_SIDE_STYLE ('',( #242 ) ) ;
#276 = STYLED_ITEM ( 'NONE', ( #234 ), #170 ) ;
#277 = CARTESIAN_POINT ( 'NONE',  ( 0.000000000000000000, 1.250000000000000000, 0.000000000000000000 ) ) ;
#278 = APPLICATION_PROTOCOL_DEFINITION ( 'draft international standard', 'automotive_design', 1998, #194 ) ;
#279 = CARTESIAN_POINT ( 'NONE',  ( 0.000000000000000000, 0.000000000000000000, 0.000000000000000000 ) ) ;
#280 = COLOUR_RGB ( '',0.7921568627450980005, 0.8196078431372548767, 0.9333333333333333481 ) ;
#281 = SURFACE_SIDE_STYLE ('',( #301 ) ) ;
#282 = ORIENTED_EDGE ( 'NONE', *, *, #64, .F. ) ;
#283 = AXIS2_PLACEMENT_3D ( 'NONE', #277, #4, #93 ) ;
#284 =( LENGTH_UNIT ( ) NAMED_UNIT ( * ) SI_UNIT ( $, .METRE. ) );
#285 = FILL_AREA_STYLE ('',( #208 ) ) ;
#286 = ORIENTED_EDGE ( 'NONE', *, *, #304, .F. ) ;
#287 = DIRECTION ( 'NONE',  ( -0.000000000000000000, -1.000000000000000000, -0.000000000000000000 ) ) ;
#288 = SURFACE_SIDE_STYLE ('',( #141 ) ) ;
#289 = CARTESIAN_POINT ( 'NONE',  ( 3.061616997868383018E-17, 0.000000000000000000, 0.2500000000000000000 ) ) ;
#290 = PRESENTATION_LAYER_ASSIGNMENT (  '', '', ( #123 ) ) ;
#291 = DIRECTION ( 'NONE',  ( -1.000000000000000000, -3.498990854706726443E-17, 0.000000000000000000 ) ) ;
#292 = PRODUCT_DEFINITION_CONTEXT ( 'detailed design', #36, 'design' ) ;
#293 = MECHANICAL_DESIGN_GEOMETRIC_PRESENTATION_REPRESENTATION (  '', ( #123 ), #42 ) ;
#294 =( CONVERSION_BASED_UNIT ( 'INCH', #91 ) LENGTH_UNIT ( ) NAMED_UNIT ( #303 ) );
#295 = EDGE_LOOP ( 'NONE', ( #138, #220 ) ) ;
#296 = CARTESIAN_POINT ( 'NONE',  ( 0.2499999999999999722, 1.250000000000000000, 3.061616997868383634E-17 ) ) ;
#297 = AXIS2_PLACEMENT_3D ( 'NONE', #131, #111, #117 ) ;
#298 = FILL_AREA_STYLE_COLOUR ( '', #139 ) ;
#299 = ORIENTED_EDGE ( 'NONE', *, *, #254, .T. ) ;
#300 =( LENGTH_UNIT ( ) NAMED_UNIT ( * ) SI_UNIT ( $, .METRE. ) );
#301 = SURFACE_STYLE_FILL_AREA ( #196 ) ;
#302 = VECTOR ( 'NONE', #94, 39.37007874015748143 ) ;
#303 = DIMENSIONAL_EXPONENTS ( 1.000000000000000000, 0.000000000000000000, 0.000000000000000000, 0.000000000000000000, 0.000000000000000000, 0.000000000000000000, 0.000000000000000000 ) ;
#304 = EDGE_CURVE ( 'NONE', #181, #43, #252, .T. ) ;
#305 = ORIENTED_EDGE ( 'NONE', *, *, #227, .T. ) ;
#306 = AXIS2_PLACEMENT_3D ( 'NONE', #165, #272, #215 ) ;
#307 = ORIENTED_EDGE ( 'NONE', *, *, #254, .F. ) ;
#308 = FACE_OUTER_BOUND ( 'NONE', #88, .T. ) ;
#309 = PLANE ( 'NONE',  #75 ) ;
ENDSEC;
END-ISO-10303-21;
