ISO-10303-21;
HEADER;
FILE_DESCRIPTION (( 'STEP AP214' ),
    '1' );
FILE_NAME ('82857.STEP',
    '2023-06-23T07:04:21',
    ( '' ),
    ( '' ),
    'SwSTEP 2.0',
    'SolidWorks 2023',
    '' );
FILE_SCHEMA (( 'AUTOMOTIVE_DESIGN' ));
ENDSEC;

DATA;
#1 = ADVANCED_FACE ( 'NONE', ( #227 ), #25, .T. ) ;
#2 =( LENGTH_UNIT ( ) NAMED_UNIT ( * ) SI_UNIT ( $, .METRE. ) );
#3 = ORIENTED_EDGE ( 'NONE', *, *, #30, .T. ) ;
#4 = COLOUR_RGB ( '',1.000000000000000000, 0.000000000000000000, 0.000000000000000000 ) ;
#5 = MECHANICAL_DESIGN_GEOMETRIC_PRESENTATION_REPRESENTATION (  '', ( #123 ), #260 ) ;
#6 = ORIENTED_EDGE ( 'NONE', *, *, #292, .F. ) ;
#7 = SURFACE_STYLE_USAGE ( .BOTH. , #172 ) ;
#8 = PRODUCT_DEFINITION ( 'UNKNOWN', '', #154, #233 ) ;
#9 = CARTESIAN_POINT ( 'NONE',  ( 3.061616997868383018E-17, 3.625000000000000444, 0.2500000000000000000 ) ) ;
#10 = DIRECTION ( 'NONE',  ( -5.156407575357281462E-17, 1.000000000000000000, -0.000000000000000000 ) ) ;
#11 = FILL_AREA_STYLE_COLOUR ( '', #84 ) ;
#12 =( NAMED_UNIT ( * ) PLANE_ANGLE_UNIT ( ) SI_UNIT ( $, .RADIAN. ) );
#13 =( GEOMETRIC_REPRESENTATION_CONTEXT ( 3 ) GLOBAL_UNCERTAINTY_ASSIGNED_CONTEXT ( ( #17 ) ) GLOBAL_UNIT_ASSIGNED_CONTEXT ( ( #78, #300, #151 ) ) REPRESENTATION_CONTEXT ( 'NONE', 'WORKASPACE' ) );
#14 = DIRECTION ( 'NONE',  ( -5.156407575357281462E-17, 1.000000000000000000, -0.000000000000000000 ) ) ;
#15 = DIRECTION ( 'NONE',  ( 0.000000000000000000, 1.000000000000000000, 0.000000000000000000 ) ) ;
#16 = CARTESIAN_POINT ( 'NONE',  ( 0.000000000000000000, 0.000000000000000000, 0.000000000000000000 ) ) ;
#17 = UNCERTAINTY_MEASURE_WITH_UNIT (LENGTH_MEASURE( 1.000000000000000082E-05 ), #78, 'distance_accuracy_value', 'NONE');
#18 = STYLED_ITEM ( 'NONE', ( #235 ), #238 ) ;
#19 = CIRCLE ( 'NONE', #44, 0.2500000000000000000 ) ;
#20 =( NAMED_UNIT ( * ) PLANE_ANGLE_UNIT ( ) SI_UNIT ( $, .RADIAN. ) );
#21 = SURFACE_STYLE_FILL_AREA ( #170 ) ;
#22 = FACE_OUTER_BOUND ( 'NONE', #118, .T. ) ;
#23 =( GEOMETRIC_REPRESENTATION_CONTEXT ( 3 ) GLOBAL_UNCERTAINTY_ASSIGNED_CONTEXT ( ( #216 ) ) GLOBAL_UNIT_ASSIGNED_CONTEXT ( ( #243, #20, #212 ) ) REPRESENTATION_CONTEXT ( 'NONE', 'WORKASPACE' ) );
#24 = CARTESIAN_POINT ( 'NONE',  ( 0.000000000000000000, 0.000000000000000000, 0.000000000000000000 ) ) ;
#25 = CYLINDRICAL_SURFACE ( 'NONE', #87, 0.2500000000000000000 ) ;
#26 = VERTEX_POINT ( 'NONE', #107 ) ;
#27 = LINE ( 'NONE', #121, #285 ) ;
#28 = ORIENTED_EDGE ( 'NONE', *, *, #53, .T. ) ;
#29 = COLOUR_RGB ( '',1.000000000000000000, 0.000000000000000000, 0.000000000000000000 ) ;
#30 = EDGE_CURVE ( 'NONE', #26, #246, #175, .T. ) ;
#31 =( CONVERSION_BASED_UNIT ( 'INCH', #147 ) LENGTH_UNIT ( ) NAMED_UNIT ( #180 ) );
#32 = APPLICATION_PROTOCOL_DEFINITION ( 'draft international standard', 'automotive_design', 1998, #217 ) ;
#33 =( LENGTH_UNIT ( ) NAMED_UNIT ( * ) SI_UNIT ( $, .METRE. ) );
#34 = DIRECTION ( 'NONE',  ( -1.000000000000000000, -5.156407575357281462E-17, 0.000000000000000000 ) ) ;
#35 = CLOSED_SHELL ( 'NONE', ( #89, #88, #144, #114 ) ) ;
#36 = LINE ( 'NONE', #130, #182 ) ;
#37 = DIMENSIONAL_EXPONENTS ( 1.000000000000000000, 0.000000000000000000, 0.000000000000000000, 0.000000000000000000, 0.000000000000000000, 0.000000000000000000, 0.000000000000000000 ) ;
#38 = PRODUCT_DEFINITION_SHAPE ( 'NONE', 'NONE',  #8 ) ;
#39 = DIRECTION ( 'NONE',  ( -0.000000000000000000, -1.000000000000000000, -0.000000000000000000 ) ) ;
#40 = COLOUR_RGB ( '',1.000000000000000000, 0.000000000000000000, 0.000000000000000000 ) ;
#41 = MECHANICAL_DESIGN_GEOMETRIC_PRESENTATION_REPRESENTATION (  '', ( #256 ), #108 ) ;
#42 = DIRECTION ( 'NONE',  ( 1.000000000000000000, 5.156407575357281462E-17, 0.000000000000000000 ) ) ;
#43 = PLANE ( 'NONE',  #229 ) ;
#44 = AXIS2_PLACEMENT_3D ( 'NONE', #181, #39, #234 ) ;
#45 = MECHANICAL_DESIGN_GEOMETRIC_PRESENTATION_REPRESENTATION (  '', ( #284 ), #13 ) ;
#46 = LENGTH_MEASURE_WITH_UNIT ( LENGTH_MEASURE( 0.02539999999999999897 ), #214 );
#47 = PLANE ( 'NONE',  #122 ) ;
#48 = PRESENTATION_STYLE_ASSIGNMENT (( #7 ) ) ;
#49 =( NAMED_UNIT ( * ) SI_UNIT ( $, .STERADIAN. ) SOLID_ANGLE_UNIT ( ) );
#50 = VERTEX_POINT ( 'NONE', #9 ) ;
#51 = EDGE_LOOP ( 'NONE', ( #251, #6 ) ) ;
#52 = ORIENTED_EDGE ( 'NONE', *, *, #67, .T. ) ;
#53 = EDGE_CURVE ( 'NONE', #116, #246, #105, .T. ) ;
#54 = DIRECTION ( 'NONE',  ( -5.156407575357281462E-17, 1.000000000000000000, -0.000000000000000000 ) ) ;
#55 = ORIENTED_EDGE ( 'NONE', *, *, #222, .F. ) ;
#56 = DIRECTION ( 'NONE',  ( 1.000000000000000000, 0.000000000000000000, 0.000000000000000000 ) ) ;
#57 = PLANE ( 'NONE',  #155 ) ;
#58 = DIRECTION ( 'NONE',  ( 0.000000000000000000, 0.000000000000000000, -1.000000000000000000 ) ) ;
#59 =( LENGTH_UNIT ( ) NAMED_UNIT ( * ) SI_UNIT ( $, .METRE. ) );
#60 = PRESENTATION_LAYER_ASSIGNMENT (  '', '', ( #123 ) ) ;
#61 = PRESENTATION_LAYER_ASSIGNMENT (  '', '', ( #250 ) ) ;
#62 = CARTESIAN_POINT ( 'NONE',  ( 0.000000000000000000, 0.000000000000000000, -0.2500000000000000000 ) ) ;
#63 = MANIFOLD_SOLID_BREP ( 'Revolve - Cutting Edge', #220 ) ;
#64 = DIRECTION ( 'NONE',  ( -1.000000000000000000, 0.000000000000000000, 0.000000000000000000 ) ) ;
#65 =( GEOMETRIC_REPRESENTATION_CONTEXT ( 3 ) GLOBAL_UNCERTAINTY_ASSIGNED_CONTEXT ( ( #145 ) ) GLOBAL_UNIT_ASSIGNED_CONTEXT ( ( #31, #102, #231 ) ) REPRESENTATION_CONTEXT ( 'NONE', 'WORKASPACE' ) );
#66 = FILL_AREA_STYLE_COLOUR ( '', #191 ) ;
#67 = EDGE_CURVE ( 'NONE', #50, #269, #19, .T. ) ;
#68 = CARTESIAN_POINT ( 'NONE',  ( 0.000000000000000000, 3.625000000000000444, 0.000000000000000000 ) ) ;
#69 = DIRECTION ( 'NONE',  ( -0.000000000000000000, -1.000000000000000000, -0.000000000000000000 ) ) ;
#70 = VERTEX_POINT ( 'NONE', #62 ) ;
#71 = SURFACE_STYLE_FILL_AREA ( #141 ) ;
#72 =( CONVERSION_BASED_UNIT ( 'INCH', #194 ) LENGTH_UNIT ( ) NAMED_UNIT ( #153 ) );
#73 = EDGE_LOOP ( 'NONE', ( #287, #96, #74, #93 ) ) ;
#74 = ORIENTED_EDGE ( 'NONE', *, *, #150, .F. ) ;
#75 = EDGE_CURVE ( 'NONE', #269, #70, #36, .T. ) ;
#76 = PRESENTATION_STYLE_ASSIGNMENT (( #268 ) ) ;
#77 = SURFACE_STYLE_USAGE ( .BOTH. , #202 ) ;
#78 =( CONVERSION_BASED_UNIT ( 'INCH', #239 ) LENGTH_UNIT ( ) NAMED_UNIT ( #294 ) );
#79 = VECTOR ( 'NONE', #10, 39.37007874015748143 ) ;
#80 = DIRECTION ( 'NONE',  ( -0.000000000000000000, -1.000000000000000000, -0.000000000000000000 ) ) ;
#81 = DIRECTION ( 'NONE',  ( 0.000000000000000000, 0.000000000000000000, 1.000000000000000000 ) ) ;
#82 =( CONVERSION_BASED_UNIT ( 'INCH', #297 ) LENGTH_UNIT ( ) NAMED_UNIT ( #37 ) );
#83 =( LENGTH_UNIT ( ) NAMED_UNIT ( * ) SI_UNIT ( $, .METRE. ) );
#84 = COLOUR_RGB ( '',0.7921568627450980005, 0.8196078431372548767, 0.9333333333333333481 ) ;
#85 = COLOUR_RGB ( '',1.000000000000000000, 0.000000000000000000, 0.000000000000000000 ) ;
#86 = DIRECTION ( 'NONE',  ( -1.000000000000000000, 0.000000000000000000, 0.000000000000000000 ) ) ;
#87 = AXIS2_PLACEMENT_3D ( 'NONE', #274, #80, #157 ) ;
#88 = ADVANCED_FACE ( 'NONE', ( #179 ), #57, .F. ) ;
#89 = ADVANCED_FACE ( 'NONE', ( #125 ), #236, .T. ) ;
#90 = DIRECTION ( 'NONE',  ( 5.156407575357281462E-17, -1.000000000000000000, 0.000000000000000000 ) ) ;
#91 = CYLINDRICAL_SURFACE ( 'NONE', #164, 0.2500000000000000000 ) ;
#92 = LENGTH_MEASURE_WITH_UNIT ( LENGTH_MEASURE( 0.02539999999999999897 ), #2 );
#93 = ORIENTED_EDGE ( 'NONE', *, *, #53, .F. ) ;
#94 = ORIENTED_EDGE ( 'NONE', *, *, #222, .T. ) ;
#95 = DIRECTION ( 'NONE',  ( 0.000000000000000000, 0.000000000000000000, -1.000000000000000000 ) ) ;
#96 = ORIENTED_EDGE ( 'NONE', *, *, #305, .T. ) ;
#97 = MECHANICAL_DESIGN_GEOMETRIC_PRESENTATION_REPRESENTATION (  '', ( #250 ), #242 ) ;
#98 =( CONVERSION_BASED_UNIT ( 'INCH', #92 ) LENGTH_UNIT ( ) NAMED_UNIT ( #200 ) );
#99 = FILL_AREA_STYLE_COLOUR ( '', #85 ) ;
#100 = DIRECTION ( 'NONE',  ( 0.000000000000000000, -1.000000000000000000, -0.000000000000000000 ) ) ;
#101 = DIRECTION ( 'NONE',  ( -1.000000000000000000, 0.000000000000000000, 0.000000000000000000 ) ) ;
#102 =( NAMED_UNIT ( * ) PLANE_ANGLE_UNIT ( ) SI_UNIT ( $, .RADIAN. ) );
#103 = CARTESIAN_POINT ( 'NONE',  ( -1.224646799147354440E-16, 6.000000000000000888, 0.000000000000000000 ) ) ;
#104 = DIRECTION ( 'NONE',  ( -5.156407575357281462E-17, 1.000000000000000000, -0.000000000000000000 ) ) ;
#105 = LINE ( 'NONE', #237, #79 ) ;
#106 = CARTESIAN_POINT ( 'NONE',  ( 0.000000000000000000, 0.000000000000000000, 0.000000000000000000 ) ) ;
#107 = CARTESIAN_POINT ( 'NONE',  ( 0.2500000000000000555, 6.000000000000000888, 3.061616997868384251E-17 ) ) ;
#108 =( GEOMETRIC_REPRESENTATION_CONTEXT ( 3 ) GLOBAL_UNCERTAINTY_ASSIGNED_CONTEXT ( ( #307 ) ) GLOBAL_UNIT_ASSIGNED_CONTEXT ( ( #82, #186, #127 ) ) REPRESENTATION_CONTEXT ( 'NONE', 'WORKASPACE' ) );
#109 = DIRECTION ( 'NONE',  ( -1.000000000000000000, 0.000000000000000000, 0.000000000000000000 ) ) ;
#110 = SURFACE_STYLE_FILL_AREA ( #133 ) ;
#111 = CIRCLE ( 'NONE', #203, 0.2500000000000000000 ) ;
#112 = CARTESIAN_POINT ( 'NONE',  ( -0.2500000000000000000, 3.625000000000000444, 0.000000000000000000 ) ) ;
#113 =( LENGTH_UNIT ( ) NAMED_UNIT ( * ) SI_UNIT ( $, .METRE. ) );
#114 = ADVANCED_FACE ( 'NONE', ( #281 ), #259, .F. ) ;
#115 = AXIS2_PLACEMENT_3D ( 'NONE', #258, #201, #101 ) ;
#116 = VERTEX_POINT ( 'NONE', #112 ) ;
#117 = DIRECTION ( 'NONE',  ( 0.000000000000000000, 0.000000000000000000, -1.000000000000000000 ) ) ;
#118 = EDGE_LOOP ( 'NONE', ( #142, #52, #168, #124 ) ) ;
#119 = CARTESIAN_POINT ( 'NONE',  ( 0.000000000000000000, 0.000000000000000000, 0.000000000000000000 ) ) ;
#120 = FILL_AREA_STYLE ('',( #99 ) ) ;
#121 = CARTESIAN_POINT ( 'NONE',  ( 3.061616997868383018E-17, 0.000000000000000000, 0.2500000000000000000 ) ) ;
#122 = AXIS2_PLACEMENT_3D ( 'NONE', #106, #100, #58 ) ;
#123 = STYLED_ITEM ( 'NONE', ( #76 ), #166 ) ;
#124 = ORIENTED_EDGE ( 'NONE', *, *, #160, .F. ) ;
#125 = FACE_OUTER_BOUND ( 'NONE', #73, .T. ) ;
#126 = DIMENSIONAL_EXPONENTS ( 1.000000000000000000, 0.000000000000000000, 0.000000000000000000, 0.000000000000000000, 0.000000000000000000, 0.000000000000000000, 0.000000000000000000 ) ;
#127 =( NAMED_UNIT ( * ) SI_UNIT ( $, .STERADIAN. ) SOLID_ANGLE_UNIT ( ) );
#128 = ADVANCED_FACE ( 'NONE', ( #218 ), #43, .T. ) ;
#129 = SHAPE_DEFINITION_REPRESENTATION ( #38, #254 ) ;
#130 = CARTESIAN_POINT ( 'NONE',  ( 0.000000000000000000, 0.000000000000000000, -0.2500000000000000000 ) ) ;
#131 = FILL_AREA_STYLE ('',( #11 ) ) ;
#132 = CIRCLE ( 'NONE', #197, 0.2500000000000000000 ) ;
#133 = FILL_AREA_STYLE ('',( #137 ) ) ;
#134 = AXIS2_PLACEMENT_3D ( 'NONE', #103, #205, #298 ) ;
#135 = AXIS2_PLACEMENT_3D ( 'NONE', #174, #81, #56 ) ;
#136 = AXIS2_PLACEMENT_3D ( 'NONE', #282, #90, #42 ) ;
#137 = FILL_AREA_STYLE_COLOUR ( '', #40 ) ;
#138 = CARTESIAN_POINT ( 'NONE',  ( -1.224646799147354440E-16, 6.000000000000000888, 0.000000000000000000 ) ) ;
#139 = FILL_AREA_STYLE_COLOUR ( '', #29 ) ;
#140 = ORIENTED_EDGE ( 'NONE', *, *, #206, .T. ) ;
#141 = FILL_AREA_STYLE ('',( #66 ) ) ;
#142 = ORIENTED_EDGE ( 'NONE', *, *, #206, .F. ) ;
#143 = DIRECTION ( 'NONE',  ( -0.000000000000000000, -1.000000000000000000, -0.000000000000000000 ) ) ;
#144 = ADVANCED_FACE ( 'NONE', ( #264 ), #303, .T. ) ;
#145 = UNCERTAINTY_MEASURE_WITH_UNIT (LENGTH_MEASURE( 1.000000000000000082E-05 ), #31, 'distance_accuracy_value', 'NONE');
#146 = SURFACE_STYLE_FILL_AREA ( #120 ) ;
#147 = LENGTH_MEASURE_WITH_UNIT ( LENGTH_MEASURE( 0.02539999999999999897 ), #83 );
#148 = AXIS2_PLACEMENT_3D ( 'NONE', #16, #158, #215 ) ;
#149 = ORIENTED_EDGE ( 'NONE', *, *, #67, .F. ) ;
#150 = EDGE_CURVE ( 'NONE', #246, #26, #240, .T. ) ;
#151 =( NAMED_UNIT ( * ) SI_UNIT ( $, .STERADIAN. ) SOLID_ANGLE_UNIT ( ) );
#152 = CARTESIAN_POINT ( 'NONE',  ( 3.323567385400245093E-34, 3.625000000000000444, 0.000000000000000000 ) ) ;
#153 = DIMENSIONAL_EXPONENTS ( 1.000000000000000000, 0.000000000000000000, 0.000000000000000000, 0.000000000000000000, 0.000000000000000000, 0.000000000000000000, 0.000000000000000000 ) ;
#154 = PRODUCT_DEFINITION_FORMATION_WITH_SPECIFIED_SOURCE ( 'ANY', '', #177, .NOT_KNOWN. ) ;
#155 = AXIS2_PLACEMENT_3D ( 'NONE', #152, #253, #34 ) ;
#156 = SURFACE_SIDE_STYLE ('',( #276 ) ) ;
#157 = DIRECTION ( 'NONE',  ( 0.000000000000000000, 0.000000000000000000, -1.000000000000000000 ) ) ;
#158 = DIRECTION ( 'NONE',  ( -0.000000000000000000, -1.000000000000000000, -0.000000000000000000 ) ) ;
#159 = AXIS2_PLACEMENT_3D ( 'NONE', #304, #54, #224 ) ;
#160 = EDGE_CURVE ( 'NONE', #195, #70, #248, .T. ) ;
#161 = UNCERTAINTY_MEASURE_WITH_UNIT (LENGTH_MEASURE( 1.000000000000000082E-05 ), #209, 'distance_accuracy_value', 'NONE');
#162 = AXIS2_PLACEMENT_3D ( 'NONE', #188, #279, #64 ) ;
#163 =( GEOMETRIC_REPRESENTATION_CONTEXT ( 3 ) GLOBAL_UNCERTAINTY_ASSIGNED_CONTEXT ( ( #161 ) ) GLOBAL_UNIT_ASSIGNED_CONTEXT ( ( #209, #12, #255 ) ) REPRESENTATION_CONTEXT ( 'NONE', 'WORKASPACE' ) );
#164 = AXIS2_PLACEMENT_3D ( 'NONE', #119, #226, #95 ) ;
#165 = DIRECTION ( 'NONE',  ( 0.000000000000000000, 0.000000000000000000, -1.000000000000000000 ) ) ;
#166 = MANIFOLD_SOLID_BREP ( 'Revolve - Tool Body (Straight Shanked)', #35 ) ;
#167 = SURFACE_SIDE_STYLE ('',( #71 ) ) ;
#168 = ORIENTED_EDGE ( 'NONE', *, *, #75, .T. ) ;
#169 = ORIENTED_EDGE ( 'NONE', *, *, #305, .F. ) ;
#170 = FILL_AREA_STYLE ('',( #295 ) ) ;
#171 = EDGE_LOOP ( 'NONE', ( #55, #149 ) ) ;
#172 = SURFACE_SIDE_STYLE ('',( #146 ) ) ;
#173 = EDGE_CURVE ( 'NONE', #116, #309, #277, .T. ) ;
#174 = CARTESIAN_POINT ( 'NONE',  ( 0.000000000000000000, 0.000000000000000000, 0.000000000000000000 ) ) ;
#175 = CIRCLE ( 'NONE', #115, 0.2500000000000001110 ) ;
#176 = PRESENTATION_LAYER_ASSIGNMENT (  '', '', ( #256 ) ) ;
#177 = PRODUCT ( '82857', '82857', '', ( #296 ) ) ;
#178 = SURFACE_STYLE_FILL_AREA ( #308 ) ;
#179 = FACE_OUTER_BOUND ( 'NONE', #51, .T. ) ;
#180 = DIMENSIONAL_EXPONENTS ( 1.000000000000000000, 0.000000000000000000, 0.000000000000000000, 0.000000000000000000, 0.000000000000000000, 0.000000000000000000, 0.000000000000000000 ) ;
#181 = CARTESIAN_POINT ( 'NONE',  ( 0.000000000000000000, 3.625000000000000444, 0.000000000000000000 ) ) ;
#182 = VECTOR ( 'NONE', #204, 39.37007874015748143 ) ;
#183 = EDGE_CURVE ( 'NONE', #70, #195, #132, .T. ) ;
#184 = VECTOR ( 'NONE', #249, 39.37007874015748143 ) ;
#185 = CARTESIAN_POINT ( 'NONE',  ( 0.000000000000000000, 3.625000000000000444, 0.000000000000000000 ) ) ;
#186 =( NAMED_UNIT ( * ) PLANE_ANGLE_UNIT ( ) SI_UNIT ( $, .RADIAN. ) );
#187 = DIMENSIONAL_EXPONENTS ( 1.000000000000000000, 0.000000000000000000, 0.000000000000000000, 0.000000000000000000, 0.000000000000000000, 0.000000000000000000, 0.000000000000000000 ) ;
#188 = CARTESIAN_POINT ( 'NONE',  ( -1.224646799147354440E-16, 6.000000000000000888, 0.000000000000000000 ) ) ;
#189 = ADVANCED_FACE ( 'NONE', ( #22 ), #91, .T. ) ;
#190 = SURFACE_SIDE_STYLE ('',( #110 ) ) ;
#191 = COLOUR_RGB ( '',0.7921568627450980005, 0.8196078431372548767, 0.9333333333333333481 ) ;
#192 = DIRECTION ( 'NONE',  ( -0.000000000000000000, -1.000000000000000000, -0.000000000000000000 ) ) ;
#193 = ORIENTED_EDGE ( 'NONE', *, *, #292, .T. ) ;
#194 = LENGTH_MEASURE_WITH_UNIT ( LENGTH_MEASURE( 0.02539999999999999897 ), #113 );
#195 = VERTEX_POINT ( 'NONE', #247 ) ;
#196 = SURFACE_STYLE_USAGE ( .BOTH. , #270 ) ;
#197 = AXIS2_PLACEMENT_3D ( 'NONE', #24, #143, #117 ) ;
#198 = ORIENTED_EDGE ( 'NONE', *, *, #183, .T. ) ;
#199 = EDGE_LOOP ( 'NONE', ( #198, #244 ) ) ;
#200 = DIMENSIONAL_EXPONENTS ( 1.000000000000000000, 0.000000000000000000, 0.000000000000000000, 0.000000000000000000, 0.000000000000000000, 0.000000000000000000, 0.000000000000000000 ) ;
#201 = DIRECTION ( 'NONE',  ( -5.156407575357281462E-17, 1.000000000000000000, -0.000000000000000000 ) ) ;
#202 = SURFACE_SIDE_STYLE ('',( #178 ) ) ;
#203 = AXIS2_PLACEMENT_3D ( 'NONE', #185, #104, #86 ) ;
#204 = DIRECTION ( 'NONE',  ( -0.000000000000000000, -1.000000000000000000, -0.000000000000000000 ) ) ;
#205 = DIRECTION ( 'NONE',  ( -5.156407575357281462E-17, 1.000000000000000000, -0.000000000000000000 ) ) ;
#206 = EDGE_CURVE ( 'NONE', #50, #195, #27, .T. ) ;
#207 = LINE ( 'NONE', #278, #184 ) ;
#208 = PRESENTATION_STYLE_ASSIGNMENT (( #257 ) ) ;
#209 =( CONVERSION_BASED_UNIT ( 'INCH', #252 ) LENGTH_UNIT ( ) NAMED_UNIT ( #187 ) );
#210 = PRESENTATION_LAYER_ASSIGNMENT (  '', '', ( #263 ) ) ;
#211 = PRESENTATION_LAYER_ASSIGNMENT (  '', '', ( #284 ) ) ;
#212 =( NAMED_UNIT ( * ) SI_UNIT ( $, .STERADIAN. ) SOLID_ANGLE_UNIT ( ) );
#213 = PRODUCT_RELATED_PRODUCT_CATEGORY ( 'part', '', ( #177 ) ) ;
#214 =( LENGTH_UNIT ( ) NAMED_UNIT ( * ) SI_UNIT ( $, .METRE. ) );
#215 = DIRECTION ( 'NONE',  ( 0.000000000000000000, 0.000000000000000000, -1.000000000000000000 ) ) ;
#216 = UNCERTAINTY_MEASURE_WITH_UNIT (LENGTH_MEASURE( 1.000000000000000082E-05 ), #243, 'distance_accuracy_value', 'NONE');
#217 = APPLICATION_CONTEXT ( 'automotive_design' ) ;
#218 = FACE_OUTER_BOUND ( 'NONE', #171, .T. ) ;
#219 = MECHANICAL_DESIGN_GEOMETRIC_PRESENTATION_REPRESENTATION (  '', ( #263 ), #23 ) ;
#220 = CLOSED_SHELL ( 'NONE', ( #1, #128, #189, #238 ) ) ;
#221 =( NAMED_UNIT ( * ) PLANE_ANGLE_UNIT ( ) SI_UNIT ( $, .RADIAN. ) );
#222 = EDGE_CURVE ( 'NONE', #269, #50, #302, .T. ) ;
#223 = APPLICATION_CONTEXT ( 'automotive_design' ) ;
#224 = DIRECTION ( 'NONE',  ( -1.000000000000000000, 0.000000000000000000, 0.000000000000000000 ) ) ;
#225 = EDGE_LOOP ( 'NONE', ( #94, #140, #230, #232 ) ) ;
#226 = DIRECTION ( 'NONE',  ( -0.000000000000000000, -1.000000000000000000, -0.000000000000000000 ) ) ;
#227 = FACE_OUTER_BOUND ( 'NONE', #225, .T. ) ;
#228 = PRESENTATION_LAYER_ASSIGNMENT (  '', '', ( #18 ) ) ;
#229 = AXIS2_PLACEMENT_3D ( 'NONE', #68, #15, #283 ) ;
#230 = ORIENTED_EDGE ( 'NONE', *, *, #183, .F. ) ;
#231 =( NAMED_UNIT ( * ) SI_UNIT ( $, .STERADIAN. ) SOLID_ANGLE_UNIT ( ) );
#232 = ORIENTED_EDGE ( 'NONE', *, *, #75, .F. ) ;
#233 = PRODUCT_DEFINITION_CONTEXT ( 'detailed design', #223, 'design' ) ;
#234 = DIRECTION ( 'NONE',  ( 0.000000000000000000, 0.000000000000000000, -1.000000000000000000 ) ) ;
#235 = PRESENTATION_STYLE_ASSIGNMENT (( #77 ) ) ;
#236 = CYLINDRICAL_SURFACE ( 'NONE', #134, 0.2500000000000000555 ) ;
#237 = CARTESIAN_POINT ( 'NONE',  ( -0.2500000000000002220, 6.000000000000000888, 0.000000000000000000 ) ) ;
#238 = ADVANCED_FACE ( 'NONE', ( #265 ), #47, .T. ) ;
#239 = LENGTH_MEASURE_WITH_UNIT ( LENGTH_MEASURE( 0.02539999999999999897 ), #59 );
#240 = CIRCLE ( 'NONE', #162, 0.2500000000000001110 ) ;
#241 = SURFACE_STYLE_USAGE ( .BOTH. , #190 ) ;
#242 =( GEOMETRIC_REPRESENTATION_CONTEXT ( 3 ) GLOBAL_UNCERTAINTY_ASSIGNED_CONTEXT ( ( #293 ) ) GLOBAL_UNIT_ASSIGNED_CONTEXT ( ( #72, #221, #245 ) ) REPRESENTATION_CONTEXT ( 'NONE', 'WORKASPACE' ) );
#243 =( CONVERSION_BASED_UNIT ( 'INCH', #46 ) LENGTH_UNIT ( ) NAMED_UNIT ( #126 ) );
#244 = ORIENTED_EDGE ( 'NONE', *, *, #160, .T. ) ;
#245 =( NAMED_UNIT ( * ) SI_UNIT ( $, .STERADIAN. ) SOLID_ANGLE_UNIT ( ) );
#246 = VERTEX_POINT ( 'NONE', #273 ) ;
#247 = CARTESIAN_POINT ( 'NONE',  ( 3.061616997868383018E-17, 0.000000000000000000, 0.2500000000000000000 ) ) ;
#248 = CIRCLE ( 'NONE', #148, 0.2500000000000000000 ) ;
#249 = DIRECTION ( 'NONE',  ( -5.156407575357281462E-17, 1.000000000000000000, -0.000000000000000000 ) ) ;
#250 = STYLED_ITEM ( 'NONE', ( #288 ), #189 ) ;
#251 = ORIENTED_EDGE ( 'NONE', *, *, #173, .F. ) ;
#252 = LENGTH_MEASURE_WITH_UNIT ( LENGTH_MEASURE( 0.02539999999999999897 ), #33 );
#253 = DIRECTION ( 'NONE',  ( -5.156407575357281462E-17, 1.000000000000000000, 0.000000000000000000 ) ) ;
#254 = ADVANCED_BREP_SHAPE_REPRESENTATION ( '82857', ( #63, #166, #135 ), #65 ) ;
#255 =( NAMED_UNIT ( * ) SI_UNIT ( $, .STERADIAN. ) SOLID_ANGLE_UNIT ( ) );
#256 = STYLED_ITEM ( 'NONE', ( #48 ), #1 ) ;
#257 = SURFACE_STYLE_USAGE ( .BOTH. , #156 ) ;
#258 = CARTESIAN_POINT ( 'NONE',  ( -1.224646799147354440E-16, 6.000000000000000888, 0.000000000000000000 ) ) ;
#259 = PLANE ( 'NONE',  #136 ) ;
#260 =( GEOMETRIC_REPRESENTATION_CONTEXT ( 3 ) GLOBAL_UNCERTAINTY_ASSIGNED_CONTEXT ( ( #261 ) ) GLOBAL_UNIT_ASSIGNED_CONTEXT ( ( #98, #291, #49 ) ) REPRESENTATION_CONTEXT ( 'NONE', 'WORKASPACE' ) );
#261 = UNCERTAINTY_MEASURE_WITH_UNIT (LENGTH_MEASURE( 1.000000000000000082E-05 ), #98, 'distance_accuracy_value', 'NONE');
#262 = AXIS2_PLACEMENT_3D ( 'NONE', #286, #69, #165 ) ;
#263 = STYLED_ITEM ( 'NONE', ( #280 ), #128 ) ;
#264 = FACE_OUTER_BOUND ( 'NONE', #271, .T. ) ;
#265 = FACE_OUTER_BOUND ( 'NONE', #199, .T. ) ;
#266 = ORIENTED_EDGE ( 'NONE', *, *, #150, .T. ) ;
#267 = EDGE_LOOP ( 'NONE', ( #266, #3 ) ) ;
#268 = SURFACE_STYLE_USAGE ( .BOTH. , #167 ) ;
#269 = VERTEX_POINT ( 'NONE', #301 ) ;
#270 = SURFACE_SIDE_STYLE ('',( #21 ) ) ;
#271 = EDGE_LOOP ( 'NONE', ( #169, #193, #28, #272 ) ) ;
#272 = ORIENTED_EDGE ( 'NONE', *, *, #30, .F. ) ;
#273 = CARTESIAN_POINT ( 'NONE',  ( -0.2500000000000002776, 6.000000000000000888, 0.000000000000000000 ) ) ;
#274 = CARTESIAN_POINT ( 'NONE',  ( 0.000000000000000000, 0.000000000000000000, 0.000000000000000000 ) ) ;
#275 = APPLICATION_PROTOCOL_DEFINITION ( 'draft international standard', 'automotive_design', 1998, #223 ) ;
#276 = SURFACE_STYLE_FILL_AREA ( #131 ) ;
#277 = CIRCLE ( 'NONE', #159, 0.2500000000000000000 ) ;
#278 = CARTESIAN_POINT ( 'NONE',  ( 0.2499999999999999167, 6.000000000000000888, 3.061616997868383634E-17 ) ) ;
#279 = DIRECTION ( 'NONE',  ( -5.156407575357281462E-17, 1.000000000000000000, -0.000000000000000000 ) ) ;
#280 = PRESENTATION_STYLE_ASSIGNMENT (( #241 ) ) ;
#281 = FACE_OUTER_BOUND ( 'NONE', #267, .T. ) ;
#282 = CARTESIAN_POINT ( 'NONE',  ( 0.2500000000000000000, 6.000000000000000888, 0.000000000000000000 ) ) ;
#283 = DIRECTION ( 'NONE',  ( 0.000000000000000000, -0.000000000000000000, 1.000000000000000000 ) ) ;
#284 = STYLED_ITEM ( 'NONE', ( #208 ), #63 ) ;
#285 = VECTOR ( 'NONE', #192, 39.37007874015748143 ) ;
#286 = CARTESIAN_POINT ( 'NONE',  ( 0.000000000000000000, 3.625000000000000444, 0.000000000000000000 ) ) ;
#287 = ORIENTED_EDGE ( 'NONE', *, *, #173, .T. ) ;
#288 = PRESENTATION_STYLE_ASSIGNMENT (( #196 ) ) ;
#289 =( LENGTH_UNIT ( ) NAMED_UNIT ( * ) SI_UNIT ( $, .METRE. ) );
#290 = MECHANICAL_DESIGN_GEOMETRIC_PRESENTATION_REPRESENTATION (  '', ( #18 ), #163 ) ;
#291 =( NAMED_UNIT ( * ) PLANE_ANGLE_UNIT ( ) SI_UNIT ( $, .RADIAN. ) );
#292 = EDGE_CURVE ( 'NONE', #309, #116, #111, .T. ) ;
#293 = UNCERTAINTY_MEASURE_WITH_UNIT (LENGTH_MEASURE( 1.000000000000000082E-05 ), #72, 'distance_accuracy_value', 'NONE');
#294 = DIMENSIONAL_EXPONENTS ( 1.000000000000000000, 0.000000000000000000, 0.000000000000000000, 0.000000000000000000, 0.000000000000000000, 0.000000000000000000, 0.000000000000000000 ) ;
#295 = FILL_AREA_STYLE_COLOUR ( '', #4 ) ;
#296 = PRODUCT_CONTEXT ( 'NONE', #217, 'mechanical' ) ;
#297 = LENGTH_MEASURE_WITH_UNIT ( LENGTH_MEASURE( 0.02539999999999999897 ), #289 );
#298 = DIRECTION ( 'NONE',  ( -1.000000000000000000, 0.000000000000000000, 0.000000000000000000 ) ) ;
#299 = CARTESIAN_POINT ( 'NONE',  ( 0.2500000000000000555, 3.625000000000000444, 3.061616997868384251E-17 ) ) ;
#300 =( NAMED_UNIT ( * ) PLANE_ANGLE_UNIT ( ) SI_UNIT ( $, .RADIAN. ) );
#301 = CARTESIAN_POINT ( 'NONE',  ( 0.000000000000000000, 3.625000000000000444, -0.2500000000000000000 ) ) ;
#302 = CIRCLE ( 'NONE', #262, 0.2500000000000000000 ) ;
#303 = CYLINDRICAL_SURFACE ( 'NONE', #306, 0.2500000000000000555 ) ;
#304 = CARTESIAN_POINT ( 'NONE',  ( 0.000000000000000000, 3.625000000000000444, 0.000000000000000000 ) ) ;
#305 = EDGE_CURVE ( 'NONE', #309, #26, #207, .T. ) ;
#306 = AXIS2_PLACEMENT_3D ( 'NONE', #138, #14, #109 ) ;
#307 = UNCERTAINTY_MEASURE_WITH_UNIT (LENGTH_MEASURE( 1.000000000000000082E-05 ), #82, 'distance_accuracy_value', 'NONE');
#308 = FILL_AREA_STYLE ('',( #139 ) ) ;
#309 = VERTEX_POINT ( 'NONE', #299 ) ;
ENDSEC;
END-ISO-10303-21;
