ISO-10303-21;
HEADER;
FILE_DESCRIPTION (( 'STEP AP214' ),
    '1' );
FILE_NAME ('Micro_AEMM-040-3.STEP',
    '2022-03-15T14:25:18',
    ( '' ),
    ( '' ),
    'SwSTEP 2.0',
    'SolidWorks 2022',
    '' );
FILE_SCHEMA (( 'AUTOMOTIVE_DESIGN' ));
ENDSEC;

DATA;
#1 =( NAMED_UNIT ( * ) SI_UNIT ( $, .STERADIAN. ) SOLID_ANGLE_UNIT ( ) );
#2 = ADVANCED_FACE ( 'NONE', ( #154 ), #229, .T. ) ;
#3 = CLOSED_SHELL ( 'NONE', ( #16, #278, #160, #2, #213, #4, #297, #52, #161, #112 ) ) ;
#4 = ADVANCED_FACE ( 'NONE', ( #148 ), #241, .T. ) ;
#5 = EDGE_CURVE ( 'NONE', #221, #98, #168, .T. ) ;
#6 = PRESENTATION_LAYER_ASSIGNMENT (  '', '', ( #11 ) ) ;
#7 =( NAMED_UNIT ( * ) PLANE_ANGLE_UNIT ( ) SI_UNIT ( $, .RADIAN. ) );
#8 = DIRECTION ( 'NONE',  ( 0.1736481776669313859, 0.000000000000000000, 0.9848077530122077983 ) ) ;
#9 = DIRECTION ( 'NONE',  ( 1.000000000000000000, 0.000000000000000000, 0.000000000000000000 ) ) ;
#10 = EDGE_LOOP ( 'NONE', ( #41, #197, #225, #171 ) ) ;
#11 = STYLED_ITEM ( 'NONE', ( #199 ), #153 ) ;
#12 = LENGTH_MEASURE_WITH_UNIT ( LENGTH_MEASURE( 0.02539999999999999897 ), #141 );
#13 = VERTEX_POINT ( 'NONE', #207 ) ;
#14 =( NAMED_UNIT ( * ) PLANE_ANGLE_UNIT ( ) SI_UNIT ( $, .RADIAN. ) );
#15 = APPLICATION_CONTEXT ( 'automotive_design' ) ;
#16 = ADVANCED_FACE ( 'NONE', ( #295 ), #113, .T. ) ;
#17 = DIRECTION ( 'NONE',  ( -1.224646799147353207E-16, -0.000000000000000000, -1.000000000000000000 ) ) ;
#18 = ORIENTED_EDGE ( 'NONE', *, *, #119, .T. ) ;
#19 = DIRECTION ( 'NONE',  ( -1.224646799147353207E-16, -0.000000000000000000, -1.000000000000000000 ) ) ;
#20 = EDGE_LOOP ( 'NONE', ( #187, #228, #288, #238 ) ) ;
#21 = PRODUCT ( 'Micro_AEMM-040-3', 'Micro_AEMM-040-3', '', ( #296 ) ) ;
#22 = AXIS2_PLACEMENT_3D ( 'NONE', #39, #27, #273 ) ;
#23 = DIRECTION ( 'NONE',  ( -0.000000000000000000, -0.000000000000000000, -1.000000000000000000 ) ) ;
#24 = CARTESIAN_POINT ( 'NONE',  ( 5.303590139535433909E-17, 0.000000000000000000, 0.4330709999999999837 ) ) ;
#25 = CARTESIAN_POINT ( 'NONE',  ( -0.07866125999999999674, 0.000000000000000000, 1.926645205517954173E-17 ) ) ;
#26 = PRODUCT_DEFINITION ( 'UNKNOWN', '', #234, #293 ) ;
#27 = DIRECTION ( 'NONE',  ( 0.000000000000000000, 0.000000000000000000, 1.000000000000000000 ) ) ;
#28 = UNCERTAINTY_MEASURE_WITH_UNIT (LENGTH_MEASURE( 1.000000000000000082E-05 ), #73, 'distance_accuracy_value', 'NONE');
#29 = CONICAL_SURFACE ( 'NONE', #299, 0.1031100000000002570, 0.7853981633974318477 ) ;
#30 = EDGE_LOOP ( 'NONE', ( #216, #35, #62, #57 ) ) ;
#31 = AXIS2_PLACEMENT_3D ( 'NONE', #176, #101, #79 ) ;
#32 = DIRECTION ( 'NONE',  ( -1.000000000000000000, 0.000000000000000000, 1.224646799147352961E-16 ) ) ;
#33 = DIRECTION ( 'NONE',  ( -1.224646799147353207E-16, -0.000000000000000000, -1.000000000000000000 ) ) ;
#34 = DIRECTION ( 'NONE',  ( -1.000000000000000000, 0.000000000000000000, 1.224646799147352961E-16 ) ) ;
#35 = ORIENTED_EDGE ( 'NONE', *, *, #282, .T. ) ;
#36 = FACE_OUTER_BOUND ( 'NONE', #10, .T. ) ;
#37 = VECTOR ( 'NONE', #123, 39.37007874015748143 ) ;
#38 = CARTESIAN_POINT ( 'NONE',  ( 8.043430235321561285E-17, 0.000000000000000000, 0.6567959219688248584 ) ) ;
#39 = CARTESIAN_POINT ( 'NONE',  ( 0.000000000000000000, 0.000000000000000000, 2.244094000000000033 ) ) ;
#40 = CARTESIAN_POINT ( 'NONE',  ( 0.000000000000000000, 0.000000000000000000, 2.244094000000000033 ) ) ;
#41 = ORIENTED_EDGE ( 'NONE', *, *, #254, .F. ) ;
#42 = ORIENTED_EDGE ( 'NONE', *, *, #255, .F. ) ;
#43 = DIRECTION ( 'NONE',  ( -1.000000000000000000, 0.000000000000000000, 1.224646799147352961E-16 ) ) ;
#44 = VECTOR ( 'NONE', #226, 39.37007874015748854 ) ;
#45 = CARTESIAN_POINT ( 'NONE',  ( 0.000000000000000000, 0.000000000000000000, 0.000000000000000000 ) ) ;
#46 = PRESENTATION_STYLE_ASSIGNMENT (( #247 ) ) ;
#47 = CARTESIAN_POINT ( 'NONE',  ( 0.000000000000000000, 0.000000000000000000, 0.000000000000000000 ) ) ;
#48 = AXIS2_PLACEMENT_3D ( 'NONE', #237, #33, #34 ) ;
#49 = CIRCLE ( 'NONE', #71, 0.07866125999999999674 ) ;
#50 = MECHANICAL_DESIGN_GEOMETRIC_PRESENTATION_REPRESENTATION (  '', ( #11 ), #60 ) ;
#51 = ORIENTED_EDGE ( 'NONE', *, *, #191, .T. ) ;
#52 = ADVANCED_FACE ( 'NONE', ( #205 ), #74, .T. ) ;
#53 = SURFACE_STYLE_USAGE ( .BOTH. , #194 ) ;
#54 = VECTOR ( 'NONE', #55, 39.37007874015747433 ) ;
#55 = DIRECTION ( 'NONE',  ( -0.1736481776669311916, 2.126576849575783316E-17, 0.9848077530122080203 ) ) ;
#56 = CYLINDRICAL_SURFACE ( 'NONE', #126, 0.07866125999999999674 ) ;
#57 = ORIENTED_EDGE ( 'NONE', *, *, #138, .F. ) ;
#58 = CARTESIAN_POINT ( 'NONE',  ( 0.000000000000000000, 0.000000000000000000, 2.229093999999999465 ) ) ;
#59 = DIRECTION ( 'NONE',  ( -1.000000000000000000, 0.000000000000000000, 0.000000000000000000 ) ) ;
#60 =( GEOMETRIC_REPRESENTATION_CONTEXT ( 3 ) GLOBAL_UNCERTAINTY_ASSIGNED_CONTEXT ( ( #28 ) ) GLOBAL_UNIT_ASSIGNED_CONTEXT ( ( #73, #7, #286 ) ) REPRESENTATION_CONTEXT ( 'NONE', 'WORKASPACE' ) );
#61 = DIRECTION ( 'NONE',  ( 1.000000000000000000, 0.000000000000000000, 0.000000000000000000 ) ) ;
#62 = ORIENTED_EDGE ( 'NONE', *, *, #117, .T. ) ;
#63 = VERTEX_POINT ( 'NONE', #179 ) ;
#64 = CARTESIAN_POINT ( 'NONE',  ( 5.303590139535433909E-17, 0.000000000000000000, 0.4330709999999999837 ) ) ;
#65 = DIRECTION ( 'NONE',  ( 1.224646799147353207E-16, 0.000000000000000000, 1.000000000000000000 ) ) ;
#66 = DIRECTION ( 'NONE',  ( -1.224646799147353207E-16, -0.000000000000000000, -1.000000000000000000 ) ) ;
#67 = DIRECTION ( 'NONE',  ( -0.7071067811865358044, 0.000000000000000000, -0.7071067811865590080 ) ) ;
#68 = AXIS2_PLACEMENT_3D ( 'NONE', #40, #130, #227 ) ;
#69 = AXIS2_PLACEMENT_3D ( 'NONE', #212, #116, #184 ) ;
#70 = EDGE_CURVE ( 'NONE', #107, #221, #93, .T. ) ;
#71 = AXIS2_PLACEMENT_3D ( 'NONE', #24, #19, #239 ) ;
#72 = ORIENTED_EDGE ( 'NONE', *, *, #223, .F. ) ;
#73 =( CONVERSION_BASED_UNIT ( 'INCH', #12 ) LENGTH_UNIT ( ) NAMED_UNIT ( #82 ) );
#74 = CONICAL_SURFACE ( 'NONE', #240, 0.07866125999999999674, 0.1745329251994338915 ) ;
#75 = CIRCLE ( 'NONE', #252, 0.07866125999999999674 ) ;
#76 = CARTESIAN_POINT ( 'NONE',  ( 0.07866126000000003837, 0.000000000000000000, 0.4330709999999999837 ) ) ;
#77 = DIRECTION ( 'NONE',  ( -1.224646799147353207E-16, -0.000000000000000000, -1.000000000000000000 ) ) ;
#78 = VERTEX_POINT ( 'NONE', #25 ) ;
#79 = DIRECTION ( 'NONE',  ( -1.000000000000000000, 0.000000000000000000, 0.000000000000000000 ) ) ;
#80 = VERTEX_POINT ( 'NONE', #88 ) ;
#81 = LINE ( 'NONE', #76, #164 ) ;
#82 = DIMENSIONAL_EXPONENTS ( 1.000000000000000000, 0.000000000000000000, 0.000000000000000000, 0.000000000000000000, 0.000000000000000000, 0.000000000000000000, 0.000000000000000000 ) ;
#83 = ORIENTED_EDGE ( 'NONE', *, *, #174, .T. ) ;
#84 =( CONVERSION_BASED_UNIT ( 'INCH', #206 ) LENGTH_UNIT ( ) NAMED_UNIT ( #120 ) );
#85 = CONICAL_SURFACE ( 'NONE', #31, 0.1031100000000002570, 0.7853981633974318477 ) ;
#86 = ORIENTED_EDGE ( 'NONE', *, *, #193, .T. ) ;
#87 =( LENGTH_UNIT ( ) NAMED_UNIT ( * ) SI_UNIT ( $, .METRE. ) );
#88 = CARTESIAN_POINT ( 'NONE',  ( -0.1181099999999999234, 0.000000000000000000, 0.6567959219688248584 ) ) ;
#89 = PRODUCT_DEFINITION_SHAPE ( 'NONE', 'NONE',  #26 ) ;
#90 = SURFACE_STYLE_FILL_AREA ( #202 ) ;
#91 = DIRECTION ( 'NONE',  ( -1.224646799147353207E-16, -0.000000000000000000, -1.000000000000000000 ) ) ;
#92 = VECTOR ( 'NONE', #77, 39.37007874015748143 ) ;
#93 = LINE ( 'NONE', #181, #163 ) ;
#94 = UNCERTAINTY_MEASURE_WITH_UNIT (LENGTH_MEASURE( 1.000000000000000082E-05 ), #208, 'distance_accuracy_value', 'NONE');
#95 = APPLICATION_CONTEXT ( 'automotive_design' ) ;
#96 = CARTESIAN_POINT ( 'NONE',  ( -0.1181100000000000066, 0.000000000000000000, 2.229093999999999465 ) ) ;
#97 = FACE_OUTER_BOUND ( 'NONE', #279, .T. ) ;
#98 = VERTEX_POINT ( 'NONE', #135 ) ;
#99 = VECTOR ( 'NONE', #127, 39.37007874015748143 ) ;
#100 =( GEOMETRIC_REPRESENTATION_CONTEXT ( 3 ) GLOBAL_UNCERTAINTY_ASSIGNED_CONTEXT ( ( #94 ) ) GLOBAL_UNIT_ASSIGNED_CONTEXT ( ( #208, #14, #1 ) ) REPRESENTATION_CONTEXT ( 'NONE', 'WORKASPACE' ) );
#101 = DIRECTION ( 'NONE',  ( 0.000000000000000000, 0.000000000000000000, -1.000000000000000000 ) ) ;
#102 = ORIENTED_EDGE ( 'NONE', *, *, #5, .F. ) ;
#103 = CARTESIAN_POINT ( 'NONE',  ( 5.303590139535433909E-17, 0.000000000000000000, 0.4330709999999999837 ) ) ;
#104 = DIRECTION ( 'NONE',  ( -1.224646799147353207E-16, -0.000000000000000000, -1.000000000000000000 ) ) ;
#105 = ORIENTED_EDGE ( 'NONE', *, *, #70, .F. ) ;
#106 = DIRECTION ( 'NONE',  ( 0.000000000000000000, 0.000000000000000000, -1.000000000000000000 ) ) ;
#107 = VERTEX_POINT ( 'NONE', #183 ) ;
#108 = FILL_AREA_STYLE_COLOUR ( '', #189 ) ;
#109 = FACE_OUTER_BOUND ( 'NONE', #262, .T. ) ;
#110 = CARTESIAN_POINT ( 'NONE',  ( 0.000000000000000000, 0.000000000000000000, 2.229093999999999465 ) ) ;
#111 = LENGTH_MEASURE_WITH_UNIT ( LENGTH_MEASURE( 0.02539999999999999897 ), #232 );
#112 = ADVANCED_FACE ( 'NONE', ( #109 ), #276, .F. ) ;
#113 = CYLINDRICAL_SURFACE ( 'NONE', #186, 0.07866125999999999674 ) ;
#114 = CARTESIAN_POINT ( 'NONE',  ( 1.179729942015078748E-33, 0.000000000000000000, 9.633226027589770864E-18 ) ) ;
#115 = EDGE_CURVE ( 'NONE', #287, #200, #249, .T. ) ;
#116 = DIRECTION ( 'NONE',  ( 0.000000000000000000, 0.000000000000000000, 1.000000000000000000 ) ) ;
#117 = EDGE_CURVE ( 'NONE', #63, #78, #233, .T. ) ;
#118 =( GEOMETRIC_REPRESENTATION_CONTEXT ( 3 ) GLOBAL_UNCERTAINTY_ASSIGNED_CONTEXT ( ( #211 ) ) GLOBAL_UNIT_ASSIGNED_CONTEXT ( ( #84, #198, #152 ) ) REPRESENTATION_CONTEXT ( 'NONE', 'WORKASPACE' ) );
#119 = EDGE_CURVE ( 'NONE', #107, #177, #283, .T. ) ;
#120 = DIMENSIONAL_EXPONENTS ( 1.000000000000000000, 0.000000000000000000, 0.000000000000000000, 0.000000000000000000, 0.000000000000000000, 0.000000000000000000, 0.000000000000000000 ) ;
#121 = EDGE_LOOP ( 'NONE', ( #132, #86, #145, #72 ) ) ;
#122 = AXIS2_PLACEMENT_3D ( 'NONE', #167, #280, #263 ) ;
#123 = DIRECTION ( 'NONE',  ( -0.000000000000000000, -0.000000000000000000, -1.000000000000000000 ) ) ;
#124 = EDGE_CURVE ( 'NONE', #98, #13, #190, .T. ) ;
#125 = ORIENTED_EDGE ( 'NONE', *, *, #235, .F. ) ;
#126 = AXIS2_PLACEMENT_3D ( 'NONE', #265, #17, #32 ) ;
#127 = DIRECTION ( 'NONE',  ( -0.000000000000000000, -0.000000000000000000, -1.000000000000000000 ) ) ;
#128 = ORIENTED_EDGE ( 'NONE', *, *, #254, .T. ) ;
#129 = DIRECTION ( 'NONE',  ( -1.224646799147353207E-16, -0.000000000000000000, -1.000000000000000000 ) ) ;
#130 = DIRECTION ( 'NONE',  ( -0.000000000000000000, -0.000000000000000000, -1.000000000000000000 ) ) ;
#131 = ORIENTED_EDGE ( 'NONE', *, *, #117, .F. ) ;
#132 = ORIENTED_EDGE ( 'NONE', *, *, #270, .F. ) ;
#133 = DIRECTION ( 'NONE',  ( -1.000000000000000000, 0.000000000000000000, 0.000000000000000000 ) ) ;
#134 = CARTESIAN_POINT ( 'NONE',  ( 0.07866125999999999674, 9.633226027589770864E-18, -9.633226027589770864E-18 ) ) ;
#135 = CARTESIAN_POINT ( 'NONE',  ( 0.1181100000000000066, 1.446430334472939084E-17, 2.229093999999999465 ) ) ;
#136 = APPLICATION_PROTOCOL_DEFINITION ( 'draft international standard', 'automotive_design', 1998, #95 ) ;
#137 = EDGE_CURVE ( 'NONE', #80, #13, #256, .T. ) ;
#138 = EDGE_CURVE ( 'NONE', #200, #78, #274, .T. ) ;
#139 = AXIS2_PLACEMENT_3D ( 'NONE', #38, #104, #61 ) ;
#140 = ORIENTED_EDGE ( 'NONE', *, *, #270, .T. ) ;
#141 =( LENGTH_UNIT ( ) NAMED_UNIT ( * ) SI_UNIT ( $, .METRE. ) );
#142 = DIMENSIONAL_EXPONENTS ( 1.000000000000000000, 0.000000000000000000, 0.000000000000000000, 0.000000000000000000, 0.000000000000000000, 0.000000000000000000, 0.000000000000000000 ) ;
#143 = LINE ( 'NONE', #173, #37 ) ;
#144 = CARTESIAN_POINT ( 'NONE',  ( 0.1031100000000002570, 1.354581824536888722E-17, 2.244094000000000033 ) ) ;
#145 = ORIENTED_EDGE ( 'NONE', *, *, #137, .T. ) ;
#146 = CARTESIAN_POINT ( 'NONE',  ( 0.1031100000000002570, 1.262733314600838667E-17, 2.244094000000000033 ) ) ;
#147 = LINE ( 'NONE', #218, #54 ) ;
#148 = FACE_OUTER_BOUND ( 'NONE', #195, .T. ) ;
#149 = MECHANICAL_DESIGN_GEOMETRIC_PRESENTATION_REPRESENTATION (  '', ( #257 ), #100 ) ;
#150 = FACE_OUTER_BOUND ( 'NONE', #291, .T. ) ;
#151 = ORIENTED_EDGE ( 'NONE', *, *, #255, .T. ) ;
#152 =( NAMED_UNIT ( * ) SI_UNIT ( $, .STERADIAN. ) SOLID_ANGLE_UNIT ( ) );
#153 = MANIFOLD_SOLID_BREP ( 'Cut-Revolve1', #3 ) ;
#154 = FACE_OUTER_BOUND ( 'NONE', #258, .T. ) ;
#155 = CARTESIAN_POINT ( 'NONE',  ( 0.000000000000000000, 0.000000000000000000, 2.244094000000000033 ) ) ;
#156 = DIRECTION ( 'NONE',  ( 1.000000000000000000, 0.000000000000000000, -0.000000000000000000 ) ) ;
#157 = LINE ( 'NONE', #146, #44 ) ;
#158 = PRESENTATION_LAYER_ASSIGNMENT (  '', '', ( #257 ) ) ;
#159 = DIRECTION ( 'NONE',  ( 1.000000000000000000, 0.000000000000000000, 0.000000000000000000 ) ) ;
#160 = ADVANCED_FACE ( 'NONE', ( #97 ), #85, .T. ) ;
#161 = ADVANCED_FACE ( 'NONE', ( #170 ), #56, .T. ) ;
#162 = COLOUR_RGB ( '',0.7921568627450980005, 0.8196078431372548767, 0.9333333333333333481 ) ;
#163 = VECTOR ( 'NONE', #67, 39.37007874015748854 ) ;
#164 = VECTOR ( 'NONE', #8, 39.37007874015748143 ) ;
#165 = ORIENTED_EDGE ( 'NONE', *, *, #124, .F. ) ;
#166 = DIRECTION ( 'NONE',  ( -1.224646799147353207E-16, -0.000000000000000000, -1.000000000000000000 ) ) ;
#167 = CARTESIAN_POINT ( 'NONE',  ( 0.000000000000000000, 0.000000000000000000, 2.244094000000000033 ) ) ;
#168 = CIRCLE ( 'NONE', #214, 0.1181100000000000066 ) ;
#169 = AXIS2_PLACEMENT_3D ( 'NONE', #114, #129, #43 ) ;
#170 = FACE_OUTER_BOUND ( 'NONE', #30, .T. ) ;
#171 = ORIENTED_EDGE ( 'NONE', *, *, #191, .F. ) ;
#172 = SURFACE_SIDE_STYLE ('',( #90 ) ) ;
#173 = CARTESIAN_POINT ( 'NONE',  ( -0.1181100000000000066, 0.000000000000000000, 2.244094000000000033 ) ) ;
#174 = EDGE_CURVE ( 'NONE', #221, #80, #143, .T. ) ;
#175 = ORIENTED_EDGE ( 'NONE', *, *, #124, .T. ) ;
#176 = CARTESIAN_POINT ( 'NONE',  ( 0.000000000000000000, 0.000000000000000000, 2.244094000000000033 ) ) ;
#177 = VERTEX_POINT ( 'NONE', #144 ) ;
#178 = ORIENTED_EDGE ( 'NONE', *, *, #138, .T. ) ;
#179 = CARTESIAN_POINT ( 'NONE',  ( -0.07866125999999994123, 1.204876468615957931E-17, 0.4330709999999999837 ) ) ;
#180 = CARTESIAN_POINT ( 'NONE',  ( 0.000000000000000000, 0.000000000000000000, 2.244094000000000033 ) ) ;
#181 = CARTESIAN_POINT ( 'NONE',  ( -0.1031100000000002570, 0.000000000000000000, 2.244094000000000033 ) ) ;
#182 = CONICAL_SURFACE ( 'NONE', #242, 0.07866125999999999674, 0.1745329251994338915 ) ;
#183 = CARTESIAN_POINT ( 'NONE',  ( -0.1031100000000002570, 0.000000000000000000, 2.244094000000000033 ) ) ;
#184 = DIRECTION ( 'NONE',  ( 1.000000000000000000, 0.000000000000000000, 0.000000000000000000 ) ) ;
#185 = SHAPE_DEFINITION_REPRESENTATION ( #89, #248 ) ;
#186 = AXIS2_PLACEMENT_3D ( 'NONE', #47, #66, #298 ) ;
#187 = ORIENTED_EDGE ( 'NONE', *, *, #193, .F. ) ;
#188 = AXIS2_PLACEMENT_3D ( 'NONE', #219, #166, #9 ) ;
#189 = COLOUR_RGB ( '',0.7921568627450980005, 0.8196078431372548767, 0.9333333333333333481 ) ;
#190 = LINE ( 'NONE', #259, #99 ) ;
#191 = EDGE_CURVE ( 'NONE', #98, #221, #277, .T. ) ;
#192 = FILL_AREA_STYLE_COLOUR ( '', #162 ) ;
#193 = EDGE_CURVE ( 'NONE', #63, #80, #147, .T. ) ;
#194 = SURFACE_SIDE_STYLE ('',( #260 ) ) ;
#195 = EDGE_LOOP ( 'NONE', ( #18, #151 ) ) ;
#196 = EDGE_CURVE ( 'NONE', #13, #80, #210, .T. ) ;
#197 = ORIENTED_EDGE ( 'NONE', *, *, #119, .F. ) ;
#198 =( NAMED_UNIT ( * ) PLANE_ANGLE_UNIT ( ) SI_UNIT ( $, .RADIAN. ) );
#199 = PRESENTATION_STYLE_ASSIGNMENT (( #53 ) ) ;
#200 = VERTEX_POINT ( 'NONE', #281 ) ;
#201 = EDGE_LOOP ( 'NONE', ( #140, #244, #125, #131 ) ) ;
#202 = FILL_AREA_STYLE ('',( #108 ) ) ;
#203 = CIRCLE ( 'NONE', #169, 0.07866125999999999674 ) ;
#204 = AXIS2_PLACEMENT_3D ( 'NONE', #155, #289, #269 ) ;
#205 = FACE_OUTER_BOUND ( 'NONE', #20, .T. ) ;
#206 = LENGTH_MEASURE_WITH_UNIT ( LENGTH_MEASURE( 0.02539999999999999897 ), #87 );
#207 = CARTESIAN_POINT ( 'NONE',  ( 0.1181100000000000899, 1.446430334472940009E-17, 0.6567959219688248584 ) ) ;
#208 =( CONVERSION_BASED_UNIT ( 'INCH', #111 ) LENGTH_UNIT ( ) NAMED_UNIT ( #142 ) );
#209 = DIRECTION ( 'NONE',  ( 1.000000000000000000, 0.000000000000000000, 0.000000000000000000 ) ) ;
#210 = CIRCLE ( 'NONE', #139, 0.1181100000000000066 ) ;
#211 = UNCERTAINTY_MEASURE_WITH_UNIT (LENGTH_MEASURE( 1.000000000000000082E-05 ), #84, 'distance_accuracy_value', 'NONE');
#212 = CARTESIAN_POINT ( 'NONE',  ( 0.000000000000000000, 0.000000000000000000, 0.000000000000000000 ) ) ;
#213 = ADVANCED_FACE ( 'NONE', ( #150 ), #243, .T. ) ;
#214 = AXIS2_PLACEMENT_3D ( 'NONE', #110, #231, #209 ) ;
#215 = CIRCLE ( 'NONE', #204, 0.1031100000000002570 ) ;
#216 = ORIENTED_EDGE ( 'NONE', *, *, #115, .F. ) ;
#217 = DIRECTION ( 'NONE',  ( 0.000000000000000000, 0.000000000000000000, -1.000000000000000000 ) ) ;
#218 = CARTESIAN_POINT ( 'NONE',  ( -0.07866125999999994123, 9.633226027589770864E-18, 0.4330709999999999837 ) ) ;
#219 = CARTESIAN_POINT ( 'NONE',  ( 8.043430235321561285E-17, 0.000000000000000000, 0.6567959219688248584 ) ) ;
#220 = AXIS2_PLACEMENT_3D ( 'NONE', #264, #23, #59 ) ;
#221 = VERTEX_POINT ( 'NONE', #96 ) ;
#222 = CARTESIAN_POINT ( 'NONE',  ( 5.303590139535433909E-17, 0.000000000000000000, 0.4330709999999999837 ) ) ;
#223 = EDGE_CURVE ( 'NONE', #287, #13, #81, .T. ) ;
#224 = DIRECTION ( 'NONE',  ( 1.000000000000000000, 0.000000000000000000, 0.000000000000000000 ) ) ;
#225 = ORIENTED_EDGE ( 'NONE', *, *, #70, .T. ) ;
#226 = DIRECTION ( 'NONE',  ( 0.7071067811865358044, 8.659560562354788645E-17, -0.7071067811865590080 ) ) ;
#227 = DIRECTION ( 'NONE',  ( -1.000000000000000000, 0.000000000000000000, 0.000000000000000000 ) ) ;
#228 = ORIENTED_EDGE ( 'NONE', *, *, #282, .F. ) ;
#229 = CYLINDRICAL_SURFACE ( 'NONE', #220, 0.1181100000000000066 ) ;
#230 = FACE_OUTER_BOUND ( 'NONE', #121, .T. ) ;
#231 = DIRECTION ( 'NONE',  ( 0.000000000000000000, 0.000000000000000000, -1.000000000000000000 ) ) ;
#232 =( LENGTH_UNIT ( ) NAMED_UNIT ( * ) SI_UNIT ( $, .METRE. ) );
#233 = LINE ( 'NONE', #253, #92 ) ;
#234 = PRODUCT_DEFINITION_FORMATION_WITH_SPECIFIED_SOURCE ( 'ANY', '', #21, .NOT_KNOWN. ) ;
#235 = EDGE_CURVE ( 'NONE', #78, #200, #203, .T. ) ;
#236 = ORIENTED_EDGE ( 'NONE', *, *, #196, .F. ) ;
#237 = CARTESIAN_POINT ( 'NONE',  ( 1.179729942015078748E-33, 0.000000000000000000, 9.633226027589770864E-18 ) ) ;
#238 = ORIENTED_EDGE ( 'NONE', *, *, #196, .T. ) ;
#239 = DIRECTION ( 'NONE',  ( -1.000000000000000000, 0.000000000000000000, 0.000000000000000000 ) ) ;
#240 = AXIS2_PLACEMENT_3D ( 'NONE', #64, #294, #159 ) ;
#241 = PLANE ( 'NONE',  #22 ) ;
#242 = AXIS2_PLACEMENT_3D ( 'NONE', #103, #65, #245 ) ;
#243 = CYLINDRICAL_SURFACE ( 'NONE', #68, 0.1181100000000000066 ) ;
#244 = ORIENTED_EDGE ( 'NONE', *, *, #115, .T. ) ;
#245 = DIRECTION ( 'NONE',  ( 1.000000000000000000, 0.000000000000000000, 0.000000000000000000 ) ) ;
#246 = ORIENTED_EDGE ( 'NONE', *, *, #5, .T. ) ;
#247 = SURFACE_STYLE_USAGE ( .BOTH. , #172 ) ;
#248 = ADVANCED_BREP_SHAPE_REPRESENTATION ( 'Micro_AEMM-040-3', ( #153, #69 ), #118 ) ;
#249 = LINE ( 'NONE', #134, #290 ) ;
#250 = CARTESIAN_POINT ( 'NONE',  ( 0.07866126000000003837, 0.000000000000000000, 0.4330709999999999837 ) ) ;
#251 = AXIS2_PLACEMENT_3D ( 'NONE', #45, #271, #156 ) ;
#252 = AXIS2_PLACEMENT_3D ( 'NONE', #222, #272, #133 ) ;
#253 = CARTESIAN_POINT ( 'NONE',  ( -0.07866125999999999674, 0.000000000000000000, 9.633226027589770864E-18 ) ) ;
#254 = EDGE_CURVE ( 'NONE', #177, #98, #157, .T. ) ;
#255 = EDGE_CURVE ( 'NONE', #177, #107, #215, .T. ) ;
#256 = CIRCLE ( 'NONE', #188, 0.1181100000000000066 ) ;
#257 = STYLED_ITEM ( 'NONE', ( #46 ), #248 ) ;
#258 = EDGE_LOOP ( 'NONE', ( #246, #175, #268, #285 ) ) ;
#259 = CARTESIAN_POINT ( 'NONE',  ( 0.1181100000000000066, 1.446430334472939084E-17, 2.244094000000000033 ) ) ;
#260 = SURFACE_STYLE_FILL_AREA ( #284 ) ;
#261 = PRODUCT_RELATED_PRODUCT_CATEGORY ( 'part', '', ( #21 ) ) ;
#262 = EDGE_LOOP ( 'NONE', ( #266, #178 ) ) ;
#263 = DIRECTION ( 'NONE',  ( 1.000000000000000000, 0.000000000000000000, 0.000000000000000000 ) ) ;
#264 = CARTESIAN_POINT ( 'NONE',  ( 0.000000000000000000, 0.000000000000000000, 2.244094000000000033 ) ) ;
#265 = CARTESIAN_POINT ( 'NONE',  ( 0.000000000000000000, 0.000000000000000000, 0.000000000000000000 ) ) ;
#266 = ORIENTED_EDGE ( 'NONE', *, *, #235, .T. ) ;
#267 = APPLICATION_PROTOCOL_DEFINITION ( 'draft international standard', 'automotive_design', 1998, #15 ) ;
#268 = ORIENTED_EDGE ( 'NONE', *, *, #137, .F. ) ;
#269 = DIRECTION ( 'NONE',  ( 1.000000000000000000, 0.000000000000000000, 0.000000000000000000 ) ) ;
#270 = EDGE_CURVE ( 'NONE', #63, #287, #75, .T. ) ;
#271 = DIRECTION ( 'NONE',  ( 0.000000000000000000, 0.000000000000000000, 1.000000000000000000 ) ) ;
#272 = DIRECTION ( 'NONE',  ( -1.224646799147353207E-16, -0.000000000000000000, -1.000000000000000000 ) ) ;
#273 = DIRECTION ( 'NONE',  ( 1.000000000000000000, 0.000000000000000000, -0.000000000000000000 ) ) ;
#274 = CIRCLE ( 'NONE', #48, 0.07866125999999999674 ) ;
#275 = AXIS2_PLACEMENT_3D ( 'NONE', #58, #217, #224 ) ;
#276 = PLANE ( 'NONE',  #251 ) ;
#277 = CIRCLE ( 'NONE', #275, 0.1181100000000000066 ) ;
#278 = ADVANCED_FACE ( 'NONE', ( #230 ), #182, .T. ) ;
#279 = EDGE_LOOP ( 'NONE', ( #42, #128, #102, #105 ) ) ;
#280 = DIRECTION ( 'NONE',  ( 0.000000000000000000, 0.000000000000000000, 1.000000000000000000 ) ) ;
#281 = CARTESIAN_POINT ( 'NONE',  ( 0.07866125999999999674, 9.633226027589770864E-18, 0.000000000000000000 ) ) ;
#282 = EDGE_CURVE ( 'NONE', #287, #63, #49, .T. ) ;
#283 = CIRCLE ( 'NONE', #122, 0.1031100000000002570 ) ;
#284 = FILL_AREA_STYLE ('',( #192 ) ) ;
#285 = ORIENTED_EDGE ( 'NONE', *, *, #174, .F. ) ;
#286 =( NAMED_UNIT ( * ) SI_UNIT ( $, .STERADIAN. ) SOLID_ANGLE_UNIT ( ) );
#287 = VERTEX_POINT ( 'NONE', #250 ) ;
#288 = ORIENTED_EDGE ( 'NONE', *, *, #223, .T. ) ;
#289 = DIRECTION ( 'NONE',  ( 0.000000000000000000, 0.000000000000000000, 1.000000000000000000 ) ) ;
#290 = VECTOR ( 'NONE', #91, 39.37007874015748143 ) ;
#291 = EDGE_LOOP ( 'NONE', ( #165, #51, #83, #236 ) ) ;
#292 = DIRECTION ( 'NONE',  ( -1.000000000000000000, 0.000000000000000000, 0.000000000000000000 ) ) ;
#293 = PRODUCT_DEFINITION_CONTEXT ( 'detailed design', #95, 'design' ) ;
#294 = DIRECTION ( 'NONE',  ( 1.224646799147353207E-16, 0.000000000000000000, 1.000000000000000000 ) ) ;
#295 = FACE_OUTER_BOUND ( 'NONE', #201, .T. ) ;
#296 = PRODUCT_CONTEXT ( 'NONE', #15, 'mechanical' ) ;
#297 = ADVANCED_FACE ( 'NONE', ( #36 ), #29, .T. ) ;
#298 = DIRECTION ( 'NONE',  ( -1.000000000000000000, 0.000000000000000000, 1.224646799147352961E-16 ) ) ;
#299 = AXIS2_PLACEMENT_3D ( 'NONE', #180, #106, #292 ) ;
ENDSEC;
END-ISO-10303-21;
