ISO-10303-21;
HEADER;
FILE_DESCRIPTION (( 'STEP AP214' ),
    '1' );
FILE_NAME ('81839.STEP',
    '2023-07-12T13:07:18',
    ( '' ),
    ( '' ),
    'SwSTEP 2.0',
    'SolidWorks 2023',
    '' );
FILE_SCHEMA (( 'AUTOMOTIVE_DESIGN' ));
ENDSEC;

DATA;
#1 = SURFACE_SIDE_STYLE ('',( #188 ) ) ;
#2 = DIRECTION ( 'NONE',  ( -1.215081740594124820E-16, 1.000000000000000000, -0.000000000000000000 ) ) ;
#3 = VECTOR ( 'NONE', #286, 39.37007874015748854 ) ;
#4 = CARTESIAN_POINT ( 'NONE',  ( 4.586029679745276964E-16, 0.2099999999999991318, 0.000000000000000000 ) ) ;
#5 = CARTESIAN_POINT ( 'NONE',  ( 1.906971961660162066E-36, 2.761863111495688928E-19, 0.000000000000000000 ) ) ;
#6 = FILL_AREA_STYLE ('',( #58 ) ) ;
#7 = FACE_OUTER_BOUND ( 'NONE', #273, .T. ) ;
#8 = STYLED_ITEM ( 'NONE', ( #213 ), #43 ) ;
#9 =( NAMED_UNIT ( * ) SI_UNIT ( $, .STERADIAN. ) SOLID_ANGLE_UNIT ( ) );
#10 =( LENGTH_UNIT ( ) NAMED_UNIT ( * ) SI_UNIT ( $, .METRE. ) );
#11 = DIRECTION ( 'NONE',  ( -1.215081740594124820E-16, 1.000000000000000000, -0.000000000000000000 ) ) ;
#12 = FACE_OUTER_BOUND ( 'NONE', #300, .T. ) ;
#13 = PRESENTATION_LAYER_ASSIGNMENT (  '', '', ( #101 ) ) ;
#14 = CARTESIAN_POINT ( 'NONE',  ( 1.449978133535231054E-18, 0.2099999999999991873, 0.000000000000000000 ) ) ;
#15 = ORIENTED_EDGE ( 'NONE', *, *, #76, .T. ) ;
#16 = COLOUR_RGB ( '',1.000000000000000000, 0.000000000000000000, 0.000000000000000000 ) ;
#17 = ADVANCED_FACE ( 'NONE', ( #12 ), #178, .T. ) ;
#18 =( NAMED_UNIT ( * ) SI_UNIT ( $, .STERADIAN. ) SOLID_ANGLE_UNIT ( ) );
#19 = CLOSED_SHELL ( 'NONE', ( #43, #205, #228, #287 ) ) ;
#20 = AXIS2_PLACEMENT_3D ( 'NONE', #14, #38, #227 ) ;
#21 = SURFACE_STYLE_USAGE ( .BOTH. , #50 ) ;
#22 = DIRECTION ( 'NONE',  ( 6.904657778739221357E-18, 1.000000000000000000, 0.000000000000000000 ) ) ;
#23 = DIRECTION ( 'NONE',  ( 1.000000000000000000, -6.904657778739222128E-18, 0.000000000000000000 ) ) ;
#24 =( CONVERSION_BASED_UNIT ( 'INCH', #212 ) LENGTH_UNIT ( ) NAMED_UNIT ( #184 ) );
#25 = SURFACE_STYLE_USAGE ( .BOTH. , #52 ) ;
#26 = PRODUCT ( '81839', '81839', '', ( #70 ) ) ;
#27 =( LENGTH_UNIT ( ) NAMED_UNIT ( * ) SI_UNIT ( $, .METRE. ) );
#28 = DIMENSIONAL_EXPONENTS ( 1.000000000000000000, 0.000000000000000000, 0.000000000000000000, 0.000000000000000000, 0.000000000000000000, 0.000000000000000000, 0.000000000000000000 ) ;
#29 = CARTESIAN_POINT ( 'NONE',  ( -2.449293598294707400E-16, 6.000000000000000888, 0.000000000000000000 ) ) ;
#30 = DIRECTION ( 'NONE',  ( -6.904657778739222128E-18, -1.000000000000000000, -0.000000000000000000 ) ) ;
#31 =( GEOMETRIC_REPRESENTATION_CONTEXT ( 3 ) GLOBAL_UNCERTAINTY_ASSIGNED_CONTEXT ( ( #297 ) ) GLOBAL_UNIT_ASSIGNED_CONTEXT ( ( #86, #149, #9 ) ) REPRESENTATION_CONTEXT ( 'NONE', 'WORKASPACE' ) );
#32 = VERTEX_POINT ( 'NONE', #96 ) ;
#33 = CARTESIAN_POINT ( 'NONE',  ( 0.2499999999999996114, 6.000000000000000888, 3.061616997868381785E-17 ) ) ;
#34 = ORIENTED_EDGE ( 'NONE', *, *, #76, .F. ) ;
#35 = ORIENTED_EDGE ( 'NONE', *, *, #69, .F. ) ;
#36 = ORIENTED_EDGE ( 'NONE', *, *, #169, .T. ) ;
#37 = CIRCLE ( 'NONE', #209, 0.2499999999999994726 ) ;
#38 = DIRECTION ( 'NONE',  ( -6.904657778739222128E-18, -1.000000000000000000, -0.000000000000000000 ) ) ;
#39 =( NAMED_UNIT ( * ) SI_UNIT ( $, .STERADIAN. ) SOLID_ANGLE_UNIT ( ) );
#40 = FILL_AREA_STYLE_COLOUR ( '', #140 ) ;
#41 = PRESENTATION_LAYER_ASSIGNMENT (  '', '', ( #167 ) ) ;
#42 = DIRECTION ( 'NONE',  ( -1.000000000000000000, 0.000000000000000000, 0.000000000000000000 ) ) ;
#43 = ADVANCED_FACE ( 'NONE', ( #98 ), #299, .T. ) ;
#44 = DIRECTION ( 'NONE',  ( -1.000000000000000000, 6.904657778739222128E-18, 0.000000000000000000 ) ) ;
#45 = DIRECTION ( 'NONE',  ( -1.000000000000000000, 6.904657778739221357E-18, 0.000000000000000000 ) ) ;
#46 = AXIS2_PLACEMENT_3D ( 'NONE', #260, #141, #44 ) ;
#47 = AXIS2_PLACEMENT_3D ( 'NONE', #256, #65, #176 ) ;
#48 =( NAMED_UNIT ( * ) SI_UNIT ( $, .STERADIAN. ) SOLID_ANGLE_UNIT ( ) );
#49 = DIMENSIONAL_EXPONENTS ( 1.000000000000000000, 0.000000000000000000, 0.000000000000000000, 0.000000000000000000, 0.000000000000000000, 0.000000000000000000, 0.000000000000000000 ) ;
#50 = SURFACE_SIDE_STYLE ('',( #232 ) ) ;
#51 = DIMENSIONAL_EXPONENTS ( 1.000000000000000000, 0.000000000000000000, 0.000000000000000000, 0.000000000000000000, 0.000000000000000000, 0.000000000000000000, 0.000000000000000000 ) ;
#52 = SURFACE_SIDE_STYLE ('',( #111 ) ) ;
#53 = AXIS2_PLACEMENT_3D ( 'NONE', #95, #74, #23 ) ;
#54 = DIRECTION ( 'NONE',  ( 1.000000000000000000, -6.904657778739222128E-18, 0.000000000000000000 ) ) ;
#55 = EDGE_CURVE ( 'NONE', #222, #152, #72, .T. ) ;
#56 = DIRECTION ( 'NONE',  ( 1.000000000000000000, 1.215081740594124820E-16, 0.000000000000000000 ) ) ;
#57 = ORIENTED_EDGE ( 'NONE', *, *, #183, .F. ) ;
#58 = FILL_AREA_STYLE_COLOUR ( '', #16 ) ;
#59 = FILL_AREA_STYLE_COLOUR ( '', #182 ) ;
#60 = MECHANICAL_DESIGN_GEOMETRIC_PRESENTATION_REPRESENTATION (  '', ( #101 ), #117 ) ;
#61 = EDGE_LOOP ( 'NONE', ( #15, #275 ) ) ;
#62 = CARTESIAN_POINT ( 'NONE',  ( 0.000000000000000000, 0.000000000000000000, 0.000000000000000000 ) ) ;
#63 = APPLICATION_CONTEXT ( 'automotive_design' ) ;
#64 = UNCERTAINTY_MEASURE_WITH_UNIT (LENGTH_MEASURE( 1.000000000000000082E-05 ), #292, 'distance_accuracy_value', 'NONE');
#65 = DIRECTION ( 'NONE',  ( -6.904657778739221357E-18, -1.000000000000000000, 0.000000000000000000 ) ) ;
#66 = ORIENTED_EDGE ( 'NONE', *, *, #183, .T. ) ;
#67 = LENGTH_MEASURE_WITH_UNIT ( LENGTH_MEASURE( 0.02539999999999999897 ), #257 );
#68 =( CONVERSION_BASED_UNIT ( 'INCH', #200 ) LENGTH_UNIT ( ) NAMED_UNIT ( #261 ) );
#69 = EDGE_CURVE ( 'NONE', #152, #277, #207, .T. ) ;
#70 = PRODUCT_CONTEXT ( 'NONE', #63, 'mechanical' ) ;
#71 = DIRECTION ( 'NONE',  ( -1.000000000000000000, 0.000000000000000000, 0.000000000000000000 ) ) ;
#72 = CIRCLE ( 'NONE', #53, 0.04000000000000000083 ) ;
#73 = FILL_AREA_STYLE ('',( #161 ) ) ;
#74 = DIRECTION ( 'NONE',  ( -6.904657778739222128E-18, -1.000000000000000000, -0.000000000000000000 ) ) ;
#75 = AXIS2_PLACEMENT_3D ( 'NONE', #4, #112, #219 ) ;
#76 = EDGE_CURVE ( 'NONE', #32, #253, #240, .T. ) ;
#77 = SURFACE_STYLE_USAGE ( .BOTH. , #288 ) ;
#78 = CARTESIAN_POINT ( 'NONE',  ( -0.04000000000000000083, 5.523726222991377856E-19, 0.000000000000000000 ) ) ;
#79 = ADVANCED_FACE ( 'NONE', ( #105 ), #248, .F. ) ;
#80 = FACE_OUTER_BOUND ( 'NONE', #204, .T. ) ;
#81 = CIRCLE ( 'NONE', #291, 0.2500000000000002220 ) ;
#82 =( GEOMETRIC_REPRESENTATION_CONTEXT ( 3 ) GLOBAL_UNCERTAINTY_ASSIGNED_CONTEXT ( ( #64 ) ) GLOBAL_UNIT_ASSIGNED_CONTEXT ( ( #292, #289, #147 ) ) REPRESENTATION_CONTEXT ( 'NONE', 'WORKASPACE' ) );
#83 = CARTESIAN_POINT ( 'NONE',  ( -0.2499999999999999167, 0.2099999999999991873, 0.000000000000000000 ) ) ;
#84 = SURFACE_STYLE_FILL_AREA ( #293 ) ;
#85 = ORIENTED_EDGE ( 'NONE', *, *, #301, .T. ) ;
#86 =( CONVERSION_BASED_UNIT ( 'INCH', #164 ) LENGTH_UNIT ( ) NAMED_UNIT ( #242 ) );
#87 = ORIENTED_EDGE ( 'NONE', *, *, #282, .T. ) ;
#88 = DIRECTION ( 'NONE',  ( -1.000000000000000000, 0.000000000000000000, 0.000000000000000000 ) ) ;
#89 = ORIENTED_EDGE ( 'NONE', *, *, #282, .F. ) ;
#90 = ORIENTED_EDGE ( 'NONE', *, *, #255, .T. ) ;
#91 = AXIS2_PLACEMENT_3D ( 'NONE', #29, #166, #88 ) ;
#92 = PRODUCT_DEFINITION_FORMATION_WITH_SPECIFIED_SOURCE ( 'ANY', '', #26, .NOT_KNOWN. ) ;
#93 = ADVANCED_FACE ( 'NONE', ( #80 ), #244, .T. ) ;
#94 =( CONVERSION_BASED_UNIT ( 'INCH', #139 ) LENGTH_UNIT ( ) NAMED_UNIT ( #280 ) );
#95 = CARTESIAN_POINT ( 'NONE',  ( 1.906971961660162066E-36, 2.761863111495688928E-19, 0.000000000000000000 ) ) ;
#96 = CARTESIAN_POINT ( 'NONE',  ( -0.2500000000000004441, 6.000000000000000888, 0.000000000000000000 ) ) ;
#97 =( LENGTH_UNIT ( ) NAMED_UNIT ( * ) SI_UNIT ( $, .METRE. ) );
#98 = FACE_OUTER_BOUND ( 'NONE', #271, .T. ) ;
#99 = CARTESIAN_POINT ( 'NONE',  ( 0.2499999999999998890, 0.2099999999999991596, 3.061616997868383018E-17 ) ) ;
#100 = DIRECTION ( 'NONE',  ( -1.000000000000000000, -1.365923996832134567E-16, 0.000000000000000000 ) ) ;
#101 = STYLED_ITEM ( 'NONE', ( #119 ), #228 ) ;
#102 = AXIS2_PLACEMENT_3D ( 'NONE', #62, #203, #250 ) ;
#103 =( LENGTH_UNIT ( ) NAMED_UNIT ( * ) SI_UNIT ( $, .METRE. ) );
#104 = PRODUCT_DEFINITION_SHAPE ( 'NONE', 'NONE',  #118 ) ;
#105 = FACE_OUTER_BOUND ( 'NONE', #61, .T. ) ;
#106 = SURFACE_SIDE_STYLE ('',( #243 ) ) ;
#107 =( NAMED_UNIT ( * ) SI_UNIT ( $, .STERADIAN. ) SOLID_ANGLE_UNIT ( ) );
#108 = PLANE ( 'NONE',  #247 ) ;
#109 = AXIS2_PLACEMENT_3D ( 'NONE', #132, #278, #42 ) ;
#110 = UNCERTAINTY_MEASURE_WITH_UNIT (LENGTH_MEASURE( 1.000000000000000082E-05 ), #155, 'distance_accuracy_value', 'NONE');
#111 = SURFACE_STYLE_FILL_AREA ( #125 ) ;
#112 = DIRECTION ( 'NONE',  ( -1.215081740594124820E-16, 1.000000000000000000, -0.000000000000000000 ) ) ;
#113 = ORIENTED_EDGE ( 'NONE', *, *, #195, .F. ) ;
#114 = VECTOR ( 'NONE', #196, 39.37007874015748143 ) ;
#115 = AXIS2_PLACEMENT_3D ( 'NONE', #160, #272, #216 ) ;
#116 = PLANE ( 'NONE',  #151 ) ;
#117 =( GEOMETRIC_REPRESENTATION_CONTEXT ( 3 ) GLOBAL_UNCERTAINTY_ASSIGNED_CONTEXT ( ( #251 ) ) GLOBAL_UNIT_ASSIGNED_CONTEXT ( ( #94, #210, #185 ) ) REPRESENTATION_CONTEXT ( 'NONE', 'WORKASPACE' ) );
#118 = PRODUCT_DEFINITION ( 'UNKNOWN', '', #92, #133 ) ;
#119 = PRESENTATION_STYLE_ASSIGNMENT (( #21 ) ) ;
#120 = CARTESIAN_POINT ( 'NONE',  ( -0.2500000000000001110, 6.000000000000000888, 0.000000000000000000 ) ) ;
#121 = AXIS2_PLACEMENT_3D ( 'NONE', #229, #211, #186 ) ;
#122 = CARTESIAN_POINT ( 'NONE',  ( -2.449293598294707400E-16, 6.000000000000000888, 0.000000000000000000 ) ) ;
#123 = LENGTH_MEASURE_WITH_UNIT ( LENGTH_MEASURE( 0.02539999999999999897 ), #197 );
#124 = PRESENTATION_STYLE_ASSIGNMENT (( #77 ) ) ;
#125 = FILL_AREA_STYLE ('',( #59 ) ) ;
#126 =( GEOMETRIC_REPRESENTATION_CONTEXT ( 3 ) GLOBAL_UNCERTAINTY_ASSIGNED_CONTEXT ( ( #177 ) ) GLOBAL_UNIT_ASSIGNED_CONTEXT ( ( #68, #281, #18 ) ) REPRESENTATION_CONTEXT ( 'NONE', 'WORKASPACE' ) );
#127 = PRESENTATION_LAYER_ASSIGNMENT (  '', '', ( #180 ) ) ;
#128 = ORIENTED_EDGE ( 'NONE', *, *, #195, .T. ) ;
#129 = FACE_OUTER_BOUND ( 'NONE', #136, .T. ) ;
#130 = EDGE_CURVE ( 'NONE', #249, #223, #142, .T. ) ;
#131 = CARTESIAN_POINT ( 'NONE',  ( 0.2499999999999999722, 6.000000000000000888, 0.000000000000000000 ) ) ;
#132 = CARTESIAN_POINT ( 'NONE',  ( -2.449293598294707400E-16, 6.000000000000000888, 0.000000000000000000 ) ) ;
#133 = PRODUCT_DEFINITION_CONTEXT ( 'detailed design', #245, 'design' ) ;
#134 = EDGE_LOOP ( 'NONE', ( #170, #171 ) ) ;
#135 = APPLICATION_PROTOCOL_DEFINITION ( 'draft international standard', 'automotive_design', 1998, #245 ) ;
#136 = EDGE_LOOP ( 'NONE', ( #36, #252 ) ) ;
#137 = CARTESIAN_POINT ( 'NONE',  ( 1.449978133535231054E-18, 0.2099999999999991873, 0.000000000000000000 ) ) ;
#138 = FILL_AREA_STYLE_COLOUR ( '', #162 ) ;
#139 = LENGTH_MEASURE_WITH_UNIT ( LENGTH_MEASURE( 0.02539999999999999897 ), #97 );
#140 = COLOUR_RGB ( '',1.000000000000000000, 0.000000000000000000, 0.000000000000000000 ) ;
#141 = DIRECTION ( 'NONE',  ( 6.904657778739222128E-18, 1.000000000000000000, 0.000000000000000000 ) ) ;
#142 = CIRCLE ( 'NONE', #75, 0.2499999999999994726 ) ;
#143 = SURFACE_STYLE_USAGE ( .BOTH. , #106 ) ;
#144 = AXIS2_PLACEMENT_3D ( 'NONE', #5, #30, #54 ) ;
#145 = MECHANICAL_DESIGN_GEOMETRIC_PRESENTATION_REPRESENTATION (  '', ( #180 ), #82 ) ;
#146 = LINE ( 'NONE', #120, #114 ) ;
#147 =( NAMED_UNIT ( * ) SI_UNIT ( $, .STERADIAN. ) SOLID_ANGLE_UNIT ( ) );
#148 = DIRECTION ( 'NONE',  ( 0.7071067811865486830, 0.7071067811865462405, 8.659560562354947649E-17 ) ) ;
#149 =( NAMED_UNIT ( * ) PLANE_ANGLE_UNIT ( ) SI_UNIT ( $, .RADIAN. ) );
#150 = DIRECTION ( 'NONE',  ( -1.215081740594124820E-16, 1.000000000000000000, -0.000000000000000000 ) ) ;
#151 = AXIS2_PLACEMENT_3D ( 'NONE', #309, #306, #187 ) ;
#152 = VERTEX_POINT ( 'NONE', #78 ) ;
#153 =( NAMED_UNIT ( * ) PLANE_ANGLE_UNIT ( ) SI_UNIT ( $, .RADIAN. ) );
#154 = ORIENTED_EDGE ( 'NONE', *, *, #130, .T. ) ;
#155 =( CONVERSION_BASED_UNIT ( 'INCH', #67 ) LENGTH_UNIT ( ) NAMED_UNIT ( #51 ) );
#156 = MANIFOLD_SOLID_BREP ( 'Revolve - Tool Body (Tipped Off)', #290 ) ;
#157 = VERTEX_POINT ( 'NONE', #165 ) ;
#158 = MECHANICAL_DESIGN_GEOMETRIC_PRESENTATION_REPRESENTATION (  '', ( #284 ), #31 ) ;
#159 = VECTOR ( 'NONE', #148, 39.37007874015748854 ) ;
#160 = CARTESIAN_POINT ( 'NONE',  ( 1.449978133535231054E-18, 0.2099999999999991873, 0.000000000000000000 ) ) ;
#161 = FILL_AREA_STYLE_COLOUR ( '', #254 ) ;
#162 = COLOUR_RGB ( '',0.7921568627450980005, 0.8196078431372548767, 0.9333333333333333481 ) ;
#163 = CARTESIAN_POINT ( 'NONE',  ( 0.2499999999999999722, 6.000000000000000888, 3.061616997868383634E-17 ) ) ;
#164 = LENGTH_MEASURE_WITH_UNIT ( LENGTH_MEASURE( 0.02539999999999999897 ), #27 );
#165 = CARTESIAN_POINT ( 'NONE',  ( 0.2499999999999999167, 0.2099999999999991873, 3.061616997868382402E-17 ) ) ;
#166 = DIRECTION ( 'NONE',  ( -1.215081740594124820E-16, 1.000000000000000000, -0.000000000000000000 ) ) ;
#167 = STYLED_ITEM ( 'NONE', ( #192 ), #156 ) ;
#168 = SURFACE_SIDE_STYLE ('',( #84 ) ) ;
#169 = EDGE_CURVE ( 'NONE', #152, #222, #231, .T. ) ;
#170 = ORIENTED_EDGE ( 'NONE', *, *, #130, .F. ) ;
#171 = ORIENTED_EDGE ( 'NONE', *, *, #255, .F. ) ;
#172 = AXIS2_PLACEMENT_3D ( 'NONE', #131, #215, #56 ) ;
#173 = UNCERTAINTY_MEASURE_WITH_UNIT (LENGTH_MEASURE( 1.000000000000000082E-05 ), #24, 'distance_accuracy_value', 'NONE');
#174 = PRODUCT_RELATED_PRODUCT_CATEGORY ( 'part', '', ( #26 ) ) ;
#175 = EDGE_LOOP ( 'NONE', ( #198, #226, #298, #87 ) ) ;
#176 = DIRECTION ( 'NONE',  ( 1.000000000000000000, -6.904657778739221357E-18, 0.000000000000000000 ) ) ;
#177 = UNCERTAINTY_MEASURE_WITH_UNIT (LENGTH_MEASURE( 1.000000000000000082E-05 ), #68, 'distance_accuracy_value', 'NONE');
#178 = CYLINDRICAL_SURFACE ( 'NONE', #109, 0.2499999999999998612 ) ;
#179 = MECHANICAL_DESIGN_GEOMETRIC_PRESENTATION_REPRESENTATION (  '', ( #8 ), #214 ) ;
#180 = STYLED_ITEM ( 'NONE', ( #124 ), #287 ) ;
#181 = EDGE_CURVE ( 'NONE', #222, #157, #194, .T. ) ;
#182 = COLOUR_RGB ( '',0.7921568627450980005, 0.8196078431372548767, 0.9333333333333333481 ) ;
#183 = EDGE_CURVE ( 'NONE', #249, #32, #146, .T. ) ;
#184 = DIMENSIONAL_EXPONENTS ( 1.000000000000000000, 0.000000000000000000, 0.000000000000000000, 0.000000000000000000, 0.000000000000000000, 0.000000000000000000, 0.000000000000000000 ) ;
#185 =( NAMED_UNIT ( * ) SI_UNIT ( $, .STERADIAN. ) SOLID_ANGLE_UNIT ( ) );
#186 = DIRECTION ( 'NONE',  ( -1.000000000000000000, 6.904657778739222128E-18, 0.000000000000000000 ) ) ;
#187 = DIRECTION ( 'NONE',  ( -1.000000000000000000, -1.215081740594124820E-16, 0.000000000000000000 ) ) ;
#188 = SURFACE_STYLE_FILL_AREA ( #266 ) ;
#189 = COLOUR_RGB ( '',1.000000000000000000, 0.000000000000000000, 0.000000000000000000 ) ;
#190 = CARTESIAN_POINT ( 'NONE',  ( -2.449293598294707400E-16, 6.000000000000000888, 0.000000000000000000 ) ) ;
#191 = PLANE ( 'NONE',  #47 ) ;
#192 = PRESENTATION_STYLE_ASSIGNMENT (( #25 ) ) ;
#193 = LENGTH_MEASURE_WITH_UNIT ( LENGTH_MEASURE( 0.02539999999999999897 ), #10 );
#194 = LINE ( 'NONE', #241, #159 ) ;
#195 = EDGE_CURVE ( 'NONE', #223, #253, #218, .T. ) ;
#196 = DIRECTION ( 'NONE',  ( -1.215081740594124820E-16, 1.000000000000000000, -0.000000000000000000 ) ) ;
#197 =( LENGTH_UNIT ( ) NAMED_UNIT ( * ) SI_UNIT ( $, .METRE. ) );
#198 = ORIENTED_EDGE ( 'NONE', *, *, #181, .F. ) ;
#199 = DIRECTION ( 'NONE',  ( -1.000000000000000000, 0.000000000000000000, 0.000000000000000000 ) ) ;
#200 = LENGTH_MEASURE_WITH_UNIT ( LENGTH_MEASURE( 0.02539999999999999897 ), #268 );
#201 =( GEOMETRIC_REPRESENTATION_CONTEXT ( 3 ) GLOBAL_UNCERTAINTY_ASSIGNED_CONTEXT ( ( #276 ) ) GLOBAL_UNIT_ASSIGNED_CONTEXT ( ( #217, #294, #107 ) ) REPRESENTATION_CONTEXT ( 'NONE', 'WORKASPACE' ) );
#202 = ORIENTED_EDGE ( 'NONE', *, *, #55, .F. ) ;
#203 = DIRECTION ( 'NONE',  ( 0.000000000000000000, 0.000000000000000000, 1.000000000000000000 ) ) ;
#204 = EDGE_LOOP ( 'NONE', ( #154, #128, #34, #57 ) ) ;
#205 = ADVANCED_FACE ( 'NONE', ( #7 ), #108, .T. ) ;
#206 = CIRCLE ( 'NONE', #115, 0.2499999999999999722 ) ;
#207 = LINE ( 'NONE', #235, #3 ) ;
#208 = FACE_OUTER_BOUND ( 'NONE', #175, .T. ) ;
#209 = AXIS2_PLACEMENT_3D ( 'NONE', #265, #2, #100 ) ;
#210 =( NAMED_UNIT ( * ) PLANE_ANGLE_UNIT ( ) SI_UNIT ( $, .RADIAN. ) );
#211 = DIRECTION ( 'NONE',  ( 6.904657778739222128E-18, 1.000000000000000000, 0.000000000000000000 ) ) ;
#212 = LENGTH_MEASURE_WITH_UNIT ( LENGTH_MEASURE( 0.02539999999999999897 ), #103 );
#213 = PRESENTATION_STYLE_ASSIGNMENT (( #264 ) ) ;
#214 =( GEOMETRIC_REPRESENTATION_CONTEXT ( 3 ) GLOBAL_UNCERTAINTY_ASSIGNED_CONTEXT ( ( #173 ) ) GLOBAL_UNIT_ASSIGNED_CONTEXT ( ( #24, #285, #48 ) ) REPRESENTATION_CONTEXT ( 'NONE', 'WORKASPACE' ) );
#215 = DIRECTION ( 'NONE',  ( 1.215081740594124820E-16, -1.000000000000000000, 0.000000000000000000 ) ) ;
#216 = DIRECTION ( 'NONE',  ( 1.000000000000000000, 0.000000000000000000, 0.000000000000000000 ) ) ;
#217 =( CONVERSION_BASED_UNIT ( 'INCH', #123 ) LENGTH_UNIT ( ) NAMED_UNIT ( #49 ) );
#218 = LINE ( 'NONE', #33, #237 ) ;
#219 = DIRECTION ( 'NONE',  ( -1.000000000000000000, -1.365923996832134567E-16, 0.000000000000000000 ) ) ;
#220 = PRESENTATION_LAYER_ASSIGNMENT (  '', '', ( #284 ) ) ;
#221 = CIRCLE ( 'NONE', #20, 0.2499999999999999722 ) ;
#222 = VERTEX_POINT ( 'NONE', #238 ) ;
#223 = VERTEX_POINT ( 'NONE', #99 ) ;
#224 = ORIENTED_EDGE ( 'NONE', *, *, #262, .F. ) ;
#225 = AXIS2_PLACEMENT_3D ( 'NONE', #122, #150, #199 ) ;
#226 = ORIENTED_EDGE ( 'NONE', *, *, #169, .F. ) ;
#227 = DIRECTION ( 'NONE',  ( 1.000000000000000000, 0.000000000000000000, 0.000000000000000000 ) ) ;
#228 = ADVANCED_FACE ( 'NONE', ( #208 ), #304, .T. ) ;
#229 = CARTESIAN_POINT ( 'NONE',  ( 1.906971961660162066E-36, 2.761863111495688928E-19, 0.000000000000000000 ) ) ;
#230 = SHAPE_DEFINITION_REPRESENTATION ( #104, #305 ) ;
#231 = CIRCLE ( 'NONE', #144, 0.04000000000000000083 ) ;
#232 = SURFACE_STYLE_FILL_AREA ( #73 ) ;
#233 = ADVANCED_FACE ( 'NONE', ( #308 ), #116, .F. ) ;
#234 = FILL_AREA_STYLE ('',( #138 ) ) ;
#235 = CARTESIAN_POINT ( 'NONE',  ( -0.04000000000000000083, 5.523726222991377856E-19, 0.000000000000000000 ) ) ;
#236 = PRESENTATION_LAYER_ASSIGNMENT (  '', '', ( #8 ) ) ;
#237 = VECTOR ( 'NONE', #11, 39.37007874015748143 ) ;
#238 = CARTESIAN_POINT ( 'NONE',  ( 0.04000000000000000083, 0.000000000000000000, 1.775737858763662224E-17 ) ) ;
#239 = PRESENTATION_STYLE_ASSIGNMENT (( #143 ) ) ;
#240 = CIRCLE ( 'NONE', #225, 0.2500000000000002220 ) ;
#241 = CARTESIAN_POINT ( 'NONE',  ( 0.04000000000000000083, 0.000000000000000000, 4.898587196589413537E-18 ) ) ;
#242 = DIMENSIONAL_EXPONENTS ( 1.000000000000000000, 0.000000000000000000, 0.000000000000000000, 0.000000000000000000, 0.000000000000000000, 0.000000000000000000, 0.000000000000000000 ) ;
#243 = SURFACE_STYLE_FILL_AREA ( #234 ) ;
#244 = CYLINDRICAL_SURFACE ( 'NONE', #91, 0.2499999999999998612 ) ;
#245 = APPLICATION_CONTEXT ( 'automotive_design' ) ;
#246 = SURFACE_STYLE_FILL_AREA ( #6 ) ;
#247 = AXIS2_PLACEMENT_3D ( 'NONE', #137, #22, #45 ) ;
#248 = PLANE ( 'NONE',  #172 ) ;
#249 = VERTEX_POINT ( 'NONE', #283 ) ;
#250 = DIRECTION ( 'NONE',  ( 1.000000000000000000, 0.000000000000000000, 0.000000000000000000 ) ) ;
#251 = UNCERTAINTY_MEASURE_WITH_UNIT (LENGTH_MEASURE( 1.000000000000000082E-05 ), #94, 'distance_accuracy_value', 'NONE');
#252 = ORIENTED_EDGE ( 'NONE', *, *, #55, .T. ) ;
#253 = VERTEX_POINT ( 'NONE', #163 ) ;
#254 = COLOUR_RGB ( '',1.000000000000000000, 0.000000000000000000, 0.000000000000000000 ) ;
#255 = EDGE_CURVE ( 'NONE', #223, #249, #37, .T. ) ;
#256 = CARTESIAN_POINT ( 'NONE',  ( 9.534859808300810328E-37, 1.380931555747844464E-19, 0.000000000000000000 ) ) ;
#257 =( LENGTH_UNIT ( ) NAMED_UNIT ( * ) SI_UNIT ( $, .METRE. ) );
#258 = MECHANICAL_DESIGN_GEOMETRIC_PRESENTATION_REPRESENTATION (  '', ( #269 ), #126 ) ;
#259 = DIRECTION ( 'NONE',  ( -1.215081740594124820E-16, 1.000000000000000000, -0.000000000000000000 ) ) ;
#260 = CARTESIAN_POINT ( 'NONE',  ( 1.906971961660162066E-36, 2.761863111495688928E-19, 0.000000000000000000 ) ) ;
#261 = DIMENSIONAL_EXPONENTS ( 1.000000000000000000, 0.000000000000000000, 0.000000000000000000, 0.000000000000000000, 0.000000000000000000, 0.000000000000000000, 0.000000000000000000 ) ;
#262 = EDGE_CURVE ( 'NONE', #253, #32, #81, .T. ) ;
#263 = MECHANICAL_DESIGN_GEOMETRIC_PRESENTATION_REPRESENTATION (  '', ( #167 ), #201 ) ;
#264 = SURFACE_STYLE_USAGE ( .BOTH. , #1 ) ;
#265 = CARTESIAN_POINT ( 'NONE',  ( 4.586029679745276964E-16, 0.2099999999999991318, 0.000000000000000000 ) ) ;
#266 = FILL_AREA_STYLE ('',( #40 ) ) ;
#267 = MANIFOLD_SOLID_BREP ( 'Revolve - Cutting Edge', #19 ) ;
#268 =( LENGTH_UNIT ( ) NAMED_UNIT ( * ) SI_UNIT ( $, .METRE. ) );
#269 = STYLED_ITEM ( 'NONE', ( #274 ), #205 ) ;
#270 = SURFACE_STYLE_USAGE ( .BOTH. , #168 ) ;
#271 = EDGE_LOOP ( 'NONE', ( #202, #302, #85, #35 ) ) ;
#272 = DIRECTION ( 'NONE',  ( -6.904657778739222128E-18, -1.000000000000000000, -0.000000000000000000 ) ) ;
#273 = EDGE_LOOP ( 'NONE', ( #89, #295 ) ) ;
#274 = PRESENTATION_STYLE_ASSIGNMENT (( #270 ) ) ;
#275 = ORIENTED_EDGE ( 'NONE', *, *, #262, .T. ) ;
#276 = UNCERTAINTY_MEASURE_WITH_UNIT (LENGTH_MEASURE( 1.000000000000000082E-05 ), #217, 'distance_accuracy_value', 'NONE');
#277 = VERTEX_POINT ( 'NONE', #83 ) ;
#278 = DIRECTION ( 'NONE',  ( -1.215081740594124820E-16, 1.000000000000000000, -0.000000000000000000 ) ) ;
#279 = PRESENTATION_LAYER_ASSIGNMENT (  '', '', ( #269 ) ) ;
#280 = DIMENSIONAL_EXPONENTS ( 1.000000000000000000, 0.000000000000000000, 0.000000000000000000, 0.000000000000000000, 0.000000000000000000, 0.000000000000000000, 0.000000000000000000 ) ;
#281 =( NAMED_UNIT ( * ) PLANE_ANGLE_UNIT ( ) SI_UNIT ( $, .RADIAN. ) );
#282 = EDGE_CURVE ( 'NONE', #277, #157, #206, .T. ) ;
#283 = CARTESIAN_POINT ( 'NONE',  ( -0.2499999999999990286, 0.2099999999999991041, 0.000000000000000000 ) ) ;
#284 = STYLED_ITEM ( 'NONE', ( #239 ), #267 ) ;
#285 =( NAMED_UNIT ( * ) PLANE_ANGLE_UNIT ( ) SI_UNIT ( $, .RADIAN. ) );
#286 = DIRECTION ( 'NONE',  ( -0.7071067811865486830, 0.7071067811865462405, 0.000000000000000000 ) ) ;
#287 = ADVANCED_FACE ( 'NONE', ( #129 ), #191, .T. ) ;
#288 = SURFACE_SIDE_STYLE ('',( #246 ) ) ;
#289 =( NAMED_UNIT ( * ) PLANE_ANGLE_UNIT ( ) SI_UNIT ( $, .RADIAN. ) );
#290 = CLOSED_SHELL ( 'NONE', ( #93, #233, #17, #79 ) ) ;
#291 = AXIS2_PLACEMENT_3D ( 'NONE', #190, #259, #71 ) ;
#292 =( CONVERSION_BASED_UNIT ( 'INCH', #193 ) LENGTH_UNIT ( ) NAMED_UNIT ( #28 ) );
#293 = FILL_AREA_STYLE ('',( #296 ) ) ;
#294 =( NAMED_UNIT ( * ) PLANE_ANGLE_UNIT ( ) SI_UNIT ( $, .RADIAN. ) );
#295 = ORIENTED_EDGE ( 'NONE', *, *, #301, .F. ) ;
#296 = FILL_AREA_STYLE_COLOUR ( '', #189 ) ;
#297 = UNCERTAINTY_MEASURE_WITH_UNIT (LENGTH_MEASURE( 1.000000000000000082E-05 ), #86, 'distance_accuracy_value', 'NONE');
#298 = ORIENTED_EDGE ( 'NONE', *, *, #69, .T. ) ;
#299 = CONICAL_SURFACE ( 'NONE', #121, 0.04000000000000000083, 0.7853981633974500554 ) ;
#300 = EDGE_LOOP ( 'NONE', ( #113, #90, #66, #224 ) ) ;
#301 = EDGE_CURVE ( 'NONE', #157, #277, #221, .T. ) ;
#302 = ORIENTED_EDGE ( 'NONE', *, *, #181, .T. ) ;
#303 = APPLICATION_PROTOCOL_DEFINITION ( 'draft international standard', 'automotive_design', 1998, #63 ) ;
#304 = CONICAL_SURFACE ( 'NONE', #46, 0.04000000000000000083, 0.7853981633974500554 ) ;
#305 = ADVANCED_BREP_SHAPE_REPRESENTATION ( '81839', ( #267, #156, #102 ), #307 ) ;
#306 = DIRECTION ( 'NONE',  ( -1.215081740594124820E-16, 1.000000000000000000, 0.000000000000000000 ) ) ;
#307 =( GEOMETRIC_REPRESENTATION_CONTEXT ( 3 ) GLOBAL_UNCERTAINTY_ASSIGNED_CONTEXT ( ( #110 ) ) GLOBAL_UNIT_ASSIGNED_CONTEXT ( ( #155, #153, #39 ) ) REPRESENTATION_CONTEXT ( 'NONE', 'WORKASPACE' ) );
#308 = FACE_OUTER_BOUND ( 'NONE', #134, .T. ) ;
#309 = CARTESIAN_POINT ( 'NONE',  ( 4.586029679745276964E-16, 0.2099999999999991873, 0.000000000000000000 ) ) ;
ENDSEC;
END-ISO-10303-21;
