ISO-10303-21;
HEADER;
FILE_DESCRIPTION (( 'STEP AP214' ),
    '1' );
FILE_NAME ('59260.STEP',
    '2023-06-22T22:23:21',
    ( '' ),
    ( '' ),
    'SwSTEP 2.0',
    'SolidWorks 2023',
    '' );
FILE_SCHEMA (( 'AUTOMOTIVE_DESIGN' ));
ENDSEC;

DATA;
#1 = CIRCLE ( 'NONE', #144, 0.1875000000000000555 ) ;
#2 = CARTESIAN_POINT ( 'NONE',  ( 0.000000000000000000, 0.000000000000000000, 0.000000000000000000 ) ) ;
#3 = SURFACE_SIDE_STYLE ('',( #121 ) ) ;
#4 = ADVANCED_FACE ( 'NONE', ( #12 ), #105, .F. ) ;
#5 = FILL_AREA_STYLE_COLOUR ( '', #292 ) ;
#6 = STYLED_ITEM ( 'NONE', ( #96 ), #57 ) ;
#7 = DIRECTION ( 'NONE',  ( 0.000000000000000000, 0.000000000000000000, -1.000000000000000000 ) ) ;
#8 = ADVANCED_FACE ( 'NONE', ( #78 ), #132, .F. ) ;
#9 = FACE_OUTER_BOUND ( 'NONE', #110, .T. ) ;
#10 = COLOUR_RGB ( '',1.000000000000000000, 0.000000000000000000, 0.000000000000000000 ) ;
#11 = DIRECTION ( 'NONE',  ( -6.997981709413449187E-17, 1.000000000000000000, -0.000000000000000000 ) ) ;
#12 = FACE_OUTER_BOUND ( 'NONE', #52, .T. ) ;
#13 = LINE ( 'NONE', #34, #19 ) ;
#14 = ORIENTED_EDGE ( 'NONE', *, *, #291, .F. ) ;
#15 = PRESENTATION_LAYER_ASSIGNMENT (  '', '', ( #194 ) ) ;
#16 = FACE_OUTER_BOUND ( 'NONE', #164, .T. ) ;
#17 = PLANE ( 'NONE',  #47 ) ;
#18 = ORIENTED_EDGE ( 'NONE', *, *, #26, .F. ) ;
#19 = VECTOR ( 'NONE', #233, 39.37007874015748143 ) ;
#20 = DIRECTION ( 'NONE',  ( -0.000000000000000000, -1.000000000000000000, -0.000000000000000000 ) ) ;
#21 = SURFACE_SIDE_STYLE ('',( #170 ) ) ;
#22 = CARTESIAN_POINT ( 'NONE',  ( -1.224646799147353700E-16, 3.000000000000000444, 0.000000000000000000 ) ) ;
#23 =( NAMED_UNIT ( * ) PLANE_ANGLE_UNIT ( ) SI_UNIT ( $, .RADIAN. ) );
#24 = PRODUCT_DEFINITION_FORMATION_WITH_SPECIFIED_SOURCE ( 'ANY', '', #183, .NOT_KNOWN. ) ;
#25 = FACE_OUTER_BOUND ( 'NONE', #113, .T. ) ;
#26 = EDGE_CURVE ( 'NONE', #75, #33, #139, .T. ) ;
#27 = DIRECTION ( 'NONE',  ( 0.000000000000000000, 0.000000000000000000, -1.000000000000000000 ) ) ;
#28 =( CONVERSION_BASED_UNIT ( 'INCH', #272 ) LENGTH_UNIT ( ) NAMED_UNIT ( #294 ) );
#29 = FILL_AREA_STYLE_COLOUR ( '', #10 ) ;
#30 = ADVANCED_BREP_SHAPE_REPRESENTATION ( '59260', ( #57, #177, #181 ), #79 ) ;
#31 = CARTESIAN_POINT ( 'NONE',  ( 0.000000000000000000, 1.250000000000000000, 0.000000000000000000 ) ) ;
#32 = ADVANCED_FACE ( 'NONE', ( #16 ), #17, .T. ) ;
#33 = VERTEX_POINT ( 'NONE', #141 ) ;
#34 = CARTESIAN_POINT ( 'NONE',  ( 2.296212748401288034E-17, 0.000000000000000000, 0.1875000000000000555 ) ) ;
#35 = DIRECTION ( 'NONE',  ( 0.000000000000000000, 0.000000000000000000, -1.000000000000000000 ) ) ;
#36 =( NAMED_UNIT ( * ) PLANE_ANGLE_UNIT ( ) SI_UNIT ( $, .RADIAN. ) );
#37 = ORIENTED_EDGE ( 'NONE', *, *, #165, .F. ) ;
#38 = CLOSED_SHELL ( 'NONE', ( #171, #8, #55, #4 ) ) ;
#39 =( GEOMETRIC_REPRESENTATION_CONTEXT ( 3 ) GLOBAL_UNCERTAINTY_ASSIGNED_CONTEXT ( ( #178 ) ) GLOBAL_UNIT_ASSIGNED_CONTEXT ( ( #82, #155, #163 ) ) REPRESENTATION_CONTEXT ( 'NONE', 'WORKASPACE' ) );
#40 = LENGTH_MEASURE_WITH_UNIT ( LENGTH_MEASURE( 0.02539999999999999897 ), #48 );
#41 = ORIENTED_EDGE ( 'NONE', *, *, #215, .T. ) ;
#42 = DIRECTION ( 'NONE',  ( 0.000000000000000000, 0.000000000000000000, -1.000000000000000000 ) ) ;
#43 = VERTEX_POINT ( 'NONE', #243 ) ;
#44 = PRODUCT_CONTEXT ( 'NONE', #296, 'mechanical' ) ;
#45 = DIMENSIONAL_EXPONENTS ( 1.000000000000000000, 0.000000000000000000, 0.000000000000000000, 0.000000000000000000, 0.000000000000000000, 0.000000000000000000, 0.000000000000000000 ) ;
#46 = DIRECTION ( 'NONE',  ( -1.000000000000000000, 0.000000000000000000, 0.000000000000000000 ) ) ;
#47 = AXIS2_PLACEMENT_3D ( 'NONE', #242, #268, #210 ) ;
#48 =( LENGTH_UNIT ( ) NAMED_UNIT ( * ) SI_UNIT ( $, .METRE. ) );
#49 = UNCERTAINTY_MEASURE_WITH_UNIT (LENGTH_MEASURE( 1.000000000000000082E-05 ), #218, 'distance_accuracy_value', 'NONE');
#50 = SURFACE_SIDE_STYLE ('',( #236 ) ) ;
#51 = MECHANICAL_DESIGN_GEOMETRIC_PRESENTATION_REPRESENTATION (  '', ( #6 ), #265 ) ;
#52 = EDGE_LOOP ( 'NONE', ( #282, #189 ) ) ;
#53 = COLOUR_RGB ( '',1.000000000000000000, 0.000000000000000000, 0.000000000000000000 ) ;
#54 = CARTESIAN_POINT ( 'NONE',  ( 4.591101375495486296E-34, 1.250000000000000000, 0.000000000000000000 ) ) ;
#55 = ADVANCED_FACE ( 'NONE', ( #25 ), #90, .T. ) ;
#56 = VERTEX_POINT ( 'NONE', #214 ) ;
#57 = MANIFOLD_SOLID_BREP ( 'Revolve - Cutting Edge', #191 ) ;
#58 = SURFACE_STYLE_USAGE ( .BOTH. , #107 ) ;
#59 =( GEOMETRIC_REPRESENTATION_CONTEXT ( 3 ) GLOBAL_UNCERTAINTY_ASSIGNED_CONTEXT ( ( #95 ) ) GLOBAL_UNIT_ASSIGNED_CONTEXT ( ( #28, #69, #71 ) ) REPRESENTATION_CONTEXT ( 'NONE', 'WORKASPACE' ) );
#60 = CIRCLE ( 'NONE', #198, 0.1875000000000001943 ) ;
#61 = FACE_OUTER_BOUND ( 'NONE', #260, .T. ) ;
#62 = EDGE_CURVE ( 'NONE', #33, #75, #106, .T. ) ;
#63 = CIRCLE ( 'NONE', #91, 0.1875000000000000555 ) ;
#64 = CARTESIAN_POINT ( 'NONE',  ( 0.1875000000000000555, 3.000000000000000444, 2.296212748401289266E-17 ) ) ;
#65 =( NAMED_UNIT ( * ) SI_UNIT ( $, .STERADIAN. ) SOLID_ANGLE_UNIT ( ) );
#66 =( CONVERSION_BASED_UNIT ( 'INCH', #119 ) LENGTH_UNIT ( ) NAMED_UNIT ( #289 ) );
#67 = MECHANICAL_DESIGN_GEOMETRIC_PRESENTATION_REPRESENTATION (  '', ( #283 ), #39 ) ;
#68 = STYLED_ITEM ( 'NONE', ( #140 ), #228 ) ;
#69 =( NAMED_UNIT ( * ) PLANE_ANGLE_UNIT ( ) SI_UNIT ( $, .RADIAN. ) );
#70 = UNCERTAINTY_MEASURE_WITH_UNIT (LENGTH_MEASURE( 1.000000000000000082E-05 ), #293, 'distance_accuracy_value', 'NONE');
#71 =( NAMED_UNIT ( * ) SI_UNIT ( $, .STERADIAN. ) SOLID_ANGLE_UNIT ( ) );
#72 =( GEOMETRIC_REPRESENTATION_CONTEXT ( 3 ) GLOBAL_UNCERTAINTY_ASSIGNED_CONTEXT ( ( #248 ) ) GLOBAL_UNIT_ASSIGNED_CONTEXT ( ( #128, #36, #304 ) ) REPRESENTATION_CONTEXT ( 'NONE', 'WORKASPACE' ) );
#73 =( NAMED_UNIT ( * ) SI_UNIT ( $, .STERADIAN. ) SOLID_ANGLE_UNIT ( ) );
#74 = SURFACE_SIDE_STYLE ('',( #125 ) ) ;
#75 = VERTEX_POINT ( 'NONE', #270 ) ;
#76 = DIRECTION ( 'NONE',  ( -0.000000000000000000, -1.000000000000000000, -0.000000000000000000 ) ) ;
#77 = MECHANICAL_DESIGN_GEOMETRIC_PRESENTATION_REPRESENTATION (  '', ( #160 ), #59 ) ;
#78 = FACE_OUTER_BOUND ( 'NONE', #180, .T. ) ;
#79 =( GEOMETRIC_REPRESENTATION_CONTEXT ( 3 ) GLOBAL_UNCERTAINTY_ASSIGNED_CONTEXT ( ( #290 ) ) GLOBAL_UNIT_ASSIGNED_CONTEXT ( ( #209, #23, #65 ) ) REPRESENTATION_CONTEXT ( 'NONE', 'WORKASPACE' ) );
#80 = PRODUCT_DEFINITION_SHAPE ( 'NONE', 'NONE',  #240 ) ;
#81 = CARTESIAN_POINT ( 'NONE',  ( 0.000000000000000000, 0.000000000000000000, 0.000000000000000000 ) ) ;
#82 =( CONVERSION_BASED_UNIT ( 'INCH', #40 ) LENGTH_UNIT ( ) NAMED_UNIT ( #101 ) );
#83 = FILL_AREA_STYLE ('',( #204 ) ) ;
#84 = ORIENTED_EDGE ( 'NONE', *, *, #232, .F. ) ;
#85 = AXIS2_PLACEMENT_3D ( 'NONE', #54, #235, #184 ) ;
#86 = EDGE_CURVE ( 'NONE', #237, #43, #63, .T. ) ;
#87 =( LENGTH_UNIT ( ) NAMED_UNIT ( * ) SI_UNIT ( $, .METRE. ) );
#88 = SURFACE_STYLE_USAGE ( .BOTH. , #3 ) ;
#89 = LENGTH_MEASURE_WITH_UNIT ( LENGTH_MEASURE( 0.02539999999999999897 ), #87 );
#90 = CYLINDRICAL_SURFACE ( 'NONE', #267, 0.1875000000000001110 ) ;
#91 = AXIS2_PLACEMENT_3D ( 'NONE', #146, #220, #273 ) ;
#92 = LINE ( 'NONE', #244, #162 ) ;
#93 = FILL_AREA_STYLE_COLOUR ( '', #120 ) ;
#94 = CARTESIAN_POINT ( 'NONE',  ( 0.000000000000000000, 0.000000000000000000, 0.000000000000000000 ) ) ;
#95 = UNCERTAINTY_MEASURE_WITH_UNIT (LENGTH_MEASURE( 1.000000000000000082E-05 ), #28, 'distance_accuracy_value', 'NONE');
#96 = PRESENTATION_STYLE_ASSIGNMENT (( #88 ) ) ;
#97 = DIRECTION ( 'NONE',  ( -0.000000000000000000, -1.000000000000000000, -0.000000000000000000 ) ) ;
#98 =( GEOMETRIC_REPRESENTATION_CONTEXT ( 3 ) GLOBAL_UNCERTAINTY_ASSIGNED_CONTEXT ( ( #49 ) ) GLOBAL_UNIT_ASSIGNED_CONTEXT ( ( #218, #306, #246 ) ) REPRESENTATION_CONTEXT ( 'NONE', 'WORKASPACE' ) );
#99 = PLANE ( 'NONE',  #153 ) ;
#100 = VERTEX_POINT ( 'NONE', #150 ) ;
#101 = DIMENSIONAL_EXPONENTS ( 1.000000000000000000, 0.000000000000000000, 0.000000000000000000, 0.000000000000000000, 0.000000000000000000, 0.000000000000000000, 0.000000000000000000 ) ;
#102 = PRODUCT_RELATED_PRODUCT_CATEGORY ( 'part', '', ( #183 ) ) ;
#103 = STYLED_ITEM ( 'NONE', ( #111 ), #32 ) ;
#104 = SURFACE_STYLE_USAGE ( .BOTH. , #50 ) ;
#105 = PLANE ( 'NONE',  #213 ) ;
#106 = CIRCLE ( 'NONE', #300, 0.1875000000000000278 ) ;
#107 = SURFACE_SIDE_STYLE ('',( #234 ) ) ;
#108 = MECHANICAL_DESIGN_GEOMETRIC_PRESENTATION_REPRESENTATION (  '', ( #68 ), #115 ) ;
#109 = CARTESIAN_POINT ( 'NONE',  ( 0.1874999999999999722, 3.000000000000000444, 2.296212748401288650E-17 ) ) ;
#110 = EDGE_LOOP ( 'NONE', ( #157, #299 ) ) ;
#111 = PRESENTATION_STYLE_ASSIGNMENT (( #58 ) ) ;
#112 = FILL_AREA_STYLE ('',( #263 ) ) ;
#113 = EDGE_LOOP ( 'NONE', ( #231, #285, #161, #253 ) ) ;
#114 = AXIS2_PLACEMENT_3D ( 'NONE', #205, #252, #203 ) ;
#115 =( GEOMETRIC_REPRESENTATION_CONTEXT ( 3 ) GLOBAL_UNCERTAINTY_ASSIGNED_CONTEXT ( ( #126 ) ) GLOBAL_UNIT_ASSIGNED_CONTEXT ( ( #66, #193, #207 ) ) REPRESENTATION_CONTEXT ( 'NONE', 'WORKASPACE' ) );
#116 = CARTESIAN_POINT ( 'NONE',  ( 0.000000000000000000, 0.000000000000000000, 0.000000000000000000 ) ) ;
#117 =( LENGTH_UNIT ( ) NAMED_UNIT ( * ) SI_UNIT ( $, .METRE. ) );
#118 = DIRECTION ( 'NONE',  ( -6.997981709413449187E-17, 1.000000000000000000, -0.000000000000000000 ) ) ;
#119 = LENGTH_MEASURE_WITH_UNIT ( LENGTH_MEASURE( 0.02539999999999999897 ), #117 );
#120 = COLOUR_RGB ( '',0.7921568627450980005, 0.8196078431372548767, 0.9333333333333333481 ) ;
#121 = SURFACE_STYLE_FILL_AREA ( #266 ) ;
#122 = EDGE_CURVE ( 'NONE', #152, #56, #127, .T. ) ;
#123 = AXIS2_PLACEMENT_3D ( 'NONE', #298, #254, #185 ) ;
#124 = ADVANCED_FACE ( 'NONE', ( #295 ), #172, .T. ) ;
#125 = SURFACE_STYLE_FILL_AREA ( #199 ) ;
#126 = UNCERTAINTY_MEASURE_WITH_UNIT (LENGTH_MEASURE( 1.000000000000000082E-05 ), #66, 'distance_accuracy_value', 'NONE');
#127 = CIRCLE ( 'NONE', #245, 0.1875000000000000555 ) ;
#128 =( CONVERSION_BASED_UNIT ( 'INCH', #275 ) LENGTH_UNIT ( ) NAMED_UNIT ( #45 ) );
#129 = PRESENTATION_STYLE_ASSIGNMENT (( #104 ) ) ;
#130 = ORIENTED_EDGE ( 'NONE', *, *, #175, .F. ) ;
#131 = CARTESIAN_POINT ( 'NONE',  ( 0.1875000000000000555, 3.000000000000000444, 0.000000000000000000 ) ) ;
#132 = PLANE ( 'NONE',  #85 ) ;
#133 = VECTOR ( 'NONE', #20, 39.37007874015748143 ) ;
#134 = DIRECTION ( 'NONE',  ( -6.997981709413449187E-17, 1.000000000000000000, -0.000000000000000000 ) ) ;
#135 = ADVANCED_FACE ( 'NONE', ( #9 ), #99, .T. ) ;
#136 = DIRECTION ( 'NONE',  ( 1.000000000000000000, 6.997981709413449187E-17, 0.000000000000000000 ) ) ;
#137 = LINE ( 'NONE', #212, #133 ) ;
#138 = ORIENTED_EDGE ( 'NONE', *, *, #122, .T. ) ;
#139 = CIRCLE ( 'NONE', #241, 0.1875000000000000278 ) ;
#140 = PRESENTATION_STYLE_ASSIGNMENT (( #211 ) ) ;
#141 = CARTESIAN_POINT ( 'NONE',  ( 2.296212748401287726E-17, 0.000000000000000000, 0.1875000000000000278 ) ) ;
#142 = CYLINDRICAL_SURFACE ( 'NONE', #269, 0.1875000000000000555 ) ;
#143 = COLOUR_RGB ( '',1.000000000000000000, 0.000000000000000000, 0.000000000000000000 ) ;
#144 = AXIS2_PLACEMENT_3D ( 'NONE', #261, #76, #278 ) ;
#145 = EDGE_CURVE ( 'NONE', #262, #100, #249, .T. ) ;
#146 = CARTESIAN_POINT ( 'NONE',  ( 0.000000000000000000, 1.250000000000000000, 0.000000000000000000 ) ) ;
#147 = DIMENSIONAL_EXPONENTS ( 1.000000000000000000, 0.000000000000000000, 0.000000000000000000, 0.000000000000000000, 0.000000000000000000, 0.000000000000000000, 0.000000000000000000 ) ;
#148 = CARTESIAN_POINT ( 'NONE',  ( 0.000000000000000000, 0.000000000000000000, 0.000000000000000000 ) ) ;
#149 = PRESENTATION_LAYER_ASSIGNMENT (  '', '', ( #160 ) ) ;
#150 = CARTESIAN_POINT ( 'NONE',  ( -0.1875000000000003331, 3.000000000000000444, 0.000000000000000000 ) ) ;
#151 = DIRECTION ( 'NONE',  ( 0.000000000000000000, 0.000000000000000000, -1.000000000000000000 ) ) ;
#152 = VERTEX_POINT ( 'NONE', #303 ) ;
#153 = AXIS2_PLACEMENT_3D ( 'NONE', #81, #200, #202 ) ;
#154 = ORIENTED_EDGE ( 'NONE', *, *, #62, .F. ) ;
#155 =( NAMED_UNIT ( * ) PLANE_ANGLE_UNIT ( ) SI_UNIT ( $, .RADIAN. ) );
#156 = CARTESIAN_POINT ( 'NONE',  ( 0.000000000000000000, 0.000000000000000000, 0.000000000000000000 ) ) ;
#157 = ORIENTED_EDGE ( 'NONE', *, *, #26, .T. ) ;
#158 = EDGE_CURVE ( 'NONE', #43, #262, #284, .T. ) ;
#159 = FILL_AREA_STYLE_COLOUR ( '', #287 ) ;
#160 = STYLED_ITEM ( 'NONE', ( #250 ), #124 ) ;
#161 = ORIENTED_EDGE ( 'NONE', *, *, #308, .T. ) ;
#162 = VECTOR ( 'NONE', #168, 39.37007874015748143 ) ;
#163 =( NAMED_UNIT ( * ) SI_UNIT ( $, .STERADIAN. ) SOLID_ANGLE_UNIT ( ) );
#164 = EDGE_LOOP ( 'NONE', ( #276, #302 ) ) ;
#165 = EDGE_CURVE ( 'NONE', #43, #237, #221, .T. ) ;
#166 = APPLICATION_PROTOCOL_DEFINITION ( 'draft international standard', 'automotive_design', 1998, #296 ) ;
#167 = AXIS2_PLACEMENT_3D ( 'NONE', #148, #223, #151 ) ;
#168 = DIRECTION ( 'NONE',  ( -6.997981709413449187E-17, 1.000000000000000000, -0.000000000000000000 ) ) ;
#169 = DIRECTION ( 'NONE',  ( 0.000000000000000000, 0.000000000000000000, 1.000000000000000000 ) ) ;
#170 = SURFACE_STYLE_FILL_AREA ( #112 ) ;
#171 = ADVANCED_FACE ( 'NONE', ( #61 ), #301, .T. ) ;
#172 = CYLINDRICAL_SURFACE ( 'NONE', #167, 0.1875000000000000555 ) ;
#173 = APPLICATION_CONTEXT ( 'automotive_design' ) ;
#174 = DIMENSIONAL_EXPONENTS ( 1.000000000000000000, 0.000000000000000000, 0.000000000000000000, 0.000000000000000000, 0.000000000000000000, 0.000000000000000000, 0.000000000000000000 ) ;
#175 = EDGE_CURVE ( 'NONE', #152, #33, #13, .T. ) ;
#176 = SURFACE_STYLE_FILL_AREA ( #219 ) ;
#177 = MANIFOLD_SOLID_BREP ( 'Revolve - Tool Body (Straight Shanked)', #38 ) ;
#178 = UNCERTAINTY_MEASURE_WITH_UNIT (LENGTH_MEASURE( 1.000000000000000082E-05 ), #82, 'distance_accuracy_value', 'NONE');
#179 = SURFACE_SIDE_STYLE ('',( #176 ) ) ;
#180 = EDGE_LOOP ( 'NONE', ( #182, #37 ) ) ;
#181 = AXIS2_PLACEMENT_3D ( 'NONE', #116, #169, #286 ) ;
#182 = ORIENTED_EDGE ( 'NONE', *, *, #86, .F. ) ;
#183 = PRODUCT ( '59260', '59260', '', ( #44 ) ) ;
#184 = DIRECTION ( 'NONE',  ( -1.000000000000000000, -6.997981709413449187E-17, 0.000000000000000000 ) ) ;
#185 = DIRECTION ( 'NONE',  ( -1.000000000000000000, 0.000000000000000000, 0.000000000000000000 ) ) ;
#186 = DIRECTION ( 'NONE',  ( -1.000000000000000000, 0.000000000000000000, 0.000000000000000000 ) ) ;
#187 = MECHANICAL_DESIGN_GEOMETRIC_PRESENTATION_REPRESENTATION (  '', ( #103 ), #98 ) ;
#188 = PRESENTATION_LAYER_ASSIGNMENT (  '', '', ( #68 ) ) ;
#189 = ORIENTED_EDGE ( 'NONE', *, *, #145, .T. ) ;
#190 = FACE_OUTER_BOUND ( 'NONE', #257, .T. ) ;
#191 = CLOSED_SHELL ( 'NONE', ( #228, #32, #124, #135 ) ) ;
#192 = APPLICATION_PROTOCOL_DEFINITION ( 'draft international standard', 'automotive_design', 1998, #173 ) ;
#193 =( NAMED_UNIT ( * ) PLANE_ANGLE_UNIT ( ) SI_UNIT ( $, .RADIAN. ) );
#194 = STYLED_ITEM ( 'NONE', ( #129 ), #177 ) ;
#195 = SHAPE_DEFINITION_REPRESENTATION ( #80, #30 ) ;
#196 = LENGTH_MEASURE_WITH_UNIT ( LENGTH_MEASURE( 0.02539999999999999897 ), #226 );
#197 = PRESENTATION_LAYER_ASSIGNMENT (  '', '', ( #103 ) ) ;
#198 = AXIS2_PLACEMENT_3D ( 'NONE', #309, #307, #238 ) ;
#199 = FILL_AREA_STYLE ('',( #29 ) ) ;
#200 = DIRECTION ( 'NONE',  ( 0.000000000000000000, -1.000000000000000000, -0.000000000000000000 ) ) ;
#201 = DIRECTION ( 'NONE',  ( 6.997981709413449187E-17, -1.000000000000000000, 0.000000000000000000 ) ) ;
#202 = DIRECTION ( 'NONE',  ( 0.000000000000000000, 0.000000000000000000, -1.000000000000000000 ) ) ;
#203 = DIRECTION ( 'NONE',  ( -1.000000000000000000, 0.000000000000000000, 0.000000000000000000 ) ) ;
#204 = FILL_AREA_STYLE_COLOUR ( '', #143 ) ;
#205 = CARTESIAN_POINT ( 'NONE',  ( -1.224646799147353700E-16, 3.000000000000000444, 0.000000000000000000 ) ) ;
#206 = ORIENTED_EDGE ( 'NONE', *, *, #158, .T. ) ;
#207 =( NAMED_UNIT ( * ) SI_UNIT ( $, .STERADIAN. ) SOLID_ANGLE_UNIT ( ) );
#208 = PRESENTATION_LAYER_ASSIGNMENT (  '', '', ( #283 ) ) ;
#209 =( CONVERSION_BASED_UNIT ( 'INCH', #89 ) LENGTH_UNIT ( ) NAMED_UNIT ( #222 ) );
#210 = DIRECTION ( 'NONE',  ( 0.000000000000000000, -0.000000000000000000, 1.000000000000000000 ) ) ;
#211 = SURFACE_STYLE_USAGE ( .BOTH. , #21 ) ;
#212 = CARTESIAN_POINT ( 'NONE',  ( 0.000000000000000000, 0.000000000000000000, -0.1875000000000000555 ) ) ;
#213 = AXIS2_PLACEMENT_3D ( 'NONE', #131, #201, #136 ) ;
#214 = CARTESIAN_POINT ( 'NONE',  ( 0.000000000000000000, 1.250000000000000000, -0.1875000000000000555 ) ) ;
#215 = EDGE_CURVE ( 'NONE', #56, #152, #1, .T. ) ;
#216 = MECHANICAL_DESIGN_GEOMETRIC_PRESENTATION_REPRESENTATION (  '', ( #194 ), #72 ) ;
#217 = DIRECTION ( 'NONE',  ( -0.000000000000000000, -1.000000000000000000, -0.000000000000000000 ) ) ;
#218 =( CONVERSION_BASED_UNIT ( 'INCH', #288 ) LENGTH_UNIT ( ) NAMED_UNIT ( #147 ) );
#219 = FILL_AREA_STYLE ('',( #5 ) ) ;
#220 = DIRECTION ( 'NONE',  ( -6.997981709413449187E-17, 1.000000000000000000, -0.000000000000000000 ) ) ;
#221 = CIRCLE ( 'NONE', #123, 0.1875000000000000555 ) ;
#222 = DIMENSIONAL_EXPONENTS ( 1.000000000000000000, 0.000000000000000000, 0.000000000000000000, 0.000000000000000000, 0.000000000000000000, 0.000000000000000000, 0.000000000000000000 ) ;
#223 = DIRECTION ( 'NONE',  ( -0.000000000000000000, -1.000000000000000000, -0.000000000000000000 ) ) ;
#224 = ORIENTED_EDGE ( 'NONE', *, *, #232, .T. ) ;
#225 = PRESENTATION_STYLE_ASSIGNMENT (( #274 ) ) ;
#226 =( LENGTH_UNIT ( ) NAMED_UNIT ( * ) SI_UNIT ( $, .METRE. ) );
#227 = ORIENTED_EDGE ( 'NONE', *, *, #175, .T. ) ;
#228 = ADVANCED_FACE ( 'NONE', ( #190 ), #142, .T. ) ;
#229 = VECTOR ( 'NONE', #11, 39.37007874015748143 ) ;
#230 = PRODUCT_DEFINITION_CONTEXT ( 'detailed design', #173, 'design' ) ;
#231 = ORIENTED_EDGE ( 'NONE', *, *, #158, .F. ) ;
#232 = EDGE_CURVE ( 'NONE', #56, #75, #137, .T. ) ;
#233 = DIRECTION ( 'NONE',  ( -0.000000000000000000, -1.000000000000000000, -0.000000000000000000 ) ) ;
#234 = SURFACE_STYLE_FILL_AREA ( #83 ) ;
#235 = DIRECTION ( 'NONE',  ( -6.997981709413449187E-17, 1.000000000000000000, 0.000000000000000000 ) ) ;
#236 = SURFACE_STYLE_FILL_AREA ( #259 ) ;
#237 = VERTEX_POINT ( 'NONE', #264 ) ;
#238 = DIRECTION ( 'NONE',  ( -1.000000000000000000, 0.000000000000000000, 0.000000000000000000 ) ) ;
#239 = ORIENTED_EDGE ( 'NONE', *, *, #86, .T. ) ;
#240 = PRODUCT_DEFINITION ( 'UNKNOWN', '', #24, #230 ) ;
#241 = AXIS2_PLACEMENT_3D ( 'NONE', #156, #255, #35 ) ;
#242 = CARTESIAN_POINT ( 'NONE',  ( 0.000000000000000000, 1.250000000000000000, 0.000000000000000000 ) ) ;
#243 = CARTESIAN_POINT ( 'NONE',  ( 0.1875000000000000555, 1.250000000000000000, 2.296212748401289266E-17 ) ) ;
#244 = CARTESIAN_POINT ( 'NONE',  ( -0.1875000000000002498, 3.000000000000000444, 0.000000000000000000 ) ) ;
#245 = AXIS2_PLACEMENT_3D ( 'NONE', #31, #247, #7 ) ;
#246 =( NAMED_UNIT ( * ) SI_UNIT ( $, .STERADIAN. ) SOLID_ANGLE_UNIT ( ) );
#247 = DIRECTION ( 'NONE',  ( -0.000000000000000000, -1.000000000000000000, -0.000000000000000000 ) ) ;
#248 = UNCERTAINTY_MEASURE_WITH_UNIT (LENGTH_MEASURE( 1.000000000000000082E-05 ), #128, 'distance_accuracy_value', 'NONE');
#249 = CIRCLE ( 'NONE', #114, 0.1875000000000001943 ) ;
#250 = PRESENTATION_STYLE_ASSIGNMENT (( #271 ) ) ;
#251 =( NAMED_UNIT ( * ) PLANE_ANGLE_UNIT ( ) SI_UNIT ( $, .RADIAN. ) );
#252 = DIRECTION ( 'NONE',  ( -6.997981709413449187E-17, 1.000000000000000000, -0.000000000000000000 ) ) ;
#253 = ORIENTED_EDGE ( 'NONE', *, *, #145, .F. ) ;
#254 = DIRECTION ( 'NONE',  ( -6.997981709413449187E-17, 1.000000000000000000, -0.000000000000000000 ) ) ;
#255 = DIRECTION ( 'NONE',  ( -0.000000000000000000, -1.000000000000000000, -0.000000000000000000 ) ) ;
#256 =( LENGTH_UNIT ( ) NAMED_UNIT ( * ) SI_UNIT ( $, .METRE. ) );
#257 = EDGE_LOOP ( 'NONE', ( #41, #227, #18, #84 ) ) ;
#258 = AXIS2_PLACEMENT_3D ( 'NONE', #281, #134, #186 ) ;
#259 = FILL_AREA_STYLE ('',( #159 ) ) ;
#260 = EDGE_LOOP ( 'NONE', ( #239, #206, #14, #305 ) ) ;
#261 = CARTESIAN_POINT ( 'NONE',  ( 0.000000000000000000, 1.250000000000000000, 0.000000000000000000 ) ) ;
#262 = VERTEX_POINT ( 'NONE', #64 ) ;
#263 = FILL_AREA_STYLE_COLOUR ( '', #53 ) ;
#264 = CARTESIAN_POINT ( 'NONE',  ( -0.1875000000000000555, 1.250000000000000000, 0.000000000000000000 ) ) ;
#265 =( GEOMETRIC_REPRESENTATION_CONTEXT ( 3 ) GLOBAL_UNCERTAINTY_ASSIGNED_CONTEXT ( ( #70 ) ) GLOBAL_UNIT_ASSIGNED_CONTEXT ( ( #293, #251, #73 ) ) REPRESENTATION_CONTEXT ( 'NONE', 'WORKASPACE' ) );
#266 = FILL_AREA_STYLE ('',( #93 ) ) ;
#267 = AXIS2_PLACEMENT_3D ( 'NONE', #22, #118, #46 ) ;
#268 = DIRECTION ( 'NONE',  ( 0.000000000000000000, 1.000000000000000000, 0.000000000000000000 ) ) ;
#269 = AXIS2_PLACEMENT_3D ( 'NONE', #94, #217, #42 ) ;
#270 = CARTESIAN_POINT ( 'NONE',  ( 0.000000000000000000, 0.000000000000000000, -0.1875000000000000278 ) ) ;
#271 = SURFACE_STYLE_USAGE ( .BOTH. , #179 ) ;
#272 = LENGTH_MEASURE_WITH_UNIT ( LENGTH_MEASURE( 0.02539999999999999897 ), #297 );
#273 = DIRECTION ( 'NONE',  ( -1.000000000000000000, 0.000000000000000000, 0.000000000000000000 ) ) ;
#274 = SURFACE_STYLE_USAGE ( .BOTH. , #74 ) ;
#275 = LENGTH_MEASURE_WITH_UNIT ( LENGTH_MEASURE( 0.02539999999999999897 ), #256 );
#276 = ORIENTED_EDGE ( 'NONE', *, *, #215, .F. ) ;
#277 = PRESENTATION_LAYER_ASSIGNMENT (  '', '', ( #6 ) ) ;
#278 = DIRECTION ( 'NONE',  ( 0.000000000000000000, 0.000000000000000000, -1.000000000000000000 ) ) ;
#279 = EDGE_LOOP ( 'NONE', ( #130, #138, #224, #154 ) ) ;
#280 =( LENGTH_UNIT ( ) NAMED_UNIT ( * ) SI_UNIT ( $, .METRE. ) );
#281 = CARTESIAN_POINT ( 'NONE',  ( -1.224646799147353700E-16, 3.000000000000000444, 0.000000000000000000 ) ) ;
#282 = ORIENTED_EDGE ( 'NONE', *, *, #291, .T. ) ;
#283 = STYLED_ITEM ( 'NONE', ( #225 ), #135 ) ;
#284 = LINE ( 'NONE', #109, #229 ) ;
#285 = ORIENTED_EDGE ( 'NONE', *, *, #165, .T. ) ;
#286 = DIRECTION ( 'NONE',  ( 1.000000000000000000, 0.000000000000000000, 0.000000000000000000 ) ) ;
#287 = COLOUR_RGB ( '',0.7921568627450980005, 0.8196078431372548767, 0.9333333333333333481 ) ;
#288 = LENGTH_MEASURE_WITH_UNIT ( LENGTH_MEASURE( 0.02539999999999999897 ), #280 );
#289 = DIMENSIONAL_EXPONENTS ( 1.000000000000000000, 0.000000000000000000, 0.000000000000000000, 0.000000000000000000, 0.000000000000000000, 0.000000000000000000, 0.000000000000000000 ) ;
#290 = UNCERTAINTY_MEASURE_WITH_UNIT (LENGTH_MEASURE( 1.000000000000000082E-05 ), #209, 'distance_accuracy_value', 'NONE');
#291 = EDGE_CURVE ( 'NONE', #100, #262, #60, .T. ) ;
#292 = COLOUR_RGB ( '',1.000000000000000000, 0.000000000000000000, 0.000000000000000000 ) ;
#293 =( CONVERSION_BASED_UNIT ( 'INCH', #196 ) LENGTH_UNIT ( ) NAMED_UNIT ( #174 ) );
#294 = DIMENSIONAL_EXPONENTS ( 1.000000000000000000, 0.000000000000000000, 0.000000000000000000, 0.000000000000000000, 0.000000000000000000, 0.000000000000000000, 0.000000000000000000 ) ;
#295 = FACE_OUTER_BOUND ( 'NONE', #279, .T. ) ;
#296 = APPLICATION_CONTEXT ( 'automotive_design' ) ;
#297 =( LENGTH_UNIT ( ) NAMED_UNIT ( * ) SI_UNIT ( $, .METRE. ) );
#298 = CARTESIAN_POINT ( 'NONE',  ( 0.000000000000000000, 1.250000000000000000, 0.000000000000000000 ) ) ;
#299 = ORIENTED_EDGE ( 'NONE', *, *, #62, .T. ) ;
#300 = AXIS2_PLACEMENT_3D ( 'NONE', #2, #97, #27 ) ;
#301 = CYLINDRICAL_SURFACE ( 'NONE', #258, 0.1875000000000001110 ) ;
#302 = ORIENTED_EDGE ( 'NONE', *, *, #122, .F. ) ;
#303 = CARTESIAN_POINT ( 'NONE',  ( 2.296212748401288034E-17, 1.250000000000000000, 0.1875000000000000555 ) ) ;
#304 =( NAMED_UNIT ( * ) SI_UNIT ( $, .STERADIAN. ) SOLID_ANGLE_UNIT ( ) );
#305 = ORIENTED_EDGE ( 'NONE', *, *, #308, .F. ) ;
#306 =( NAMED_UNIT ( * ) PLANE_ANGLE_UNIT ( ) SI_UNIT ( $, .RADIAN. ) );
#307 = DIRECTION ( 'NONE',  ( -6.997981709413449187E-17, 1.000000000000000000, -0.000000000000000000 ) ) ;
#308 = EDGE_CURVE ( 'NONE', #237, #100, #92, .T. ) ;
#309 = CARTESIAN_POINT ( 'NONE',  ( -1.224646799147353700E-16, 3.000000000000000444, 0.000000000000000000 ) ) ;
ENDSEC;
END-ISO-10303-21;
