ISO-10303-21;
HEADER;
FILE_DESCRIPTION (( 'STEP AP214' ),
    '1' );
FILE_NAME ('Micro_BMSM-019-2X.STEP',
    '2021-09-03T15:57:35',
    ( '' ),
    ( '' ),
    'SwSTEP 2.0',
    'SolidWorks 2020',
    '' );
FILE_SCHEMA (( 'AUTOMOTIVE_DESIGN' ));
ENDSEC;

DATA;
#1 = LINE ( 'NONE', #200, #240 ) ;
#2 = DIRECTION ( 'NONE',  ( 1.000000000000000000, 0.0000000000000000000, 0.0000000000000000000 ) ) ;
#3 = ORIENTED_EDGE ( 'NONE', *, *, #16, .T. ) ;
#4 = AXIS2_PLACEMENT_3D ( 'NONE', #198, #228, #2 ) ;
#5 = DIRECTION ( 'NONE',  ( -1.000000000000000000, 0.0000000000000000000, 1.142410137394432400E-16 ) ) ;
#6 = ORIENTED_EDGE ( 'NONE', *, *, #16, .F. ) ;
#7 = ORIENTED_EDGE ( 'NONE', *, *, #34, .T. ) ;
#8 = SURFACE_STYLE_FILL_AREA ( #110 ) ;
#9 = ORIENTED_EDGE ( 'NONE', *, *, #195, .T. ) ;
#10 = EDGE_LOOP ( 'NONE', ( #150, #58, #76, #135 ) ) ;
#11 = AXIS2_PLACEMENT_3D ( 'NONE', #171, #247, #24 ) ;
#12 = AXIS2_PLACEMENT_3D ( 'NONE', #160, #184, #155 ) ;
#13 = VERTEX_POINT ( 'NONE', #222 ) ;
#14 = CYLINDRICAL_SURFACE ( 'NONE', #284, 0.05905500000000000332 ) ;
#15 = APPLICATION_PROTOCOL_DEFINITION ( 'draft international standard', 'automotive_design', 1998, #183 ) ;
#16 = EDGE_CURVE ( 'NONE', #85, #162, #129, .T. ) ;
#17 = VECTOR ( 'NONE', #300, 39.37007874015748143 ) ;
#18 = DIRECTION ( 'NONE',  ( -1.224646799147353207E-16, -0.0000000000000000000, -1.000000000000000000 ) ) ;
#19 = PRODUCT_RELATED_PRODUCT_CATEGORY ( 'part', '', ( #283 ) ) ;
#20 = EDGE_CURVE ( 'NONE', #85, #65, #179, .T. ) ;
#21 = CARTESIAN_POINT ( 'NONE',  ( -0.04405499999999973326, 0.0000000000000000000, 1.496062999999999921 ) ) ;
#22 = PRODUCT_DEFINITION_SHAPE ( 'NONE', 'NONE',  #286 ) ;
#23 = CIRCLE ( 'NONE', #231, 0.04405499999999973326 ) ;
#24 = DIRECTION ( 'NONE',  ( -1.000000000000000000, 0.0000000000000000000, 0.0000000000000000000 ) ) ;
#25 = UNCERTAINTY_MEASURE_WITH_UNIT (LENGTH_MEASURE( 1.000000000000000082E-05 ), #108, 'distance_accuracy_value', 'NONE');
#26 = CARTESIAN_POINT ( 'NONE',  ( 2.856503542487483366E-17, 0.0000000000000000000, 0.2332512153280678346 ) ) ;
#27 = FACE_OUTER_BOUND ( 'NONE', #10, .T. ) ;
#28 = ORIENTED_EDGE ( 'NONE', *, *, #57, .F. ) ;
#29 = DIRECTION ( 'NONE',  ( 1.000000000000000000, 0.0000000000000000000, 0.0000000000000000000 ) ) ;
#30 = AXIS2_PLACEMENT_3D ( 'NONE', #205, #80, #123 ) ;
#31 = DIRECTION ( 'NONE',  ( -1.224646799147353207E-16, -0.0000000000000000000, -1.000000000000000000 ) ) ;
#32 = EDGE_CURVE ( 'NONE', #162, #65, #106, .T. ) ;
#33 = CARTESIAN_POINT ( 'NONE',  ( 0.05905500000000000332, 7.232151672364695422E-18, 1.481062999999999574 ) ) ;
#34 = EDGE_CURVE ( 'NONE', #132, #48, #321, .T. ) ;
#35 = ORIENTED_EDGE ( 'NONE', *, *, #144, .F. ) ;
#36 = EDGE_CURVE ( 'NONE', #229, #88, #111, .T. ) ;
#37 =( NAMED_UNIT ( * ) PLANE_ANGLE_UNIT ( ) SI_UNIT ( $, .RADIAN. ) );
#38 = DIMENSIONAL_EXPONENTS ( 1.000000000000000000, 0.0000000000000000000, 0.0000000000000000000, 0.0000000000000000000, 0.0000000000000000000, 0.0000000000000000000, 0.0000000000000000000 ) ;
#39 = FACE_OUTER_BOUND ( 'NONE', #166, .T. ) ;
#40 = DIRECTION ( 'NONE',  ( -1.224646799147353207E-16, -0.0000000000000000000, -1.000000000000000000 ) ) ;
#41 = DIRECTION ( 'NONE',  ( 0.0000000000000000000, 1.000000000000000000, 0.0000000000000000000 ) ) ;
#42 = DIRECTION ( 'NONE',  ( 0.0000000000000000000, 0.0000000000000000000, -1.000000000000000000 ) ) ;
#43 = CYLINDRICAL_SURFACE ( 'NONE', #199, 0.05905500000000000332 ) ;
#44 = CARTESIAN_POINT ( 'NONE',  ( 4.575782363105141468E-18, 0.0000000000000000000, 0.03736409849999999810 ) ) ;
#45 = ADVANCED_FACE ( 'NONE', ( #121 ), #51, .T. ) ;
#46 = FACE_OUTER_BOUND ( 'NONE', #60, .T. ) ;
#47 = ORIENTED_EDGE ( 'NONE', *, *, #268, .F. ) ;
#48 = VERTEX_POINT ( 'NONE', #92 ) ;
#49 = PLANE ( 'NONE',  #204 ) ;
#50 = ADVANCED_FACE ( 'NONE', ( #264 ), #211, .T. ) ;
#51 = CONICAL_SURFACE ( 'NONE', #97, 0.03736409850000000504, 0.1745329251994338915 ) ;
#52 = VECTOR ( 'NONE', #31, 39.37007874015748143 ) ;
#53 = ORIENTED_EDGE ( 'NONE', *, *, #57, .T. ) ;
#54 = LINE ( 'NONE', #274, #318 ) ;
#55 = CARTESIAN_POINT ( 'NONE',  ( 4.575782363105141468E-18, 0.0000000000000000000, 0.03736409849999999810 ) ) ;
#56 = AXIS2_PLACEMENT_3D ( 'NONE', #224, #41, #193 ) ;
#57 = EDGE_CURVE ( 'NONE', #229, #159, #115, .T. ) ;
#58 = ORIENTED_EDGE ( 'NONE', *, *, #253, .T. ) ;
#59 = PRESENTATION_STYLE_ASSIGNMENT (( #238 ) ) ;
#60 = EDGE_LOOP ( 'NONE', ( #190, #215, #293, #145 ) ) ;
#61 = MANIFOLD_SOLID_BREP ( 'Fillet1', #301 ) ;
#62 =( LENGTH_UNIT ( ) NAMED_UNIT ( * ) SI_UNIT ( $, .METRE. ) );
#63 = VECTOR ( 'NONE', #305, 39.37007874015748143 ) ;
#64 = CARTESIAN_POINT ( 'NONE',  ( 0.0000000000000000000, 0.0000000000000000000, 0.0000000000000000000 ) ) ;
#65 = VERTEX_POINT ( 'NONE', #248 ) ;
#66 = DIRECTION ( 'NONE',  ( -1.224646799147353207E-16, -0.0000000000000000000, -1.000000000000000000 ) ) ;
#67 = AXIS2_PLACEMENT_3D ( 'NONE', #141, #239, #232 ) ;
#68 = DIRECTION ( 'NONE',  ( -1.224646799147353207E-16, -0.0000000000000000000, -1.000000000000000000 ) ) ;
#69 = EDGE_LOOP ( 'NONE', ( #233, #3, #208 ) ) ;
#70 = FACE_OUTER_BOUND ( 'NONE', #258, .T. ) ;
#71 = CARTESIAN_POINT ( 'NONE',  ( 0.04405499999999973326, 6.313666573004162521E-18, 1.496062999999999921 ) ) ;
#72 = CYLINDRICAL_SURFACE ( 'NONE', #306, 0.03736409850000000504 ) ;
#73 = AXIS2_PLACEMENT_3D ( 'NONE', #44, #267, #42 ) ;
#74 = CONICAL_SURFACE ( 'NONE', #218, 0.04405499999999973326, 0.7853981633974491672 ) ;
#75 = CARTESIAN_POINT ( 'NONE',  ( -0.05905500000000000332, 0.0000000000000000000, 1.496062999999999921 ) ) ;
#76 = ORIENTED_EDGE ( 'NONE', *, *, #151, .F. ) ;
#77 = CARTESIAN_POINT ( 'NONE',  ( 0.0000000000000000000, 0.0000000000000000000, 1.481062999999999574 ) ) ;
#78 = ADVANCED_FACE ( 'NONE', ( #27 ), #74, .T. ) ;
#79 = FACE_OUTER_BOUND ( 'NONE', #207, .T. ) ;
#80 = DIRECTION ( 'NONE',  ( -1.224646799147353207E-16, -0.0000000000000000000, -1.000000000000000000 ) ) ;
#81 = ADVANCED_FACE ( 'NONE', ( #241 ), #322, .T. ) ;
#82 = VECTOR ( 'NONE', #237, 39.37007874015747433 ) ;
#83 = VERTEX_POINT ( 'NONE', #71 ) ;
#84 = EDGE_CURVE ( 'NONE', #13, #159, #148, .T. ) ;
#85 = VERTEX_POINT ( 'NONE', #116 ) ;
#86 = COLOUR_RGB ( '',0.7921568627450980005, 0.8196078431372548767, 0.9333333333333333481 ) ;
#87 = ORIENTED_EDGE ( 'NONE', *, *, #289, .F. ) ;
#88 = VERTEX_POINT ( 'NONE', #325 ) ;
#89 = EDGE_CURVE ( 'NONE', #88, #13, #120, .T. ) ;
#90 = SURFACE_SIDE_STYLE ('',( #290 ) ) ;
#91 =( NAMED_UNIT ( * ) SI_UNIT ( $, .STERADIAN. ) SOLID_ANGLE_UNIT ( ) );
#92 = CARTESIAN_POINT ( 'NONE',  ( -0.05905500000000000332, 0.0000000000000000000, 1.481062999999999574 ) ) ;
#93 = PRODUCT_DEFINITION_FORMATION_WITH_SPECIFIED_SOURCE ( 'ANY', '', #283, .NOT_KNOWN. ) ;
#94 = DIRECTION ( 'NONE',  ( -1.000000000000000000, 0.0000000000000000000, 1.142410137394432400E-16 ) ) ;
#95 = DIRECTION ( 'NONE',  ( 1.224646799147353207E-16, 0.0000000000000000000, 1.000000000000000000 ) ) ;
#96 = CARTESIAN_POINT ( 'NONE',  ( 0.0000000000000000000, 0.0000000000000000000, 0.0000000000000000000 ) ) ;
#97 = AXIS2_PLACEMENT_3D ( 'NONE', #317, #95, #319 ) ;
#98 = CARTESIAN_POINT ( 'NONE',  ( -0.04405499999999973326, 0.0000000000000000000, 1.496062999999999921 ) ) ;
#99 = CARTESIAN_POINT ( 'NONE',  ( 0.03736409850000001198, 0.0000000000000000000, 0.1102360000000000007 ) ) ;
#100 = AXIS2_PLACEMENT_3D ( 'NONE', #77, #128, #230 ) ;
#101 = LINE ( 'NONE', #202, #63 ) ;
#102 = ORIENTED_EDGE ( 'NONE', *, *, #144, .T. ) ;
#103 = CIRCLE ( 'NONE', #4, 0.04405499999999973326 ) ;
#104 = ADVANCED_FACE ( 'NONE', ( #70 ), #72, .T. ) ;
#105 = ORIENTED_EDGE ( 'NONE', *, *, #295, .T. ) ;
#106 = CIRCLE ( 'NONE', #298, 0.03736409850000000504 ) ;
#107 = MECHANICAL_DESIGN_GEOMETRIC_PRESENTATION_REPRESENTATION (  '', ( #251 ), #225 ) ;
#108 =( CONVERSION_BASED_UNIT ( 'INCH', #188 ) LENGTH_UNIT ( ) NAMED_UNIT ( #308 ) );
#109 = CARTESIAN_POINT ( 'NONE',  ( 0.0000000000000000000, 0.0000000000000000000, 1.496062999999999921 ) ) ;
#110 = FILL_AREA_STYLE ('',( #310 ) ) ;
#111 = CIRCLE ( 'NONE', #11, 0.03736409850000000504 ) ;
#112 = AXIS2_PLACEMENT_3D ( 'NONE', #265, #40, #223 ) ;
#113 = ORIENTED_EDGE ( 'NONE', *, *, #279, .T. ) ;
#114 = ADVANCED_FACE ( 'NONE', ( #46 ), #146, .T. ) ;
#115 = LINE ( 'NONE', #320, #82 ) ;
#116 = CARTESIAN_POINT ( 'NONE',  ( 6.863673544657712203E-18, 0.0000000000000000000, 0.0000000000000000000 ) ) ;
#117 = AXIS2_PLACEMENT_3D ( 'NONE', #172, #176, #269 ) ;
#118 = ORIENTED_EDGE ( 'NONE', *, *, #242, .F. ) ;
#119 = CIRCLE ( 'NONE', #299, 0.05905500000000000332 ) ;
#120 = LINE ( 'NONE', #99, #17 ) ;
#121 = FACE_OUTER_BOUND ( 'NONE', #182, .T. ) ;
#122 = EDGE_LOOP ( 'NONE', ( #6, #312, #278 ) ) ;
#123 = DIRECTION ( 'NONE',  ( -1.000000000000000000, 0.0000000000000000000, 0.0000000000000000000 ) ) ;
#124 = PRESENTATION_LAYER_ASSIGNMENT (  '', '', ( #266 ) ) ;
#125 = SPHERICAL_SURFACE ( 'NONE', #180, 0.03736409849999999810 ) ;
#126 = DIRECTION ( 'NONE',  ( 1.000000000000000000, 0.0000000000000000000, -0.0000000000000000000 ) ) ;
#127 = CARTESIAN_POINT ( 'NONE',  ( -0.03736409849999999810, 0.0000000000000000000, 0.03736409850000000504 ) ) ;
#128 = DIRECTION ( 'NONE',  ( 0.0000000000000000000, 0.0000000000000000000, -1.000000000000000000 ) ) ;
#129 = CIRCLE ( 'NONE', #117, 0.03736409849999999810 ) ;
#130 = AXIS2_PLACEMENT_3D ( 'NONE', #177, #244, #143 ) ;
#131 = ORIENTED_EDGE ( 'NONE', *, *, #197, .T. ) ;
#132 = VERTEX_POINT ( 'NONE', #98 ) ;
#133 = DIRECTION ( 'NONE',  ( -1.000000000000000000, 0.0000000000000000000, 0.0000000000000000000 ) ) ;
#134 = CARTESIAN_POINT ( 'NONE',  ( -0.03736409849999999117, 5.903967017734918445E-18, 0.1102360000000000007 ) ) ;
#135 = ORIENTED_EDGE ( 'NONE', *, *, #34, .F. ) ;
#136 =( NAMED_UNIT ( * ) SI_UNIT ( $, .STERADIAN. ) SOLID_ANGLE_UNIT ( ) );
#137 = ADVANCED_FACE ( 'NONE', ( #297 ), #43, .T. ) ;
#138 = ORIENTED_EDGE ( 'NONE', *, *, #253, .F. ) ;
#139 = LENGTH_MEASURE_WITH_UNIT ( LENGTH_MEASURE( 0.02539999999999999897 ), #285 );
#140 = APPLICATION_PROTOCOL_DEFINITION ( 'draft international standard', 'automotive_design', 1998, #243 ) ;
#141 = CARTESIAN_POINT ( 'NONE',  ( 0.0000000000000000000, 0.0000000000000000000, 1.496062999999999921 ) ) ;
#142 = AXIS2_PLACEMENT_3D ( 'NONE', #55, #203, #5 ) ;
#143 = DIRECTION ( 'NONE',  ( 1.000000000000000000, 0.0000000000000000000, 0.0000000000000000000 ) ) ;
#144 = EDGE_CURVE ( 'NONE', #159, #13, #119, .T. ) ;
#145 = ORIENTED_EDGE ( 'NONE', *, *, #197, .F. ) ;
#146 = CYLINDRICAL_SURFACE ( 'NONE', #112, 0.03736409850000000504 ) ;
#147 = DIRECTION ( 'NONE',  ( -0.7071067811865482389, 0.0000000000000000000, -0.7071067811865469066 ) ) ;
#148 = CIRCLE ( 'NONE', #130, 0.05905500000000000332 ) ;
#149 = DIRECTION ( 'NONE',  ( -0.0000000000000000000, -0.0000000000000000000, -1.000000000000000000 ) ) ;
#150 = ORIENTED_EDGE ( 'NONE', *, *, #195, .F. ) ;
#151 = EDGE_CURVE ( 'NONE', #48, #235, #275, .T. ) ;
#152 = CARTESIAN_POINT ( 'NONE',  ( 0.03736409850000000504, 4.575782363105143009E-18, -4.575782363105143009E-18 ) ) ;
#153 = VECTOR ( 'NONE', #147, 39.37007874015748143 ) ;
#154 = CONICAL_SURFACE ( 'NONE', #12, 0.03736409850000000504, 0.1745329251994338915 ) ;
#155 = DIRECTION ( 'NONE',  ( 1.000000000000000000, 0.0000000000000000000, 0.0000000000000000000 ) ) ;
#156 = CARTESIAN_POINT ( 'NONE',  ( -0.05905499999999998251, 0.0000000000000000000, 0.2332512153280678346 ) ) ;
#157 = UNCERTAINTY_MEASURE_WITH_UNIT (LENGTH_MEASURE( 1.000000000000000082E-05 ), #189, 'distance_accuracy_value', 'NONE');
#158 = EDGE_CURVE ( 'NONE', #88, #229, #174, .T. ) ;
#159 = VERTEX_POINT ( 'NONE', #156 ) ;
#160 = CARTESIAN_POINT ( 'NONE',  ( 1.350001645508076191E-17, 0.0000000000000000000, 0.1102360000000000007 ) ) ;
#161 = DIRECTION ( 'NONE',  ( 1.000000000000000000, 0.0000000000000000000, 0.0000000000000000000 ) ) ;
#162 = VERTEX_POINT ( 'NONE', #127 ) ;
#163 = DIRECTION ( 'NONE',  ( 1.000000000000000000, 0.0000000000000000000, 0.0000000000000000000 ) ) ;
#164 = VECTOR ( 'NONE', #254, 39.37007874015748143 ) ;
#165 = ORIENTED_EDGE ( 'NONE', *, *, #84, .F. ) ;
#166 = EDGE_LOOP ( 'NONE', ( #287, #53, #102, #257 ) ) ;
#167 = ORIENTED_EDGE ( 'NONE', *, *, #295, .F. ) ;
#168 = LENGTH_MEASURE_WITH_UNIT ( LENGTH_MEASURE( 0.02539999999999999897 ), #62 );
#169 = CIRCLE ( 'NONE', #142, 0.03736409850000000504 ) ;
#170 = DIRECTION ( 'NONE',  ( 0.0000000000000000000, 0.0000000000000000000, 1.000000000000000000 ) ) ;
#171 = CARTESIAN_POINT ( 'NONE',  ( 1.350001645508076191E-17, 0.0000000000000000000, 0.1102360000000000007 ) ) ;
#172 = CARTESIAN_POINT ( 'NONE',  ( 4.575782363105141468E-18, 0.0000000000000000000, 0.03736409849999999810 ) ) ;
#173 = DIRECTION ( 'NONE',  ( 0.0000000000000000000, 0.0000000000000000000, -1.000000000000000000 ) ) ;
#174 = CIRCLE ( 'NONE', #30, 0.03736409850000000504 ) ;
#175 =( NAMED_UNIT ( * ) PLANE_ANGLE_UNIT ( ) SI_UNIT ( $, .RADIAN. ) );
#176 = DIRECTION ( 'NONE',  ( 1.224646799147353207E-16, 1.000000000000000000, -0.0000000000000000000 ) ) ;
#177 = CARTESIAN_POINT ( 'NONE',  ( 2.856503542487483366E-17, 0.0000000000000000000, 0.2332512153280678346 ) ) ;
#178 = EDGE_CURVE ( 'NONE', #65, #162, #169, .T. ) ;
#179 = CIRCLE ( 'NONE', #73, 0.03736409849999999810 ) ;
#180 = AXIS2_PLACEMENT_3D ( 'NONE', #185, #304, #161 ) ;
#181 = CARTESIAN_POINT ( 'NONE',  ( 0.0000000000000000000, 0.0000000000000000000, 1.496062999999999921 ) ) ;
#182 = EDGE_LOOP ( 'NONE', ( #28, #249, #273, #234 ) ) ;
#183 = APPLICATION_CONTEXT ( 'automotive_design' ) ;
#184 = DIRECTION ( 'NONE',  ( 1.224646799147353207E-16, 0.0000000000000000000, 1.000000000000000000 ) ) ;
#185 = CARTESIAN_POINT ( 'NONE',  ( 4.575782363105141468E-18, 0.0000000000000000000, 0.03736409849999999810 ) ) ;
#186 =( GEOMETRIC_REPRESENTATION_CONTEXT ( 3 ) GLOBAL_UNCERTAINTY_ASSIGNED_CONTEXT ( ( #296 ) ) GLOBAL_UNIT_ASSIGNED_CONTEXT ( ( #260, #37, #136 ) ) REPRESENTATION_CONTEXT ( 'NONE', 'WORKASPACE' ) );
#187 = ORIENTED_EDGE ( 'NONE', *, *, #158, .T. ) ;
#188 = LENGTH_MEASURE_WITH_UNIT ( LENGTH_MEASURE( 0.02539999999999999897 ), #210 );
#189 =( CONVERSION_BASED_UNIT ( 'INCH', #168 ) LENGTH_UNIT ( ) NAMED_UNIT ( #38 ) );
#190 = ORIENTED_EDGE ( 'NONE', *, *, #36, .T. ) ;
#191 = SURFACE_STYLE_USAGE ( .BOTH. , #90 ) ;
#192 = FILL_AREA_STYLE ('',( #294 ) ) ;
#193 = DIRECTION ( 'NONE',  ( 1.000000000000000000, 0.0000000000000000000, 0.0000000000000000000 ) ) ;
#194 = COLOUR_RGB ( '',0.7921568627450980005, 0.8196078431372548767, 0.9333333333333333481 ) ;
#195 = EDGE_CURVE ( 'NONE', #83, #132, #23, .T. ) ;
#196 = DIRECTION ( 'NONE',  ( -1.000000000000000000, 0.0000000000000000000, 0.0000000000000000000 ) ) ;
#197 = EDGE_CURVE ( 'NONE', #229, #162, #1, .T. ) ;
#198 = CARTESIAN_POINT ( 'NONE',  ( 0.0000000000000000000, 0.0000000000000000000, 1.496062999999999921 ) ) ;
#199 = AXIS2_PLACEMENT_3D ( 'NONE', #324, #149, #196 ) ;
#200 = CARTESIAN_POINT ( 'NONE',  ( -0.03736409850000000504, 0.0000000000000000000, 4.575782363105143009E-18 ) ) ;
#201 = LINE ( 'NONE', #152, #52 ) ;
#202 = CARTESIAN_POINT ( 'NONE',  ( 0.05905500000000000332, 7.232151672364695422E-18, 1.496062999999999921 ) ) ;
#203 = DIRECTION ( 'NONE',  ( 1.224646799147353207E-16, 0.0000000000000000000, 1.000000000000000000 ) ) ;
#204 = AXIS2_PLACEMENT_3D ( 'NONE', #181, #280, #126 ) ;
#205 = CARTESIAN_POINT ( 'NONE',  ( 1.350001645508076191E-17, 0.0000000000000000000, 0.1102360000000000007 ) ) ;
#206 = ORIENTED_EDGE ( 'NONE', *, *, #32, .T. ) ;
#207 = EDGE_LOOP ( 'NONE', ( #167, #113, #213, #165 ) ) ;
#208 = ORIENTED_EDGE ( 'NONE', *, *, #178, .F. ) ;
#209 = ADVANCED_BREP_SHAPE_REPRESENTATION ( 'Micro_BMSM-019-2X', ( #61, #262 ), #186 ) ;
#210 =( LENGTH_UNIT ( ) NAMED_UNIT ( * ) SI_UNIT ( $, .METRE. ) );
#211 = CONICAL_SURFACE ( 'NONE', #67, 0.04405499999999973326, 0.7853981633974491672 ) ;
#212 = PRESENTATION_STYLE_ASSIGNMENT (( #191 ) ) ;
#213 = ORIENTED_EDGE ( 'NONE', *, *, #268, .T. ) ;
#214 = SURFACE_SIDE_STYLE ('',( #8 ) ) ;
#215 = ORIENTED_EDGE ( 'NONE', *, *, #289, .T. ) ;
#216 = ADVANCED_FACE ( 'NONE', ( #39 ), #154, .T. ) ;
#217 = SHAPE_DEFINITION_REPRESENTATION ( #22, #209 ) ;
#218 = AXIS2_PLACEMENT_3D ( 'NONE', #316, #173, #220 ) ;
#219 = DIRECTION ( 'NONE',  ( 1.224646799147353207E-16, 0.0000000000000000000, 1.000000000000000000 ) ) ;
#220 = DIRECTION ( 'NONE',  ( -1.000000000000000000, 0.0000000000000000000, 0.0000000000000000000 ) ) ;
#221 =( GEOMETRIC_REPRESENTATION_CONTEXT ( 3 ) GLOBAL_UNCERTAINTY_ASSIGNED_CONTEXT ( ( #25 ) ) GLOBAL_UNIT_ASSIGNED_CONTEXT ( ( #108, #314, #91 ) ) REPRESENTATION_CONTEXT ( 'NONE', 'WORKASPACE' ) );
#222 = CARTESIAN_POINT ( 'NONE',  ( 0.05905500000000003108, 7.232151672364698504E-18, 0.2332512153280678346 ) ) ;
#223 = DIRECTION ( 'NONE',  ( -1.000000000000000000, 0.0000000000000000000, 1.224646799147353207E-16 ) ) ;
#224 = CARTESIAN_POINT ( 'NONE',  ( 4.575782363105141468E-18, 0.0000000000000000000, 0.03736409849999999810 ) ) ;
#225 =( GEOMETRIC_REPRESENTATION_CONTEXT ( 3 ) GLOBAL_UNCERTAINTY_ASSIGNED_CONTEXT ( ( #157 ) ) GLOBAL_UNIT_ASSIGNED_CONTEXT ( ( #189, #175, #271 ) ) REPRESENTATION_CONTEXT ( 'NONE', 'WORKASPACE' ) );
#226 = FACE_OUTER_BOUND ( 'NONE', #255, .T. ) ;
#227 = DIRECTION ( 'NONE',  ( 1.000000000000000000, 0.0000000000000000000, 0.0000000000000000000 ) ) ;
#228 = DIRECTION ( 'NONE',  ( 0.0000000000000000000, 0.0000000000000000000, 1.000000000000000000 ) ) ;
#229 = VERTEX_POINT ( 'NONE', #134 ) ;
#230 = DIRECTION ( 'NONE',  ( 1.000000000000000000, 0.0000000000000000000, 0.0000000000000000000 ) ) ;
#231 = AXIS2_PLACEMENT_3D ( 'NONE', #276, #307, #163 ) ;
#232 = DIRECTION ( 'NONE',  ( -1.000000000000000000, 0.0000000000000000000, 0.0000000000000000000 ) ) ;
#233 = ORIENTED_EDGE ( 'NONE', *, *, #20, .F. ) ;
#234 = ORIENTED_EDGE ( 'NONE', *, *, #84, .T. ) ;
#235 = VERTEX_POINT ( 'NONE', #33 ) ;
#236 = ADVANCED_FACE ( 'NONE', ( #226 ), #49, .T. ) ;
#237 = DIRECTION ( 'NONE',  ( -0.1736481776669311916, 2.126576849575783316E-17, 0.9848077530122080203 ) ) ;
#238 = SURFACE_STYLE_USAGE ( .BOTH. , #214 ) ;
#239 = DIRECTION ( 'NONE',  ( 0.0000000000000000000, 0.0000000000000000000, -1.000000000000000000 ) ) ;
#240 = VECTOR ( 'NONE', #66, 39.37007874015748143 ) ;
#241 = FACE_OUTER_BOUND ( 'NONE', #122, .T. ) ;
#242 = EDGE_CURVE ( 'NONE', #132, #83, #103, .T. ) ;
#243 = APPLICATION_CONTEXT ( 'automotive_design' ) ;
#244 = DIRECTION ( 'NONE',  ( -1.224646799147353207E-16, -0.0000000000000000000, -1.000000000000000000 ) ) ;
#245 = CARTESIAN_POINT ( 'NONE',  ( 4.575782363105141468E-18, 0.0000000000000000000, 0.03736409849999999810 ) ) ;
#246 = PRODUCT_DEFINITION_CONTEXT ( 'detailed design', #243, 'design' ) ;
#247 = DIRECTION ( 'NONE',  ( -1.224646799147353207E-16, -0.0000000000000000000, -1.000000000000000000 ) ) ;
#248 = CARTESIAN_POINT ( 'NONE',  ( 0.03736409850000000504, 4.575782363105143009E-18, 0.03736409849999999117 ) ) ;
#249 = ORIENTED_EDGE ( 'NONE', *, *, #158, .F. ) ;
#250 = DIRECTION ( 'NONE',  ( 0.0000000000000000000, 0.0000000000000000000, -1.000000000000000000 ) ) ;
#251 = STYLED_ITEM ( 'NONE', ( #212 ), #61 ) ;
#252 = FACE_OUTER_BOUND ( 'NONE', #69, .T. ) ;
#253 = EDGE_CURVE ( 'NONE', #83, #235, #54, .T. ) ;
#254 = DIRECTION ( 'NONE',  ( -0.0000000000000000000, -0.0000000000000000000, -1.000000000000000000 ) ) ;
#255 = EDGE_LOOP ( 'NONE', ( #311, #9 ) ) ;
#256 = ADVANCED_FACE ( 'NONE', ( #252 ), #125, .T. ) ;
#257 = ORIENTED_EDGE ( 'NONE', *, *, #89, .F. ) ;
#258 = EDGE_LOOP ( 'NONE', ( #87, #187, #131, #206 ) ) ;
#259 = EDGE_LOOP ( 'NONE', ( #309, #105, #35, #47 ) ) ;
#260 =( CONVERSION_BASED_UNIT ( 'INCH', #139 ) LENGTH_UNIT ( ) NAMED_UNIT ( #281 ) );
#261 = ORIENTED_EDGE ( 'NONE', *, *, #279, .F. ) ;
#262 = AXIS2_PLACEMENT_3D ( 'NONE', #64, #170, #263 ) ;
#263 = DIRECTION ( 'NONE',  ( 1.000000000000000000, 0.0000000000000000000, 0.0000000000000000000 ) ) ;
#264 = FACE_OUTER_BOUND ( 'NONE', #282, .T. ) ;
#265 = CARTESIAN_POINT ( 'NONE',  ( 0.0000000000000000000, 0.0000000000000000000, 0.0000000000000000000 ) ) ;
#266 = STYLED_ITEM ( 'NONE', ( #59 ), #209 ) ;
#267 = DIRECTION ( 'NONE',  ( 0.0000000000000000000, -1.000000000000000000, 0.0000000000000000000 ) ) ;
#268 = EDGE_CURVE ( 'NONE', #48, #159, #277, .T. ) ;
#269 = DIRECTION ( 'NONE',  ( -1.000000000000000000, 1.224646799147353207E-16, 0.0000000000000000000 ) ) ;
#270 = DIRECTION ( 'NONE',  ( -1.000000000000000000, 0.0000000000000000000, 1.224646799147353207E-16 ) ) ;
#271 =( NAMED_UNIT ( * ) SI_UNIT ( $, .STERADIAN. ) SOLID_ANGLE_UNIT ( ) );
#272 = CARTESIAN_POINT ( 'NONE',  ( 0.0000000000000000000, 0.0000000000000000000, 1.481062999999999574 ) ) ;
#273 = ORIENTED_EDGE ( 'NONE', *, *, #89, .T. ) ;
#274 = CARTESIAN_POINT ( 'NONE',  ( 0.04405499999999973326, 5.395181473643630390E-18, 1.496062999999999921 ) ) ;
#275 = CIRCLE ( 'NONE', #302, 0.05905500000000000332 ) ;
#276 = CARTESIAN_POINT ( 'NONE',  ( 0.0000000000000000000, 0.0000000000000000000, 1.496062999999999921 ) ) ;
#277 = LINE ( 'NONE', #75, #164 ) ;
#278 = ORIENTED_EDGE ( 'NONE', *, *, #32, .F. ) ;
#279 = EDGE_CURVE ( 'NONE', #235, #48, #323, .T. ) ;
#280 = DIRECTION ( 'NONE',  ( 0.0000000000000000000, 0.0000000000000000000, 1.000000000000000000 ) ) ;
#281 = DIMENSIONAL_EXPONENTS ( 1.000000000000000000, 0.0000000000000000000, 0.0000000000000000000, 0.0000000000000000000, 0.0000000000000000000, 0.0000000000000000000, 0.0000000000000000000 ) ;
#282 = EDGE_LOOP ( 'NONE', ( #138, #118, #7, #261 ) ) ;
#283 = PRODUCT ( 'Micro_BMSM-019-2X', 'Micro_BMSM-019-2X', '', ( #292 ) ) ;
#284 = AXIS2_PLACEMENT_3D ( 'NONE', #109, #288, #133 ) ;
#285 =( LENGTH_UNIT ( ) NAMED_UNIT ( * ) SI_UNIT ( $, .METRE. ) );
#286 = PRODUCT_DEFINITION ( 'UNKNOWN', '', #93, #246 ) ;
#287 = ORIENTED_EDGE ( 'NONE', *, *, #36, .F. ) ;
#288 = DIRECTION ( 'NONE',  ( -0.0000000000000000000, -0.0000000000000000000, -1.000000000000000000 ) ) ;
#289 = EDGE_CURVE ( 'NONE', #88, #65, #201, .T. ) ;
#290 = SURFACE_STYLE_FILL_AREA ( #192 ) ;
#291 = PRESENTATION_LAYER_ASSIGNMENT (  '', '', ( #251 ) ) ;
#292 = PRODUCT_CONTEXT ( 'NONE', #183, 'mechanical' ) ;
#293 = ORIENTED_EDGE ( 'NONE', *, *, #178, .T. ) ;
#294 = FILL_AREA_STYLE_COLOUR ( '', #194 ) ;
#295 = EDGE_CURVE ( 'NONE', #235, #13, #101, .T. ) ;
#296 = UNCERTAINTY_MEASURE_WITH_UNIT (LENGTH_MEASURE( 1.000000000000000082E-05 ), #260, 'distance_accuracy_value', 'NONE');
#297 = FACE_OUTER_BOUND ( 'NONE', #259, .T. ) ;
#298 = AXIS2_PLACEMENT_3D ( 'NONE', #245, #219, #94 ) ;
#299 = AXIS2_PLACEMENT_3D ( 'NONE', #26, #68, #29 ) ;
#300 = DIRECTION ( 'NONE',  ( 0.1736481776669313859, 0.0000000000000000000, 0.9848077530122077983 ) ) ;
#301 = CLOSED_SHELL ( 'NONE', ( #256, #114, #216, #78, #137, #315, #236, #50, #45, #104, #81 ) ) ;
#302 = AXIS2_PLACEMENT_3D ( 'NONE', #272, #250, #227 ) ;
#303 = DIRECTION ( 'NONE',  ( 0.7071067811865482389, 8.659560562354941486E-17, -0.7071067811865469066 ) ) ;
#304 = DIRECTION ( 'NONE',  ( 0.0000000000000000000, 1.000000000000000000, 0.0000000000000000000 ) ) ;
#305 = DIRECTION ( 'NONE',  ( -0.0000000000000000000, -0.0000000000000000000, -1.000000000000000000 ) ) ;
#306 = AXIS2_PLACEMENT_3D ( 'NONE', #96, #18, #270 ) ;
#307 = DIRECTION ( 'NONE',  ( 0.0000000000000000000, 0.0000000000000000000, 1.000000000000000000 ) ) ;
#308 = DIMENSIONAL_EXPONENTS ( 1.000000000000000000, 0.0000000000000000000, 0.0000000000000000000, 0.0000000000000000000, 0.0000000000000000000, 0.0000000000000000000, 0.0000000000000000000 ) ;
#309 = ORIENTED_EDGE ( 'NONE', *, *, #151, .T. ) ;
#310 = FILL_AREA_STYLE_COLOUR ( '', #86 ) ;
#311 = ORIENTED_EDGE ( 'NONE', *, *, #242, .T. ) ;
#312 = ORIENTED_EDGE ( 'NONE', *, *, #20, .T. ) ;
#313 = MECHANICAL_DESIGN_GEOMETRIC_PRESENTATION_REPRESENTATION (  '', ( #266 ), #221 ) ;
#314 =( NAMED_UNIT ( * ) PLANE_ANGLE_UNIT ( ) SI_UNIT ( $, .RADIAN. ) );
#315 = ADVANCED_FACE ( 'NONE', ( #79 ), #14, .T. ) ;
#316 = CARTESIAN_POINT ( 'NONE',  ( 0.0000000000000000000, 0.0000000000000000000, 1.496062999999999921 ) ) ;
#317 = CARTESIAN_POINT ( 'NONE',  ( 1.350001645508076191E-17, 0.0000000000000000000, 0.1102360000000000007 ) ) ;
#318 = VECTOR ( 'NONE', #303, 39.37007874015748143 ) ;
#319 = DIRECTION ( 'NONE',  ( 1.000000000000000000, 0.0000000000000000000, 0.0000000000000000000 ) ) ;
#320 = CARTESIAN_POINT ( 'NONE',  ( -0.03736409849999999117, 4.575782363105143009E-18, 0.1102360000000000007 ) ) ;
#321 = LINE ( 'NONE', #21, #153 ) ;
#322 = SPHERICAL_SURFACE ( 'NONE', #56, 0.03736409849999999810 ) ;
#323 = CIRCLE ( 'NONE', #100, 0.05905500000000000332 ) ;
#324 = CARTESIAN_POINT ( 'NONE',  ( 0.0000000000000000000, 0.0000000000000000000, 1.496062999999999921 ) ) ;
#325 = CARTESIAN_POINT ( 'NONE',  ( 0.03736409850000001198, 0.0000000000000000000, 0.1102360000000000007 ) ) ;
ENDSEC;
END-ISO-10303-21;
