ISO-10303-21;
HEADER;
FILE_DESCRIPTION (( 'STEP AP214' ),
    '1' );
FILE_NAME ('Micro_RTC-250-230.STEP',
    '2021-09-03T18:11:42',
    ( '' ),
    ( '' ),
    'SwSTEP 2.0',
    'SolidWorks 2020',
    '' );
FILE_SCHEMA (( 'AUTOMOTIVE_DESIGN' ));
ENDSEC;

DATA;
#1 = EDGE_LOOP ( 'NONE', ( #82, #59, #231, #174 ) ) ;
#2 = CARTESIAN_POINT ( 'NONE',  ( 0.0000000000000000000, 0.0000000000000000000, 2.089474411167425050 ) ) ;
#3 = CARTESIAN_POINT ( 'NONE',  ( -0.1250000000000000000, 0.0000000000000000000, 2.089474411167425050 ) ) ;
#4 = CARTESIAN_POINT ( 'NONE',  ( 0.0000000000000000000, 0.0000000000000000000, 0.0000000000000000000 ) ) ;
#5 = CARTESIAN_POINT ( 'NONE',  ( 0.1250000000000000000, 1.530808498934191509E-17, 2.500000000000000000 ) ) ;
#6 = DIMENSIONAL_EXPONENTS ( 1.000000000000000000, 0.0000000000000000000, 0.0000000000000000000, 0.0000000000000000000, 0.0000000000000000000, 0.0000000000000000000, 0.0000000000000000000 ) ;
#7 = CARTESIAN_POINT ( 'NONE',  ( 0.0000000000000000000, 0.0000000000000000000, 0.0000000000000000000 ) ) ;
#8 = SURFACE_STYLE_FILL_AREA ( #203 ) ;
#9 = ORIENTED_EDGE ( 'NONE', *, *, #179, .F. ) ;
#10 = CIRCLE ( 'NONE', #94, 0.01499999999999999944 ) ;
#11 = CONICAL_SURFACE ( 'NONE', #12, 0.01499999999999999944, 0.2617993877991502960 ) ;
#12 = AXIS2_PLACEMENT_3D ( 'NONE', #112, #164, #232 ) ;
#13 = DIMENSIONAL_EXPONENTS ( 1.000000000000000000, 0.0000000000000000000, 0.0000000000000000000, 0.0000000000000000000, 0.0000000000000000000, 0.0000000000000000000, 0.0000000000000000000 ) ;
#14 = VERTEX_POINT ( 'NONE', #47 ) ;
#15 = ORIENTED_EDGE ( 'NONE', *, *, #90, .F. ) ;
#16 = DIRECTION ( 'NONE',  ( 1.000000000000000000, 0.0000000000000000000, -0.0000000000000000000 ) ) ;
#17 = ORIENTED_EDGE ( 'NONE', *, *, #188, .F. ) ;
#18 = DIRECTION ( 'NONE',  ( 0.0000000000000000000, 0.0000000000000000000, 1.000000000000000000 ) ) ;
#19 = EDGE_CURVE ( 'NONE', #172, #76, #197, .T. ) ;
#20 = DIRECTION ( 'NONE',  ( -0.0000000000000000000, -0.0000000000000000000, -1.000000000000000000 ) ) ;
#21 = MANIFOLD_SOLID_BREP ( 'Mirror1', #106 ) ;
#22 = DIRECTION ( 'NONE',  ( -1.000000000000000000, 0.0000000000000000000, 0.0000000000000000000 ) ) ;
#23 = VECTOR ( 'NONE', #218, 39.37007874015748143 ) ;
#24 = ORIENTED_EDGE ( 'NONE', *, *, #186, .T. ) ;
#25 = CARTESIAN_POINT ( 'NONE',  ( 0.0000000000000000000, 0.0000000000000000000, 0.4105255888325749503 ) ) ;
#26 = AXIS2_PLACEMENT_3D ( 'NONE', #32, #108, #189 ) ;
#27 = CONICAL_SURFACE ( 'NONE', #31, 0.01499999999999999944, 0.2617993877991502960 ) ;
#28 = CARTESIAN_POINT ( 'NONE',  ( 0.0000000000000000000, 0.0000000000000000000, 0.0000000000000000000 ) ) ;
#29 = CIRCLE ( 'NONE', #248, 0.01499999999999999944 ) ;
#30 = AXIS2_PLACEMENT_3D ( 'NONE', #105, #181, #247 ) ;
#31 = AXIS2_PLACEMENT_3D ( 'NONE', #4, #60, #133 ) ;
#32 = CARTESIAN_POINT ( 'NONE',  ( 0.0000000000000000000, 0.0000000000000000000, 2.500000000000000000 ) ) ;
#33 = LENGTH_MEASURE_WITH_UNIT ( LENGTH_MEASURE( 0.02539999999999999897 ), #73 );
#34 = DIRECTION ( 'NONE',  ( -1.000000000000000000, 0.0000000000000000000, 0.0000000000000000000 ) ) ;
#35 = ORIENTED_EDGE ( 'NONE', *, *, #182, .F. ) ;
#36 = DIRECTION ( 'NONE',  ( -1.000000000000000000, 0.0000000000000000000, 0.0000000000000000000 ) ) ;
#37 = ADVANCED_FACE ( 'NONE', ( #147 ), #146, .T. ) ;
#38 = DIRECTION ( 'NONE',  ( -0.0000000000000000000, -0.0000000000000000000, -1.000000000000000000 ) ) ;
#39 = CARTESIAN_POINT ( 'NONE',  ( 0.0000000000000000000, 0.0000000000000000000, 2.089474411167425050 ) ) ;
#40 = VERTEX_POINT ( 'NONE', #229 ) ;
#41 = FACE_OUTER_BOUND ( 'NONE', #169, .T. ) ;
#42 = VECTOR ( 'NONE', #157, 39.37007874015748143 ) ;
#43 = UNCERTAINTY_MEASURE_WITH_UNIT (LENGTH_MEASURE( 1.000000000000000082E-05 ), #161, 'distance_accuracy_value', 'NONE');
#44 = ORIENTED_EDGE ( 'NONE', *, *, #19, .F. ) ;
#45 = EDGE_CURVE ( 'NONE', #172, #40, #126, .T. ) ;
#46 = CARTESIAN_POINT ( 'NONE',  ( 0.1250000000000000000, 1.530808498934191509E-17, 0.4105255888325749503 ) ) ;
#47 = CARTESIAN_POINT ( 'NONE',  ( -0.01499999999999999944, 8.572527594031471957E-18, 0.0000000000000000000 ) ) ;
#48 = FILL_AREA_STYLE_COLOUR ( '', #114 ) ;
#49 = CIRCLE ( 'NONE', #150, 0.1250000000000000000 ) ;
#50 = LENGTH_MEASURE_WITH_UNIT ( LENGTH_MEASURE( 0.02539999999999999897 ), #102 );
#51 = CARTESIAN_POINT ( 'NONE',  ( 0.01499999999999999944, 0.0000000000000000000, 2.500000000000000000 ) ) ;
#52 = PRESENTATION_LAYER_ASSIGNMENT (  '', '', ( #71 ) ) ;
#53 = FACE_OUTER_BOUND ( 'NONE', #1, .T. ) ;
#54 = EDGE_LOOP ( 'NONE', ( #17, #113, #137, #160 ) ) ;
#55 = DIRECTION ( 'NONE',  ( -1.000000000000000000, 0.0000000000000000000, 0.0000000000000000000 ) ) ;
#56 = AXIS2_PLACEMENT_3D ( 'NONE', #7, #57, #221 ) ;
#57 = DIRECTION ( 'NONE',  ( 0.0000000000000000000, 0.0000000000000000000, 1.000000000000000000 ) ) ;
#58 = CARTESIAN_POINT ( 'NONE',  ( -0.01499999999999999944, -1.836970198721029595E-18, 2.500000000000000000 ) ) ;
#59 = ORIENTED_EDGE ( 'NONE', *, *, #179, .T. ) ;
#60 = DIRECTION ( 'NONE',  ( 0.0000000000000000000, 0.0000000000000000000, 1.000000000000000000 ) ) ;
#61 = ORIENTED_EDGE ( 'NONE', *, *, #109, .T. ) ;
#62 = CARTESIAN_POINT ( 'NONE',  ( -0.01499999999999999944, 1.836970198721029595E-18, 0.0000000000000000000 ) ) ;
#63 = AXIS2_PLACEMENT_3D ( 'NONE', #135, #245, #159 ) ;
#64 = ORIENTED_EDGE ( 'NONE', *, *, #235, .F. ) ;
#65 = EDGE_CURVE ( 'NONE', #76, #172, #154, .T. ) ;
#66 = ORIENTED_EDGE ( 'NONE', *, *, #109, .F. ) ;
#67 = AXIS2_PLACEMENT_3D ( 'NONE', #28, #241, #68 ) ;
#68 = DIRECTION ( 'NONE',  ( 1.000000000000000000, 0.0000000000000000000, 0.0000000000000000000 ) ) ;
#69 = PRODUCT_DEFINITION ( 'UNKNOWN', '', #236, #226 ) ;
#70 = PRODUCT_CONTEXT ( 'NONE', #185, 'mechanical' ) ;
#71 = STYLED_ITEM ( 'NONE', ( #140 ), #21 ) ;
#72 = ADVANCED_FACE ( 'NONE', ( #168 ), #149, .T. ) ;
#73 =( LENGTH_UNIT ( ) NAMED_UNIT ( * ) SI_UNIT ( $, .METRE. ) );
#74 = VERTEX_POINT ( 'NONE', #191 ) ;
#75 = DIRECTION ( 'NONE',  ( 0.0000000000000000000, 0.0000000000000000000, -1.000000000000000000 ) ) ;
#76 = VERTEX_POINT ( 'NONE', #110 ) ;
#77 = CARTESIAN_POINT ( 'NONE',  ( 0.0000000000000000000, 0.0000000000000000000, 0.4105255888325749503 ) ) ;
#78 = AXIS2_PLACEMENT_3D ( 'NONE', #138, #18, #16 ) ;
#79 = FACE_OUTER_BOUND ( 'NONE', #209, .T. ) ;
#80 = ADVANCED_FACE ( 'NONE', ( #53 ), #11, .T. ) ;
#81 = DIRECTION ( 'NONE',  ( -0.0000000000000000000, -0.0000000000000000000, -1.000000000000000000 ) ) ;
#82 = ORIENTED_EDGE ( 'NONE', *, *, #19, .T. ) ;
#83 = LINE ( 'NONE', #58, #42 ) ;
#84 =( GEOMETRIC_REPRESENTATION_CONTEXT ( 3 ) GLOBAL_UNCERTAINTY_ASSIGNED_CONTEXT ( ( #200 ) ) GLOBAL_UNIT_ASSIGNED_CONTEXT ( ( #145, #87, #123 ) ) REPRESENTATION_CONTEXT ( 'NONE', 'WORKASPACE' ) );
#85 = EDGE_CURVE ( 'NONE', #240, #74, #238, .T. ) ;
#86 = PRODUCT ( 'Micro_RTC-250-230', 'Micro_RTC-250-230', '', ( #70 ) ) ;
#87 =( NAMED_UNIT ( * ) PLANE_ANGLE_UNIT ( ) SI_UNIT ( $, .RADIAN. ) );
#88 = AXIS2_PLACEMENT_3D ( 'NONE', #143, #92, #171 ) ;
#89 = FILL_AREA_STYLE ('',( #222 ) ) ;
#90 = EDGE_CURVE ( 'NONE', #100, #74, #129, .T. ) ;
#91 = VECTOR ( 'NONE', #81, 39.37007874015748143 ) ;
#92 = DIRECTION ( 'NONE',  ( 0.0000000000000000000, 0.0000000000000000000, -1.000000000000000000 ) ) ;
#93 = ORIENTED_EDGE ( 'NONE', *, *, #65, .T. ) ;
#94 = AXIS2_PLACEMENT_3D ( 'NONE', #175, #176, #36 ) ;
#95 = DIRECTION ( 'NONE',  ( 0.2588190451025216832, 0.0000000000000000000, 0.9659258262890679791 ) ) ;
#96 = DIRECTION ( 'NONE',  ( -0.0000000000000000000, -0.0000000000000000000, -1.000000000000000000 ) ) ;
#97 = UNCERTAINTY_MEASURE_WITH_UNIT (LENGTH_MEASURE( 1.000000000000000082E-05 ), #187, 'distance_accuracy_value', 'NONE');
#98 =( GEOMETRIC_REPRESENTATION_CONTEXT ( 3 ) GLOBAL_UNCERTAINTY_ASSIGNED_CONTEXT ( ( #43 ) ) GLOBAL_UNIT_ASSIGNED_CONTEXT ( ( #161, #227, #125 ) ) REPRESENTATION_CONTEXT ( 'NONE', 'WORKASPACE' ) );
#99 = LINE ( 'NONE', #5, #91 ) ;
#100 = VERTEX_POINT ( 'NONE', #46 ) ;
#101 = CARTESIAN_POINT ( 'NONE',  ( 0.0000000000000000000, 0.0000000000000000000, 2.500000000000000000 ) ) ;
#102 =( LENGTH_UNIT ( ) NAMED_UNIT ( * ) SI_UNIT ( $, .METRE. ) );
#103 = APPLICATION_PROTOCOL_DEFINITION ( 'draft international standard', 'automotive_design', 1998, #228 ) ;
#104 = AXIS2_PLACEMENT_3D ( 'NONE', #77, #128, #55 ) ;
#105 = CARTESIAN_POINT ( 'NONE',  ( 0.0000000000000000000, 0.0000000000000000000, 0.0000000000000000000 ) ) ;
#106 = CLOSED_SHELL ( 'NONE', ( #80, #136, #170, #72, #243, #148, #37, #204 ) ) ;
#107 = AXIS2_PLACEMENT_3D ( 'NONE', #2, #75, #213 ) ;
#108 = DIRECTION ( 'NONE',  ( 0.0000000000000000000, 0.0000000000000000000, -1.000000000000000000 ) ) ;
#109 = EDGE_CURVE ( 'NONE', #74, #100, #214, .T. ) ;
#110 = CARTESIAN_POINT ( 'NONE',  ( -0.01499999999999999944, -8.572527594031473498E-18, 2.500000000000000000 ) ) ;
#111 = ORIENTED_EDGE ( 'NONE', *, *, #65, .F. ) ;
#112 = CARTESIAN_POINT ( 'NONE',  ( 0.0000000000000000000, 0.0000000000000000000, 2.500000000000000000 ) ) ;
#113 = ORIENTED_EDGE ( 'NONE', *, *, #167, .F. ) ;
#114 = COLOUR_RGB ( '',0.7921568627450980005, 0.8196078431372548767, 0.9333333333333333481 ) ;
#115 = CARTESIAN_POINT ( 'NONE',  ( 0.01499999999999999944, 0.0000000000000000000, 0.0000000000000000000 ) ) ;
#116 = CARTESIAN_POINT ( 'NONE',  ( 0.0000000000000000000, 0.0000000000000000000, 0.0000000000000000000 ) ) ;
#117 = AXIS2_PLACEMENT_3D ( 'NONE', #230, #211, #34 ) ;
#118 = EDGE_LOOP ( 'NONE', ( #121, #139 ) ) ;
#119 = PLANE ( 'NONE',  #78 ) ;
#120 = SURFACE_STYLE_USAGE ( .BOTH. , #122 ) ;
#121 = ORIENTED_EDGE ( 'NONE', *, *, #167, .T. ) ;
#122 = SURFACE_SIDE_STYLE ('',( #8 ) ) ;
#123 =( NAMED_UNIT ( * ) SI_UNIT ( $, .STERADIAN. ) SOLID_ANGLE_UNIT ( ) );
#124 = AXIS2_PLACEMENT_3D ( 'NONE', #101, #38, #22 ) ;
#125 =( NAMED_UNIT ( * ) SI_UNIT ( $, .STERADIAN. ) SOLID_ANGLE_UNIT ( ) );
#126 = LINE ( 'NONE', #51, #205 ) ;
#127 = ORIENTED_EDGE ( 'NONE', *, *, #45, .T. ) ;
#128 = DIRECTION ( 'NONE',  ( -0.0000000000000000000, -0.0000000000000000000, -1.000000000000000000 ) ) ;
#129 = CIRCLE ( 'NONE', #104, 0.1250000000000000000 ) ;
#130 = FACE_OUTER_BOUND ( 'NONE', #118, .T. ) ;
#131 = CARTESIAN_POINT ( 'NONE',  ( -0.1250000000000000000, 0.0000000000000000000, 2.500000000000000000 ) ) ;
#132 = EDGE_CURVE ( 'NONE', #14, #210, #29, .T. ) ;
#133 = DIRECTION ( 'NONE',  ( 1.000000000000000000, 0.0000000000000000000, 0.0000000000000000000 ) ) ;
#134 =( GEOMETRIC_REPRESENTATION_CONTEXT ( 3 ) GLOBAL_UNCERTAINTY_ASSIGNED_CONTEXT ( ( #97 ) ) GLOBAL_UNIT_ASSIGNED_CONTEXT ( ( #187, #206, #208 ) ) REPRESENTATION_CONTEXT ( 'NONE', 'WORKASPACE' ) );
#135 = CARTESIAN_POINT ( 'NONE',  ( 0.0000000000000000000, 0.0000000000000000000, 2.500000000000000000 ) ) ;
#136 = ADVANCED_FACE ( 'NONE', ( #196 ), #27, .T. ) ;
#137 = ORIENTED_EDGE ( 'NONE', *, *, #235, .T. ) ;
#138 = CARTESIAN_POINT ( 'NONE',  ( 0.0000000000000000000, 0.0000000000000000000, 2.500000000000000000 ) ) ;
#139 = ORIENTED_EDGE ( 'NONE', *, *, #132, .T. ) ;
#140 = PRESENTATION_STYLE_ASSIGNMENT (( #120 ) ) ;
#141 = ORIENTED_EDGE ( 'NONE', *, *, #186, .F. ) ;
#142 = SURFACE_SIDE_STYLE ('',( #202 ) ) ;
#143 = CARTESIAN_POINT ( 'NONE',  ( 0.0000000000000000000, 0.0000000000000000000, 2.500000000000000000 ) ) ;
#144 =( LENGTH_UNIT ( ) NAMED_UNIT ( * ) SI_UNIT ( $, .METRE. ) );
#145 =( CONVERSION_BASED_UNIT ( 'INCH', #50 ) LENGTH_UNIT ( ) NAMED_UNIT ( #13 ) );
#146 = CONICAL_SURFACE ( 'NONE', #88, 0.01499999999999999944, 0.2617993877991502960 ) ;
#147 = FACE_OUTER_BOUND ( 'NONE', #180, .T. ) ;
#148 = ADVANCED_FACE ( 'NONE', ( #130 ), #156, .F. ) ;
#149 = CYLINDRICAL_SURFACE ( 'NONE', #117, 0.1250000000000000000 ) ;
#150 = AXIS2_PLACEMENT_3D ( 'NONE', #39, #216, #239 ) ;
#151 = EDGE_LOOP ( 'NONE', ( #220, #190, #61, #64 ) ) ;
#152 = LINE ( 'NONE', #115, #183 ) ;
#153 = ORIENTED_EDGE ( 'NONE', *, *, #85, .T. ) ;
#154 = CIRCLE ( 'NONE', #26, 0.01499999999999999944 ) ;
#155 = CYLINDRICAL_SURFACE ( 'NONE', #124, 0.1250000000000000000 ) ;
#156 = PLANE ( 'NONE',  #56 ) ;
#157 = DIRECTION ( 'NONE',  ( -0.2588190451025216832, -3.169619151431776035E-17, -0.9659258262890679791 ) ) ;
#158 = STYLED_ITEM ( 'NONE', ( #184 ), #212 ) ;
#159 = DIRECTION ( 'NONE',  ( -1.000000000000000000, 0.0000000000000000000, 0.0000000000000000000 ) ) ;
#160 = ORIENTED_EDGE ( 'NONE', *, *, #90, .T. ) ;
#161 =( CONVERSION_BASED_UNIT ( 'INCH', #242 ) LENGTH_UNIT ( ) NAMED_UNIT ( #6 ) );
#162 = PRESENTATION_LAYER_ASSIGNMENT (  '', '', ( #158 ) ) ;
#163 = APPLICATION_PROTOCOL_DEFINITION ( 'draft international standard', 'automotive_design', 1998, #185 ) ;
#164 = DIRECTION ( 'NONE',  ( 0.0000000000000000000, 0.0000000000000000000, -1.000000000000000000 ) ) ;
#165 = AXIS2_PLACEMENT_3D ( 'NONE', #25, #178, #215 ) ;
#166 = PRODUCT_DEFINITION_SHAPE ( 'NONE', 'NONE',  #69 ) ;
#167 = EDGE_CURVE ( 'NONE', #210, #14, #10, .T. ) ;
#168 = FACE_OUTER_BOUND ( 'NONE', #194, .T. ) ;
#169 = EDGE_LOOP ( 'NONE', ( #44, #111 ) ) ;
#170 = ADVANCED_FACE ( 'NONE', ( #79 ), #155, .T. ) ;
#171 = DIRECTION ( 'NONE',  ( 1.000000000000000000, 0.0000000000000000000, 0.0000000000000000000 ) ) ;
#172 = VERTEX_POINT ( 'NONE', #237 ) ;
#173 = CARTESIAN_POINT ( 'NONE',  ( 0.01499999999999999944, 0.0000000000000000000, 0.0000000000000000000 ) ) ;
#174 = ORIENTED_EDGE ( 'NONE', *, *, #45, .F. ) ;
#175 = CARTESIAN_POINT ( 'NONE',  ( 0.0000000000000000000, 0.0000000000000000000, 0.0000000000000000000 ) ) ;
#176 = DIRECTION ( 'NONE',  ( -0.0000000000000000000, -0.0000000000000000000, -1.000000000000000000 ) ) ;
#177 = CONICAL_SURFACE ( 'NONE', #67, 0.01499999999999999944, 0.2617993877991502960 ) ;
#178 = DIRECTION ( 'NONE',  ( -0.0000000000000000000, -0.0000000000000000000, -1.000000000000000000 ) ) ;
#179 = EDGE_CURVE ( 'NONE', #76, #240, #83, .T. ) ;
#180 = EDGE_LOOP ( 'NONE', ( #9, #93, #127, #35 ) ) ;
#181 = DIRECTION ( 'NONE',  ( 0.0000000000000000000, 0.0000000000000000000, 1.000000000000000000 ) ) ;
#182 = EDGE_CURVE ( 'NONE', #240, #40, #49, .T. ) ;
#183 = VECTOR ( 'NONE', #95, 39.37007874015748143 ) ;
#184 = PRESENTATION_STYLE_ASSIGNMENT (( #224 ) ) ;
#185 = APPLICATION_CONTEXT ( 'automotive_design' ) ;
#186 = EDGE_CURVE ( 'NONE', #40, #100, #99, .T. ) ;
#187 =( CONVERSION_BASED_UNIT ( 'INCH', #33 ) LENGTH_UNIT ( ) NAMED_UNIT ( #219 ) );
#188 = EDGE_CURVE ( 'NONE', #14, #74, #199, .T. ) ;
#189 = DIRECTION ( 'NONE',  ( -1.000000000000000000, 0.0000000000000000000, 0.0000000000000000000 ) ) ;
#190 = ORIENTED_EDGE ( 'NONE', *, *, #188, .T. ) ;
#191 = CARTESIAN_POINT ( 'NONE',  ( -0.1250000000000000000, 0.0000000000000000000, 0.4105255888325749503 ) ) ;
#192 = ORIENTED_EDGE ( 'NONE', *, *, #225, .T. ) ;
#193 = DIRECTION ( 'NONE',  ( -1.000000000000000000, 0.0000000000000000000, 0.0000000000000000000 ) ) ;
#194 = EDGE_LOOP ( 'NONE', ( #141, #192, #153, #15 ) ) ;
#195 = PRODUCT_RELATED_PRODUCT_CATEGORY ( 'part', '', ( #86 ) ) ;
#196 = FACE_OUTER_BOUND ( 'NONE', #151, .T. ) ;
#197 = CIRCLE ( 'NONE', #63, 0.01499999999999999944 ) ;
#198 = ORIENTED_EDGE ( 'NONE', *, *, #182, .T. ) ;
#199 = LINE ( 'NONE', #62, #23 ) ;
#200 = UNCERTAINTY_MEASURE_WITH_UNIT (LENGTH_MEASURE( 1.000000000000000082E-05 ), #145, 'distance_accuracy_value', 'NONE');
#201 = MECHANICAL_DESIGN_GEOMETRIC_PRESENTATION_REPRESENTATION (  '', ( #71 ), #134 ) ;
#202 = SURFACE_STYLE_FILL_AREA ( #89 ) ;
#203 = FILL_AREA_STYLE ('',( #48 ) ) ;
#204 = ADVANCED_FACE ( 'NONE', ( #41 ), #119, .T. ) ;
#205 = VECTOR ( 'NONE', #207, 39.37007874015748143 ) ;
#206 =( NAMED_UNIT ( * ) PLANE_ANGLE_UNIT ( ) SI_UNIT ( $, .RADIAN. ) );
#207 = DIRECTION ( 'NONE',  ( 0.2588190451025216832, 0.0000000000000000000, -0.9659258262890679791 ) ) ;
#208 =( NAMED_UNIT ( * ) SI_UNIT ( $, .STERADIAN. ) SOLID_ANGLE_UNIT ( ) );
#209 = EDGE_LOOP ( 'NONE', ( #198, #24, #66, #217 ) ) ;
#210 = VERTEX_POINT ( 'NONE', #173 ) ;
#211 = DIRECTION ( 'NONE',  ( -0.0000000000000000000, -0.0000000000000000000, -1.000000000000000000 ) ) ;
#212 = ADVANCED_BREP_SHAPE_REPRESENTATION ( 'Micro_RTC-250-230', ( #21, #30 ), #98 ) ;
#213 = DIRECTION ( 'NONE',  ( -1.000000000000000000, 0.0000000000000000000, 0.0000000000000000000 ) ) ;
#214 = CIRCLE ( 'NONE', #165, 0.1250000000000000000 ) ;
#215 = DIRECTION ( 'NONE',  ( -1.000000000000000000, 0.0000000000000000000, 0.0000000000000000000 ) ) ;
#216 = DIRECTION ( 'NONE',  ( 0.0000000000000000000, 0.0000000000000000000, -1.000000000000000000 ) ) ;
#217 = ORIENTED_EDGE ( 'NONE', *, *, #85, .F. ) ;
#218 = DIRECTION ( 'NONE',  ( -0.2588190451025216832, 3.169619151431776035E-17, 0.9659258262890679791 ) ) ;
#219 = DIMENSIONAL_EXPONENTS ( 1.000000000000000000, 0.0000000000000000000, 0.0000000000000000000, 0.0000000000000000000, 0.0000000000000000000, 0.0000000000000000000, 0.0000000000000000000 ) ;
#220 = ORIENTED_EDGE ( 'NONE', *, *, #132, .F. ) ;
#221 = DIRECTION ( 'NONE',  ( 1.000000000000000000, 0.0000000000000000000, -0.0000000000000000000 ) ) ;
#222 = FILL_AREA_STYLE_COLOUR ( '', #244 ) ;
#223 = CIRCLE ( 'NONE', #107, 0.1250000000000000000 ) ;
#224 = SURFACE_STYLE_USAGE ( .BOTH. , #142 ) ;
#225 = EDGE_CURVE ( 'NONE', #40, #240, #223, .T. ) ;
#226 = PRODUCT_DEFINITION_CONTEXT ( 'detailed design', #228, 'design' ) ;
#227 =( NAMED_UNIT ( * ) PLANE_ANGLE_UNIT ( ) SI_UNIT ( $, .RADIAN. ) );
#228 = APPLICATION_CONTEXT ( 'automotive_design' ) ;
#229 = CARTESIAN_POINT ( 'NONE',  ( 0.1250000000000000000, 1.530808498934191509E-17, 2.089474411167425050 ) ) ;
#230 = CARTESIAN_POINT ( 'NONE',  ( 0.0000000000000000000, 0.0000000000000000000, 2.500000000000000000 ) ) ;
#231 = ORIENTED_EDGE ( 'NONE', *, *, #225, .F. ) ;
#232 = DIRECTION ( 'NONE',  ( 1.000000000000000000, 0.0000000000000000000, 0.0000000000000000000 ) ) ;
#233 = FACE_OUTER_BOUND ( 'NONE', #54, .T. ) ;
#234 = VECTOR ( 'NONE', #20, 39.37007874015748143 ) ;
#235 = EDGE_CURVE ( 'NONE', #210, #100, #152, .T. ) ;
#236 = PRODUCT_DEFINITION_FORMATION_WITH_SPECIFIED_SOURCE ( 'ANY', '', #86, .NOT_KNOWN. ) ;
#237 = CARTESIAN_POINT ( 'NONE',  ( 0.01499999999999999944, 0.0000000000000000000, 2.500000000000000000 ) ) ;
#238 = LINE ( 'NONE', #131, #234 ) ;
#239 = DIRECTION ( 'NONE',  ( -1.000000000000000000, 0.0000000000000000000, 0.0000000000000000000 ) ) ;
#240 = VERTEX_POINT ( 'NONE', #3 ) ;
#241 = DIRECTION ( 'NONE',  ( 0.0000000000000000000, 0.0000000000000000000, 1.000000000000000000 ) ) ;
#242 = LENGTH_MEASURE_WITH_UNIT ( LENGTH_MEASURE( 0.02539999999999999897 ), #144 );
#243 = ADVANCED_FACE ( 'NONE', ( #233 ), #177, .T. ) ;
#244 = COLOUR_RGB ( '',0.7921568627450980005, 0.8196078431372548767, 0.9333333333333333481 ) ;
#245 = DIRECTION ( 'NONE',  ( 0.0000000000000000000, 0.0000000000000000000, -1.000000000000000000 ) ) ;
#246 = SHAPE_DEFINITION_REPRESENTATION ( #166, #212 ) ;
#247 = DIRECTION ( 'NONE',  ( 1.000000000000000000, 0.0000000000000000000, 0.0000000000000000000 ) ) ;
#248 = AXIS2_PLACEMENT_3D ( 'NONE', #116, #96, #193 ) ;
#249 = MECHANICAL_DESIGN_GEOMETRIC_PRESENTATION_REPRESENTATION (  '', ( #158 ), #84 ) ;
ENDSEC;
END-ISO-10303-21;
