ISO-10303-21;
HEADER;
FILE_DESCRIPTION (( 'STEP AP214' ),
    '1' );
FILE_NAME ('Micro_BMR-019-2.STEP',
    '2021-09-03T13:49:04',
    ( '' ),
    ( '' ),
    'SwSTEP 2.0',
    'SolidWorks 2020',
    '' );
FILE_SCHEMA (( 'AUTOMOTIVE_DESIGN' ));
ENDSEC;

DATA;
#1 = CONICAL_SURFACE ( 'NONE', #228, 0.04750000000000064587, 0.7853981633974466137 ) ;
#2 = DIMENSIONAL_EXPONENTS ( 1.000000000000000000, 0.0000000000000000000, 0.0000000000000000000, 0.0000000000000000000, 0.0000000000000000000, 0.0000000000000000000, 0.0000000000000000000 ) ;
#3 = LINE ( 'NONE', #201, #232 ) ;
#4 = CARTESIAN_POINT ( 'NONE',  ( 1.743376567096193568E-18, 0.0000000000000000000, 0.0000000000000000000 ) ) ;
#5 = VECTOR ( 'NONE', #174, 39.37007874015748143 ) ;
#6 = MECHANICAL_DESIGN_GEOMETRIC_PRESENTATION_REPRESENTATION (  '', ( #277 ), #129 ) ;
#7 = ORIENTED_EDGE ( 'NONE', *, *, #260, .T. ) ;
#8 = DIRECTION ( 'NONE',  ( 0.0000000000000000000, 0.0000000000000000000, 1.000000000000000000 ) ) ;
#9 = CARTESIAN_POINT ( 'NONE',  ( 6.980486755139914772E-18, 0.0000000000000000000, 0.05700000000000000205 ) ) ;
#10 = ADVANCED_FACE ( 'NONE', ( #318 ), #189, .T. ) ;
#11 = ORIENTED_EDGE ( 'NONE', *, *, #198, .T. ) ;
#12 =( GEOMETRIC_REPRESENTATION_CONTEXT ( 3 ) GLOBAL_UNCERTAINTY_ASSIGNED_CONTEXT ( ( #84 ) ) GLOBAL_UNIT_ASSIGNED_CONTEXT ( ( #94, #16, #136 ) ) REPRESENTATION_CONTEXT ( 'NONE', 'WORKASPACE' ) );
#13 = AXIS2_PLACEMENT_3D ( 'NONE', #145, #73, #197 ) ;
#14 = ORIENTED_EDGE ( 'NONE', *, *, #237, .T. ) ;
#15 = DIRECTION ( 'NONE',  ( -1.000000000000000000, 0.0000000000000000000, 0.0000000000000000000 ) ) ;
#16 =( NAMED_UNIT ( * ) PLANE_ANGLE_UNIT ( ) SI_UNIT ( $, .RADIAN. ) );
#17 = ADVANCED_FACE ( 'NONE', ( #23 ), #64, .T. ) ;
#18 = CARTESIAN_POINT ( 'NONE',  ( 0.0000000000000000000, 0.0000000000000000000, 0.0000000000000000000 ) ) ;
#19 = VERTEX_POINT ( 'NONE', #114 ) ;
#20 = ADVANCED_FACE ( 'NONE', ( #238 ), #57, .T. ) ;
#21 = STYLED_ITEM ( 'NONE', ( #231 ), #317 ) ;
#22 = DIRECTION ( 'NONE',  ( -1.000000000000000000, 0.0000000000000000000, 0.0000000000000000000 ) ) ;
#23 = FACE_OUTER_BOUND ( 'NONE', #309, .T. ) ;
#24 = DIRECTION ( 'NONE',  ( 1.224646799147353454E-16, 0.0000000000000000000, 1.000000000000000000 ) ) ;
#25 = CARTESIAN_POINT ( 'NONE',  ( 0.0000000000000000000, 0.0000000000000000000, 1.500000000000000222 ) ) ;
#26 = DIRECTION ( 'NONE',  ( -1.000000000000000000, 0.0000000000000000000, 1.124417177730470153E-16 ) ) ;
#27 = EDGE_CURVE ( 'NONE', #137, #121, #29, .T. ) ;
#28 = APPLICATION_CONTEXT ( 'automotive_design' ) ;
#29 = LINE ( 'NONE', #76, #5 ) ;
#30 = PRODUCT_DEFINITION_FORMATION_WITH_SPECIFIED_SOURCE ( 'ANY', '', #110, .NOT_KNOWN. ) ;
#31 = CIRCLE ( 'NONE', #43, 0.009490500000000000672 ) ;
#32 = CARTESIAN_POINT ( 'NONE',  ( -0.06249999999999997918, 0.0000000000000000000, 0.3576318136170235085 ) ) ;
#33 = LINE ( 'NONE', #154, #40 ) ;
#34 = VERTEX_POINT ( 'NONE', #75 ) ;
#35 = LINE ( 'NONE', #86, #219 ) ;
#36 = DIRECTION ( 'NONE',  ( -1.224646799147353454E-16, -0.0000000000000000000, -1.000000000000000000 ) ) ;
#37 = SURFACE_STYLE_FILL_AREA ( #131 ) ;
#38 = ORIENTED_EDGE ( 'NONE', *, *, #41, .F. ) ;
#39 = VECTOR ( 'NONE', #150, 39.37007874015748143 ) ;
#40 = VECTOR ( 'NONE', #207, 39.37007874015748854 ) ;
#41 = EDGE_CURVE ( 'NONE', #121, #19, #89, .T. ) ;
#42 = SURFACE_SIDE_STYLE ('',( #113 ) ) ;
#43 = AXIS2_PLACEMENT_3D ( 'NONE', #52, #297, #221 ) ;
#44 = ORIENTED_EDGE ( 'NONE', *, *, #244, .F. ) ;
#45 = ORIENTED_EDGE ( 'NONE', *, *, #72, .T. ) ;
#46 = DIRECTION ( 'NONE',  ( -1.000000000000000000, 0.0000000000000000000, 0.0000000000000000000 ) ) ;
#47 = CARTESIAN_POINT ( 'NONE',  ( 4.379726558193507593E-17, 0.0000000000000000000, 0.3576318136170235085 ) ) ;
#48 = DIRECTION ( 'NONE',  ( 1.000000000000000000, 0.0000000000000000000, 0.0000000000000000000 ) ) ;
#49 = FACE_OUTER_BOUND ( 'NONE', #118, .T. ) ;
#50 = EDGE_CURVE ( 'NONE', #19, #121, #322, .T. ) ;
#51 = CARTESIAN_POINT ( 'NONE',  ( 0.009490500000000000672, 1.162251044730795519E-18, 0.009490500000000000672 ) ) ;
#52 = CARTESIAN_POINT ( 'NONE',  ( 1.162251044730795904E-18, 0.0000000000000000000, 0.009490500000000000672 ) ) ;
#53 = DIRECTION ( 'NONE',  ( 1.000000000000000000, 0.0000000000000000000, 0.0000000000000000000 ) ) ;
#54 = CARTESIAN_POINT ( 'NONE',  ( 0.0000000000000000000, 0.0000000000000000000, 0.0000000000000000000 ) ) ;
#55 = LINE ( 'NONE', #229, #39 ) ;
#56 = UNCERTAINTY_MEASURE_WITH_UNIT (LENGTH_MEASURE( 1.000000000000000082E-05 ), #139, 'distance_accuracy_value', 'NONE');
#57 = CONICAL_SURFACE ( 'NONE', #236, 0.009490500000000000672, 0.1745329251994338915 ) ;
#58 = FACE_OUTER_BOUND ( 'NONE', #259, .T. ) ;
#59 = EDGE_CURVE ( 'NONE', #163, #168, #216, .T. ) ;
#60 = EDGE_LOOP ( 'NONE', ( #62, #313, #159, #320 ) ) ;
#61 = CARTESIAN_POINT ( 'NONE',  ( 0.0000000000000000000, 0.0000000000000000000, 1.500000000000000222 ) ) ;
#62 = ORIENTED_EDGE ( 'NONE', *, *, #198, .F. ) ;
#63 = COLOUR_RGB ( '',0.7921568627450980005, 0.8196078431372548767, 0.9333333333333333481 ) ;
#64 = CONICAL_SURFACE ( 'NONE', #166, 0.04750000000000064587, 0.7853981633974466137 ) ;
#65 =( NAMED_UNIT ( * ) SI_UNIT ( $, .STERADIAN. ) SOLID_ANGLE_UNIT ( ) );
#66 = ORIENTED_EDGE ( 'NONE', *, *, #100, .F. ) ;
#67 = EDGE_LOOP ( 'NONE', ( #161, #7 ) ) ;
#68 = ORIENTED_EDGE ( 'NONE', *, *, #255, .T. ) ;
#69 = APPLICATION_PROTOCOL_DEFINITION ( 'draft international standard', 'automotive_design', 1998, #169 ) ;
#70 = CYLINDRICAL_SURFACE ( 'NONE', #273, 0.009490500000000000672 ) ;
#71 = DIRECTION ( 'NONE',  ( 1.224646799147353207E-16, 1.000000000000000000, -0.0000000000000000000 ) ) ;
#72 = EDGE_CURVE ( 'NONE', #168, #163, #224, .T. ) ;
#73 = DIRECTION ( 'NONE',  ( 0.0000000000000000000, 0.0000000000000000000, 1.000000000000000000 ) ) ;
#74 = AXIS2_PLACEMENT_3D ( 'NONE', #101, #274, #325 ) ;
#75 = CARTESIAN_POINT ( 'NONE',  ( -0.009490499999999993733, 4.408146769700877784E-18, 0.05700000000000000205 ) ) ;
#76 = CARTESIAN_POINT ( 'NONE',  ( 0.009490500000000000672, 1.162251044730795519E-18, -1.162251044730795904E-18 ) ) ;
#77 = ADVANCED_FACE ( 'NONE', ( #141 ), #1, .T. ) ;
#78 = ORIENTED_EDGE ( 'NONE', *, *, #59, .F. ) ;
#79 = DIRECTION ( 'NONE',  ( 1.000000000000000000, 0.0000000000000000000, 0.0000000000000000000 ) ) ;
#80 =( GEOMETRIC_REPRESENTATION_CONTEXT ( 3 ) GLOBAL_UNCERTAINTY_ASSIGNED_CONTEXT ( ( #56 ) ) GLOBAL_UNIT_ASSIGNED_CONTEXT ( ( #139, #185, #65 ) ) REPRESENTATION_CONTEXT ( 'NONE', 'WORKASPACE' ) );
#81 = AXIS2_PLACEMENT_3D ( 'NONE', #61, #302, #156 ) ;
#82 = DIRECTION ( 'NONE',  ( 0.7071067811865462405, 8.659560562354916834E-17, -0.7071067811865486830 ) ) ;
#83 = ORIENTED_EDGE ( 'NONE', *, *, #287, .T. ) ;
#84 = UNCERTAINTY_MEASURE_WITH_UNIT (LENGTH_MEASURE( 1.000000000000000082E-05 ), #94, 'distance_accuracy_value', 'NONE');
#85 = ORIENTED_EDGE ( 'NONE', *, *, #27, .T. ) ;
#86 = CARTESIAN_POINT ( 'NONE',  ( -0.009490499999999993733, 1.162251044730795519E-18, 0.05700000000000000205 ) ) ;
#87 = CYLINDRICAL_SURFACE ( 'NONE', #88, 0.009490500000000000672 ) ;
#88 = AXIS2_PLACEMENT_3D ( 'NONE', #54, #36, #279 ) ;
#89 = CIRCLE ( 'NONE', #199, 0.009490500000000000672 ) ;
#90 = DIRECTION ( 'NONE',  ( -0.0000000000000000000, -0.0000000000000000000, -1.000000000000000000 ) ) ;
#91 =( LENGTH_UNIT ( ) NAMED_UNIT ( * ) SI_UNIT ( $, .METRE. ) );
#92 = ORIENTED_EDGE ( 'NONE', *, *, #321, .T. ) ;
#93 = AXIS2_PLACEMENT_3D ( 'NONE', #196, #71, #123 ) ;
#94 =( CONVERSION_BASED_UNIT ( 'INCH', #314 ) LENGTH_UNIT ( ) NAMED_UNIT ( #2 ) );
#95 = ORIENTED_EDGE ( 'NONE', *, *, #103, .F. ) ;
#96 = CIRCLE ( 'NONE', #272, 0.009490500000000000672 ) ;
#97 = AXIS2_PLACEMENT_3D ( 'NONE', #225, #245, #200 ) ;
#98 = FACE_OUTER_BOUND ( 'NONE', #190, .T. ) ;
#99 = LINE ( 'NONE', #144, #149 ) ;
#100 = EDGE_CURVE ( 'NONE', #34, #137, #242, .T. ) ;
#101 = CARTESIAN_POINT ( 'NONE',  ( 0.0000000000000000000, 0.0000000000000000000, 1.485000000000000764 ) ) ;
#102 = CYLINDRICAL_SURFACE ( 'NONE', #109, 0.06250000000000002776 ) ;
#103 = EDGE_CURVE ( 'NONE', #137, #163, #276, .T. ) ;
#104 = CARTESIAN_POINT ( 'NONE',  ( 6.980486755139914772E-18, 0.0000000000000000000, 0.05700000000000000205 ) ) ;
#105 = FACE_OUTER_BOUND ( 'NONE', #288, .T. ) ;
#106 = CIRCLE ( 'NONE', #74, 0.06250000000000002776 ) ;
#107 = FILL_AREA_STYLE_COLOUR ( '', #63 ) ;
#108 = MECHANICAL_DESIGN_GEOMETRIC_PRESENTATION_REPRESENTATION (  '', ( #21 ), #12 ) ;
#109 = AXIS2_PLACEMENT_3D ( 'NONE', #299, #301, #126 ) ;
#110 = PRODUCT ( 'Micro_BMR-019-2', 'Micro_BMR-019-2', '', ( #235 ) ) ;
#111 = EDGE_CURVE ( 'NONE', #204, #121, #31, .T. ) ;
#112 = ORIENTED_EDGE ( 'NONE', *, *, #260, .F. ) ;
#113 = SURFACE_STYLE_FILL_AREA ( #266 ) ;
#114 = CARTESIAN_POINT ( 'NONE',  ( -0.009490499999999998937, 0.0000000000000000000, 0.009490500000000002406 ) ) ;
#115 = APPLICATION_PROTOCOL_DEFINITION ( 'draft international standard', 'automotive_design', 1998, #28 ) ;
#116 = EDGE_LOOP ( 'NONE', ( #157, #14, #296, #233 ) ) ;
#117 = PRODUCT_RELATED_PRODUCT_CATEGORY ( 'part', '', ( #110 ) ) ;
#118 = EDGE_LOOP ( 'NONE', ( #147, #181, #217, #319 ) ) ;
#119 = CIRCLE ( 'NONE', #278, 0.06250000000000002776 ) ;
#120 = DIRECTION ( 'NONE',  ( 0.1736481776669313859, 0.0000000000000000000, 0.9848077530122077983 ) ) ;
#121 = VERTEX_POINT ( 'NONE', #51 ) ;
#122 = DIRECTION ( 'NONE',  ( 1.000000000000000000, 0.0000000000000000000, 0.0000000000000000000 ) ) ;
#123 = DIRECTION ( 'NONE',  ( -1.000000000000000000, 1.224646799147352961E-16, 0.0000000000000000000 ) ) ;
#124 = DIRECTION ( 'NONE',  ( -1.224646799147353454E-16, -0.0000000000000000000, -1.000000000000000000 ) ) ;
#125 = CONICAL_SURFACE ( 'NONE', #97, 0.009490500000000000672, 0.1745329251994338915 ) ;
#126 = DIRECTION ( 'NONE',  ( -1.000000000000000000, 0.0000000000000000000, 0.0000000000000000000 ) ) ;
#127 = DIRECTION ( 'NONE',  ( 0.0000000000000000000, 1.000000000000000000, 0.0000000000000000000 ) ) ;
#128 = FACE_OUTER_BOUND ( 'NONE', #165, .T. ) ;
#129 =( GEOMETRIC_REPRESENTATION_CONTEXT ( 3 ) GLOBAL_UNCERTAINTY_ASSIGNED_CONTEXT ( ( #205 ) ) GLOBAL_UNIT_ASSIGNED_CONTEXT ( ( #257, #230, #211 ) ) REPRESENTATION_CONTEXT ( 'NONE', 'WORKASPACE' ) );
#130 = AXIS2_PLACEMENT_3D ( 'NONE', #193, #176, #275 ) ;
#131 = FILL_AREA_STYLE ('',( #107 ) ) ;
#132 = EDGE_CURVE ( 'NONE', #34, #19, #99, .T. ) ;
#133 = SURFACE_SIDE_STYLE ('',( #37 ) ) ;
#134 = ORIENTED_EDGE ( 'NONE', *, *, #140, .F. ) ;
#135 = AXIS2_PLACEMENT_3D ( 'NONE', #152, #177, #53 ) ;
#136 =( NAMED_UNIT ( * ) SI_UNIT ( $, .STERADIAN. ) SOLID_ANGLE_UNIT ( ) );
#137 = VERTEX_POINT ( 'NONE', #324 ) ;
#138 = AXIS2_PLACEMENT_3D ( 'NONE', #241, #220, #172 ) ;
#139 =( CONVERSION_BASED_UNIT ( 'INCH', #316 ) LENGTH_UNIT ( ) NAMED_UNIT ( #253 ) );
#140 = EDGE_CURVE ( 'NONE', #204, #19, #315, .T. ) ;
#141 = FACE_OUTER_BOUND ( 'NONE', #60, .T. ) ;
#142 = AXIS2_PLACEMENT_3D ( 'NONE', #18, #158, #213 ) ;
#143 = DIRECTION ( 'NONE',  ( 1.224646799147353454E-16, 0.0000000000000000000, 1.000000000000000000 ) ) ;
#144 = CARTESIAN_POINT ( 'NONE',  ( -0.009490500000000000672, 0.0000000000000000000, 1.162251044730795904E-18 ) ) ;
#145 = CARTESIAN_POINT ( 'NONE',  ( 0.0000000000000000000, 0.0000000000000000000, 1.500000000000000222 ) ) ;
#146 = ORIENTED_EDGE ( 'NONE', *, *, #41, .T. ) ;
#147 = ORIENTED_EDGE ( 'NONE', *, *, #255, .F. ) ;
#148 = DIRECTION ( 'NONE',  ( -1.224646799147353454E-16, -0.0000000000000000000, -1.000000000000000000 ) ) ;
#149 = VECTOR ( 'NONE', #323, 39.37007874015748143 ) ;
#150 = DIRECTION ( 'NONE',  ( -0.0000000000000000000, -0.0000000000000000000, -1.000000000000000000 ) ) ;
#151 = ADVANCED_FACE ( 'NONE', ( #98 ), #70, .T. ) ;
#152 = CARTESIAN_POINT ( 'NONE',  ( 1.162251044730795904E-18, 0.0000000000000000000, 0.009490500000000000672 ) ) ;
#153 = CARTESIAN_POINT ( 'NONE',  ( 0.0000000000000000000, 0.0000000000000000000, 1.485000000000000764 ) ) ;
#154 = CARTESIAN_POINT ( 'NONE',  ( -0.04750000000000064587, 0.0000000000000000000, 1.500000000000000222 ) ) ;
#155 = EDGE_CURVE ( 'NONE', #286, #162, #106, .T. ) ;
#156 = DIRECTION ( 'NONE',  ( 1.000000000000000000, 0.0000000000000000000, 0.0000000000000000000 ) ) ;
#157 = ORIENTED_EDGE ( 'NONE', *, *, #155, .T. ) ;
#158 = DIRECTION ( 'NONE',  ( 0.0000000000000000000, 0.0000000000000000000, 1.000000000000000000 ) ) ;
#159 = ORIENTED_EDGE ( 'NONE', *, *, #244, .T. ) ;
#160 = EDGE_CURVE ( 'NONE', #291, #180, #265, .T. ) ;
#161 = ORIENTED_EDGE ( 'NONE', *, *, #160, .T. ) ;
#162 = VERTEX_POINT ( 'NONE', #170 ) ;
#163 = VERTEX_POINT ( 'NONE', #249 ) ;
#164 = DIRECTION ( 'NONE',  ( -1.224646799147353454E-16, -0.0000000000000000000, -1.000000000000000000 ) ) ;
#165 = EDGE_LOOP ( 'NONE', ( #290, #92, #263, #208 ) ) ;
#166 = AXIS2_PLACEMENT_3D ( 'NONE', #206, #234, #15 ) ;
#167 = FILL_AREA_STYLE_COLOUR ( '', #212 ) ;
#168 = VERTEX_POINT ( 'NONE', #32 ) ;
#169 = APPLICATION_CONTEXT ( 'automotive_design' ) ;
#170 = CARTESIAN_POINT ( 'NONE',  ( 0.06250000000000002776, 7.654042494670959086E-18, 1.485000000000000764 ) ) ;
#171 = DIRECTION ( 'NONE',  ( -0.0000000000000000000, -0.0000000000000000000, -1.000000000000000000 ) ) ;
#172 = DIRECTION ( 'NONE',  ( 1.000000000000000000, 0.0000000000000000000, 0.0000000000000000000 ) ) ;
#173 = CARTESIAN_POINT ( 'NONE',  ( 0.04750000000000064587, 6.735557395310483192E-18, 1.500000000000000222 ) ) ;
#174 = DIRECTION ( 'NONE',  ( -1.224646799147353454E-16, -0.0000000000000000000, -1.000000000000000000 ) ) ;
#175 = ADVANCED_FACE ( 'NONE', ( #246 ), #102, .T. ) ;
#176 = DIRECTION ( 'NONE',  ( 1.224646799147353454E-16, 0.0000000000000000000, 1.000000000000000000 ) ) ;
#177 = DIRECTION ( 'NONE',  ( 0.0000000000000000000, 1.000000000000000000, 0.0000000000000000000 ) ) ;
#178 = VECTOR ( 'NONE', #90, 39.37007874015748143 ) ;
#179 = SPHERICAL_SURFACE ( 'NONE', #262, 0.009490500000000000672 ) ;
#180 = VERTEX_POINT ( 'NONE', #173 ) ;
#181 = ORIENTED_EDGE ( 'NONE', *, *, #321, .F. ) ;
#182 = FACE_OUTER_BOUND ( 'NONE', #67, .T. ) ;
#183 = VECTOR ( 'NONE', #120, 39.37007874015748143 ) ;
#184 = CARTESIAN_POINT ( 'NONE',  ( -0.04750000000000064587, 0.0000000000000000000, 1.500000000000000222 ) ) ;
#185 =( NAMED_UNIT ( * ) PLANE_ANGLE_UNIT ( ) SI_UNIT ( $, .RADIAN. ) );
#186 = SURFACE_STYLE_USAGE ( .BOTH. , #42 ) ;
#187 = CLOSED_SHELL ( 'NONE', ( #270, #151, #20, #17, #10, #175, #292, #77, #191, #282, #222 ) ) ;
#188 = PRESENTATION_LAYER_ASSIGNMENT (  '', '', ( #21 ) ) ;
#189 = CYLINDRICAL_SURFACE ( 'NONE', #307, 0.06250000000000002776 ) ;
#190 = EDGE_LOOP ( 'NONE', ( #293, #85, #146, #298 ) ) ;
#191 = ADVANCED_FACE ( 'NONE', ( #49 ), #125, .T. ) ;
#192 = ORIENTED_EDGE ( 'NONE', *, *, #155, .F. ) ;
#193 = CARTESIAN_POINT ( 'NONE',  ( 1.162251044730795904E-18, 0.0000000000000000000, 0.009490500000000000672 ) ) ;
#194 = CARTESIAN_POINT ( 'NONE',  ( 0.0000000000000000000, 0.0000000000000000000, 1.500000000000000222 ) ) ;
#195 = EDGE_LOOP ( 'NONE', ( #239, #210, #83, #78 ) ) ;
#196 = CARTESIAN_POINT ( 'NONE',  ( 1.162251044730795904E-18, 0.0000000000000000000, 0.009490500000000000672 ) ) ;
#197 = DIRECTION ( 'NONE',  ( 1.000000000000000000, 0.0000000000000000000, 0.0000000000000000000 ) ) ;
#198 = EDGE_CURVE ( 'NONE', #180, #162, #3, .T. ) ;
#199 = AXIS2_PLACEMENT_3D ( 'NONE', #267, #143, #26 ) ;
#200 = DIRECTION ( 'NONE',  ( 1.000000000000000000, 0.0000000000000000000, 0.0000000000000000000 ) ) ;
#201 = CARTESIAN_POINT ( 'NONE',  ( 0.04750000000000064587, 5.817072295950006528E-18, 1.500000000000000222 ) ) ;
#202 = CARTESIAN_POINT ( 'NONE',  ( 0.06250000000000002776, 7.654042494670959086E-18, 1.500000000000000222 ) ) ;
#203 = DIRECTION ( 'NONE',  ( 1.000000000000000000, 0.0000000000000000000, 0.0000000000000000000 ) ) ;
#204 = VERTEX_POINT ( 'NONE', #4 ) ;
#205 = UNCERTAINTY_MEASURE_WITH_UNIT (LENGTH_MEASURE( 1.000000000000000082E-05 ), #257, 'distance_accuracy_value', 'NONE');
#206 = CARTESIAN_POINT ( 'NONE',  ( 0.0000000000000000000, 0.0000000000000000000, 1.500000000000000222 ) ) ;
#207 = DIRECTION ( 'NONE',  ( -0.7071067811865462405, 0.0000000000000000000, -0.7071067811865486830 ) ) ;
#208 = ORIENTED_EDGE ( 'NONE', *, *, #50, .T. ) ;
#209 = SURFACE_STYLE_USAGE ( .BOTH. , #133 ) ;
#210 = ORIENTED_EDGE ( 'NONE', *, *, #214, .T. ) ;
#211 =( NAMED_UNIT ( * ) SI_UNIT ( $, .STERADIAN. ) SOLID_ANGLE_UNIT ( ) );
#212 = COLOUR_RGB ( '',0.7921568627450980005, 0.8196078431372548767, 0.9333333333333333481 ) ;
#213 = DIRECTION ( 'NONE',  ( 1.000000000000000000, 0.0000000000000000000, 0.0000000000000000000 ) ) ;
#214 = EDGE_CURVE ( 'NONE', #162, #286, #119, .T. ) ;
#215 = PRODUCT_DEFINITION_CONTEXT ( 'detailed design', #28, 'design' ) ;
#216 = CIRCLE ( 'NONE', #283, 0.06250000000000002776 ) ;
#217 = ORIENTED_EDGE ( 'NONE', *, *, #103, .T. ) ;
#218 = AXIS2_PLACEMENT_3D ( 'NONE', #284, #8, #250 ) ;
#219 = VECTOR ( 'NONE', #285, 39.37007874015747433 ) ;
#220 = DIRECTION ( 'NONE',  ( -1.224646799147353454E-16, -0.0000000000000000000, -1.000000000000000000 ) ) ;
#221 = DIRECTION ( 'NONE',  ( 0.0000000000000000000, 0.0000000000000000000, -1.000000000000000000 ) ) ;
#222 = ADVANCED_FACE ( 'NONE', ( #105 ), #304, .T. ) ;
#223 = CARTESIAN_POINT ( 'NONE',  ( 0.0000000000000000000, 0.0000000000000000000, 0.0000000000000000000 ) ) ;
#224 = CIRCLE ( 'NONE', #138, 0.06250000000000002776 ) ;
#225 = CARTESIAN_POINT ( 'NONE',  ( 6.980486755139914772E-18, 0.0000000000000000000, 0.05700000000000000205 ) ) ;
#226 = CARTESIAN_POINT ( 'NONE',  ( 0.009490500000000007610, 0.0000000000000000000, 0.05700000000000000205 ) ) ;
#227 =( LENGTH_UNIT ( ) NAMED_UNIT ( * ) SI_UNIT ( $, .METRE. ) );
#228 = AXIS2_PLACEMENT_3D ( 'NONE', #25, #300, #22 ) ;
#229 = CARTESIAN_POINT ( 'NONE',  ( -0.06250000000000002776, 0.0000000000000000000, 1.500000000000000222 ) ) ;
#230 =( NAMED_UNIT ( * ) PLANE_ANGLE_UNIT ( ) SI_UNIT ( $, .RADIAN. ) );
#231 = PRESENTATION_STYLE_ASSIGNMENT (( #186 ) ) ;
#232 = VECTOR ( 'NONE', #82, 39.37007874015748854 ) ;
#233 = ORIENTED_EDGE ( 'NONE', *, *, #287, .F. ) ;
#234 = DIRECTION ( 'NONE',  ( 0.0000000000000000000, 0.0000000000000000000, -1.000000000000000000 ) ) ;
#235 = PRODUCT_CONTEXT ( 'NONE', #169, 'mechanical' ) ;
#236 = AXIS2_PLACEMENT_3D ( 'NONE', #312, #24, #48 ) ;
#237 = EDGE_CURVE ( 'NONE', #162, #163, #252, .T. ) ;
#238 = FACE_OUTER_BOUND ( 'NONE', #240, .T. ) ;
#239 = ORIENTED_EDGE ( 'NONE', *, *, #237, .F. ) ;
#240 = EDGE_LOOP ( 'NONE', ( #66, #68, #45, #95 ) ) ;
#241 = CARTESIAN_POINT ( 'NONE',  ( 4.379726558193507593E-17, 0.0000000000000000000, 0.3576318136170235085 ) ) ;
#242 = CIRCLE ( 'NONE', #289, 0.009490500000000000672 ) ;
#243 = DIRECTION ( 'NONE',  ( -1.224646799147353454E-16, -0.0000000000000000000, -1.000000000000000000 ) ) ;
#244 = EDGE_CURVE ( 'NONE', #291, #286, #33, .T. ) ;
#245 = DIRECTION ( 'NONE',  ( 1.224646799147353454E-16, 0.0000000000000000000, 1.000000000000000000 ) ) ;
#246 = FACE_OUTER_BOUND ( 'NONE', #195, .T. ) ;
#247 = ORIENTED_EDGE ( 'NONE', *, *, #140, .T. ) ;
#248 = PRODUCT_DEFINITION_SHAPE ( 'NONE', 'NONE',  #295 ) ;
#249 = CARTESIAN_POINT ( 'NONE',  ( 0.06250000000000006939, 7.654042494670963708E-18, 0.3576318136170235085 ) ) ;
#250 = DIRECTION ( 'NONE',  ( 1.000000000000000000, 0.0000000000000000000, -0.0000000000000000000 ) ) ;
#251 = DIMENSIONAL_EXPONENTS ( 1.000000000000000000, 0.0000000000000000000, 0.0000000000000000000, 0.0000000000000000000, 0.0000000000000000000, 0.0000000000000000000, 0.0000000000000000000 ) ;
#252 = LINE ( 'NONE', #202, #178 ) ;
#253 = DIMENSIONAL_EXPONENTS ( 1.000000000000000000, 0.0000000000000000000, 0.0000000000000000000, 0.0000000000000000000, 0.0000000000000000000, 0.0000000000000000000, 0.0000000000000000000 ) ;
#254 = CARTESIAN_POINT ( 'NONE',  ( -0.06250000000000002776, 0.0000000000000000000, 1.485000000000000764 ) ) ;
#255 = EDGE_CURVE ( 'NONE', #34, #168, #35, .T. ) ;
#256 = ORIENTED_EDGE ( 'NONE', *, *, #50, .F. ) ;
#257 =( CONVERSION_BASED_UNIT ( 'INCH', #306 ) LENGTH_UNIT ( ) NAMED_UNIT ( #251 ) );
#258 = PLANE ( 'NONE',  #218 ) ;
#259 = EDGE_LOOP ( 'NONE', ( #281, #247, #38 ) ) ;
#260 = EDGE_CURVE ( 'NONE', #180, #291, #303, .T. ) ;
#261 = PRESENTATION_LAYER_ASSIGNMENT (  '', '', ( #277 ) ) ;
#262 = AXIS2_PLACEMENT_3D ( 'NONE', #280, #127, #79 ) ;
#263 = ORIENTED_EDGE ( 'NONE', *, *, #132, .T. ) ;
#264 = SHAPE_DEFINITION_REPRESENTATION ( #248, #317 ) ;
#265 = CIRCLE ( 'NONE', #13, 0.04750000000000064587 ) ;
#266 = FILL_AREA_STYLE ('',( #167 ) ) ;
#267 = CARTESIAN_POINT ( 'NONE',  ( 1.162251044730795904E-18, 0.0000000000000000000, 0.009490500000000000672 ) ) ;
#268 = DIRECTION ( 'NONE',  ( -1.000000000000000000, 0.0000000000000000000, 0.0000000000000000000 ) ) ;
#269 = ORIENTED_EDGE ( 'NONE', *, *, #111, .T. ) ;
#270 = ADVANCED_FACE ( 'NONE', ( #58 ), #179, .T. ) ;
#271 = DIRECTION ( 'NONE',  ( -1.000000000000000000, 0.0000000000000000000, 1.224646799147353454E-16 ) ) ;
#272 = AXIS2_PLACEMENT_3D ( 'NONE', #9, #164, #46 ) ;
#273 = AXIS2_PLACEMENT_3D ( 'NONE', #223, #148, #271 ) ;
#274 = DIRECTION ( 'NONE',  ( 0.0000000000000000000, 0.0000000000000000000, -1.000000000000000000 ) ) ;
#275 = DIRECTION ( 'NONE',  ( -1.000000000000000000, 0.0000000000000000000, 1.124417177730470153E-16 ) ) ;
#276 = LINE ( 'NONE', #226, #183 ) ;
#277 = STYLED_ITEM ( 'NONE', ( #305 ), #310 ) ;
#278 = AXIS2_PLACEMENT_3D ( 'NONE', #153, #308, #203 ) ;
#279 = DIRECTION ( 'NONE',  ( -1.000000000000000000, 0.0000000000000000000, 1.224646799147353454E-16 ) ) ;
#280 = CARTESIAN_POINT ( 'NONE',  ( 1.162251044730795904E-18, 0.0000000000000000000, 0.009490500000000000672 ) ) ;
#281 = ORIENTED_EDGE ( 'NONE', *, *, #111, .F. ) ;
#282 = ADVANCED_FACE ( 'NONE', ( #128 ), #87, .T. ) ;
#283 = AXIS2_PLACEMENT_3D ( 'NONE', #47, #243, #122 ) ;
#284 = CARTESIAN_POINT ( 'NONE',  ( 0.0000000000000000000, 0.0000000000000000000, 1.500000000000000222 ) ) ;
#285 = DIRECTION ( 'NONE',  ( -0.1736481776669311916, 2.126576849575783316E-17, 0.9848077530122080203 ) ) ;
#286 = VERTEX_POINT ( 'NONE', #254 ) ;
#287 = EDGE_CURVE ( 'NONE', #286, #168, #55, .T. ) ;
#288 = EDGE_LOOP ( 'NONE', ( #134, #269, #256 ) ) ;
#289 = AXIS2_PLACEMENT_3D ( 'NONE', #104, #124, #294 ) ;
#290 = ORIENTED_EDGE ( 'NONE', *, *, #27, .F. ) ;
#291 = VERTEX_POINT ( 'NONE', #184 ) ;
#292 = ADVANCED_FACE ( 'NONE', ( #182 ), #258, .T. ) ;
#293 = ORIENTED_EDGE ( 'NONE', *, *, #100, .T. ) ;
#294 = DIRECTION ( 'NONE',  ( -1.000000000000000000, 0.0000000000000000000, 0.0000000000000000000 ) ) ;
#295 = PRODUCT_DEFINITION ( 'UNKNOWN', '', #30, #215 ) ;
#296 = ORIENTED_EDGE ( 'NONE', *, *, #72, .F. ) ;
#297 = DIRECTION ( 'NONE',  ( 0.0000000000000000000, -1.000000000000000000, 0.0000000000000000000 ) ) ;
#298 = ORIENTED_EDGE ( 'NONE', *, *, #132, .F. ) ;
#299 = CARTESIAN_POINT ( 'NONE',  ( 0.0000000000000000000, 0.0000000000000000000, 1.500000000000000222 ) ) ;
#300 = DIRECTION ( 'NONE',  ( 0.0000000000000000000, 0.0000000000000000000, -1.000000000000000000 ) ) ;
#301 = DIRECTION ( 'NONE',  ( -0.0000000000000000000, -0.0000000000000000000, -1.000000000000000000 ) ) ;
#302 = DIRECTION ( 'NONE',  ( 0.0000000000000000000, 0.0000000000000000000, 1.000000000000000000 ) ) ;
#303 = CIRCLE ( 'NONE', #81, 0.04750000000000064587 ) ;
#304 = SPHERICAL_SURFACE ( 'NONE', #135, 0.009490500000000000672 ) ;
#305 = PRESENTATION_STYLE_ASSIGNMENT (( #209 ) ) ;
#306 = LENGTH_MEASURE_WITH_UNIT ( LENGTH_MEASURE( 0.02539999999999999897 ), #227 );
#307 = AXIS2_PLACEMENT_3D ( 'NONE', #194, #171, #268 ) ;
#308 = DIRECTION ( 'NONE',  ( 0.0000000000000000000, 0.0000000000000000000, -1.000000000000000000 ) ) ;
#309 = EDGE_LOOP ( 'NONE', ( #112, #11, #192, #44 ) ) ;
#310 = MANIFOLD_SOLID_BREP ( 'Fillet1', #187 ) ;
#311 =( LENGTH_UNIT ( ) NAMED_UNIT ( * ) SI_UNIT ( $, .METRE. ) );
#312 = CARTESIAN_POINT ( 'NONE',  ( 6.980486755139914772E-18, 0.0000000000000000000, 0.05700000000000000205 ) ) ;
#313 = ORIENTED_EDGE ( 'NONE', *, *, #160, .F. ) ;
#314 = LENGTH_MEASURE_WITH_UNIT ( LENGTH_MEASURE( 0.02539999999999999897 ), #311 );
#315 = CIRCLE ( 'NONE', #93, 0.009490500000000000672 ) ;
#316 = LENGTH_MEASURE_WITH_UNIT ( LENGTH_MEASURE( 0.02539999999999999897 ), #91 );
#317 = ADVANCED_BREP_SHAPE_REPRESENTATION ( 'Micro_BMR-019-2', ( #310, #142 ), #80 ) ;
#318 = FACE_OUTER_BOUND ( 'NONE', #116, .T. ) ;
#319 = ORIENTED_EDGE ( 'NONE', *, *, #59, .T. ) ;
#320 = ORIENTED_EDGE ( 'NONE', *, *, #214, .F. ) ;
#321 = EDGE_CURVE ( 'NONE', #137, #34, #96, .T. ) ;
#322 = CIRCLE ( 'NONE', #130, 0.009490500000000000672 ) ;
#323 = DIRECTION ( 'NONE',  ( -1.224646799147353454E-16, -0.0000000000000000000, -1.000000000000000000 ) ) ;
#324 = CARTESIAN_POINT ( 'NONE',  ( 0.009490500000000007610, 0.0000000000000000000, 0.05700000000000000205 ) ) ;
#325 = DIRECTION ( 'NONE',  ( 1.000000000000000000, 0.0000000000000000000, 0.0000000000000000000 ) ) ;
ENDSEC;
END-ISO-10303-21;
