ISO-10303-21;
HEADER;
FILE_DESCRIPTION (( 'STEP AP214' ),
    '1' );
FILE_NAME ('01782.STEP',
    '2023-06-22T14:48:56',
    ( '' ),
    ( '' ),
    'SwSTEP 2.0',
    'SolidWorks 2023',
    '' );
FILE_SCHEMA (( 'AUTOMOTIVE_DESIGN' ));
ENDSEC;

DATA;
#1 = EDGE_LOOP ( 'NONE', ( #146, #286 ) ) ;
#2 = CARTESIAN_POINT ( 'NONE',  ( -1.224646799147354440E-16, 6.000000000000000888, 0.000000000000000000 ) ) ;
#3 = MECHANICAL_DESIGN_GEOMETRIC_PRESENTATION_REPRESENTATION (  '', ( #65 ), #225 ) ;
#4 = SURFACE_STYLE_FILL_AREA ( #78 ) ;
#5 = FILL_AREA_STYLE ('',( #297 ) ) ;
#6 = UNCERTAINTY_MEASURE_WITH_UNIT (LENGTH_MEASURE( 1.000000000000000082E-05 ), #298, 'distance_accuracy_value', 'NONE');
#7 = CARTESIAN_POINT ( 'NONE',  ( 0.4999999999999999445, 6.000000000000000888, 6.123233995736767268E-17 ) ) ;
#8 = DIRECTION ( 'NONE',  ( -1.000000000000000000, 0.000000000000000000, 0.000000000000000000 ) ) ;
#9 = PRESENTATION_LAYER_ASSIGNMENT (  '', '', ( #79 ) ) ;
#10 = DIMENSIONAL_EXPONENTS ( 1.000000000000000000, 0.000000000000000000, 0.000000000000000000, 0.000000000000000000, 0.000000000000000000, 0.000000000000000000, 0.000000000000000000 ) ;
#11 = CARTESIAN_POINT ( 'NONE',  ( 0.5000000000000000000, 6.000000000000000888, 0.000000000000000000 ) ) ;
#12 = FACE_OUTER_BOUND ( 'NONE', #1, .T. ) ;
#13 = MANIFOLD_SOLID_BREP ( 'Revolve - Tool Body (Straight Shanked)', #76 ) ;
#14 =( LENGTH_UNIT ( ) NAMED_UNIT ( * ) SI_UNIT ( $, .METRE. ) );
#15 = COLOUR_RGB ( '',0.7921568627450980005, 0.8196078431372548767, 0.9333333333333333481 ) ;
#16 = DIRECTION ( 'NONE',  ( -4.453261087808560759E-17, 1.000000000000000000, -0.000000000000000000 ) ) ;
#17 = AXIS2_PLACEMENT_3D ( 'NONE', #63, #148, #153 ) ;
#18 = AXIS2_PLACEMENT_3D ( 'NONE', #276, #274, #62 ) ;
#20 = EDGE_CURVE ( 'NONE', #50, #235, #307, .T. ) ;
#19 = AXIS2_PLACEMENT_3D ( 'NONE', #91, #132, #43 ) ;
#21 = EDGE_LOOP ( 'NONE', ( #160, #264, #30, #256 ) ) ;
#22 =( CONVERSION_BASED_UNIT ( 'INCH', #236 ) LENGTH_UNIT ( ) NAMED_UNIT ( #10 ) );
#23 = LENGTH_MEASURE_WITH_UNIT ( LENGTH_MEASURE( 0.02539999999999999897 ), #119 );
#24 = CARTESIAN_POINT ( 'NONE',  ( 0.000000000000000000, 0.000000000000000000, 0.000000000000000000 ) ) ;
#25 = PRODUCT ( '01782', '01782', '', ( #303 ) ) ;
#26 = FILL_AREA_STYLE_COLOUR ( '', #187 ) ;
#27 = CIRCLE ( 'NONE', #202, 0.5000000000000000000 ) ;
#28 = VERTEX_POINT ( 'NONE', #242 ) ;
#29 = CARTESIAN_POINT ( 'NONE',  ( 0.000000000000000000, 0.000000000000000000, -0.5000000000000000000 ) ) ;
#30 = ORIENTED_EDGE ( 'NONE', *, *, #42, .T. ) ;
#31 = SURFACE_STYLE_USAGE ( .BOTH. , #240 ) ;
#32 = FACE_OUTER_BOUND ( 'NONE', #288, .T. ) ;
#33 = LINE ( 'NONE', #122, #37 ) ;
#34 = PRODUCT_DEFINITION ( 'UNKNOWN', '', #169, #273 ) ;
#35 = DIRECTION ( 'NONE',  ( 0.000000000000000000, 0.000000000000000000, -1.000000000000000000 ) ) ;
#36 = DIRECTION ( 'NONE',  ( 0.000000000000000000, 0.000000000000000000, -1.000000000000000000 ) ) ;
#37 = VECTOR ( 'NONE', #222, 39.37007874015748143 ) ;
#38 = CARTESIAN_POINT ( 'NONE',  ( 6.123233995736766036E-17, 0.000000000000000000, 0.5000000000000000000 ) ) ;
#39 = PRESENTATION_STYLE_ASSIGNMENT (( #88 ) ) ;
#40 = ADVANCED_BREP_SHAPE_REPRESENTATION ( '01782', ( #211, #13, #207 ), #260 ) ;
#41 = DIRECTION ( 'NONE',  ( 0.000000000000000000, -1.000000000000000000, -0.000000000000000000 ) ) ;
#42 = EDGE_CURVE ( 'NONE', #28, #50, #191, .T. ) ;
#43 = DIRECTION ( 'NONE',  ( 0.000000000000000000, 0.000000000000000000, -1.000000000000000000 ) ) ;
#44 =( NAMED_UNIT ( * ) SI_UNIT ( $, .STERADIAN. ) SOLID_ANGLE_UNIT ( ) );
#45 =( LENGTH_UNIT ( ) NAMED_UNIT ( * ) SI_UNIT ( $, .METRE. ) );
#46 = PRODUCT_RELATED_PRODUCT_CATEGORY ( 'part', '', ( #25 ) ) ;
#47 =( LENGTH_UNIT ( ) NAMED_UNIT ( * ) SI_UNIT ( $, .METRE. ) );
#48 = SURFACE_STYLE_FILL_AREA ( #143 ) ;
#49 = ORIENTED_EDGE ( 'NONE', *, *, #278, .F. ) ;
#50 = VERTEX_POINT ( 'NONE', #171 ) ;
#51 = ADVANCED_FACE ( 'NONE', ( #114 ), #214, .T. ) ;
#52 = VECTOR ( 'NONE', #215, 39.37007874015748143 ) ;
#53 = ORIENTED_EDGE ( 'NONE', *, *, #137, .T. ) ;
#54 = SURFACE_STYLE_USAGE ( .BOTH. , #219 ) ;
#55 = DIMENSIONAL_EXPONENTS ( 1.000000000000000000, 0.000000000000000000, 0.000000000000000000, 0.000000000000000000, 0.000000000000000000, 0.000000000000000000, 0.000000000000000000 ) ;
#56 = DIRECTION ( 'NONE',  ( 1.000000000000000000, 4.453261087808560759E-17, 0.000000000000000000 ) ) ;
#57 = ADVANCED_FACE ( 'NONE', ( #200 ), #294, .T. ) ;
#58 =( NAMED_UNIT ( * ) SI_UNIT ( $, .STERADIAN. ) SOLID_ANGLE_UNIT ( ) );
#59 = DIMENSIONAL_EXPONENTS ( 1.000000000000000000, 0.000000000000000000, 0.000000000000000000, 0.000000000000000000, 0.000000000000000000, 0.000000000000000000, 0.000000000000000000 ) ;
#60 = AXIS2_PLACEMENT_3D ( 'NONE', #123, #249, #293 ) ;
#61 =( NAMED_UNIT ( * ) SI_UNIT ( $, .STERADIAN. ) SOLID_ANGLE_UNIT ( ) );
#62 = DIRECTION ( 'NONE',  ( 0.000000000000000000, 0.000000000000000000, -1.000000000000000000 ) ) ;
#63 = CARTESIAN_POINT ( 'NONE',  ( 0.000000000000000000, 3.250000000000000000, 0.000000000000000000 ) ) ;
#64 = PLANE ( 'NONE',  #17 ) ;
#65 = STYLED_ITEM ( 'NONE', ( #39 ), #252 ) ;
#66 =( NAMED_UNIT ( * ) SI_UNIT ( $, .STERADIAN. ) SOLID_ANGLE_UNIT ( ) );
#67 = DIRECTION ( 'NONE',  ( -0.000000000000000000, -1.000000000000000000, -0.000000000000000000 ) ) ;
#68 = EDGE_LOOP ( 'NONE', ( #107, #212 ) ) ;
#69 = EDGE_CURVE ( 'NONE', #109, #193, #206, .T. ) ;
#70 = EDGE_CURVE ( 'NONE', #216, #235, #269, .T. ) ;
#71 = VERTEX_POINT ( 'NONE', #38 ) ;
#72 =( GEOMETRIC_REPRESENTATION_CONTEXT ( 3 ) GLOBAL_UNCERTAINTY_ASSIGNED_CONTEXT ( ( #184 ) ) GLOBAL_UNIT_ASSIGNED_CONTEXT ( ( #299, #85, #61 ) ) REPRESENTATION_CONTEXT ( 'NONE', 'WORKASPACE' ) );
#73 = EDGE_LOOP ( 'NONE', ( #53, #232 ) ) ;
#74 = PLANE ( 'NONE',  #161 ) ;
#75 = ORIENTED_EDGE ( 'NONE', *, *, #69, .T. ) ;
#76 = CLOSED_SHELL ( 'NONE', ( #57, #144, #51, #268 ) ) ;
#77 = DIRECTION ( 'NONE',  ( 0.000000000000000000, 0.000000000000000000, -1.000000000000000000 ) ) ;
#78 = FILL_AREA_STYLE ('',( #142 ) ) ;
#79 = STYLED_ITEM ( 'NONE', ( #115 ), #234 ) ;
#80 = LINE ( 'NONE', #147, #52 ) ;
#81 = UNCERTAINTY_MEASURE_WITH_UNIT (LENGTH_MEASURE( 1.000000000000000082E-05 ), #221, 'distance_accuracy_value', 'NONE');
#82 = CIRCLE ( 'NONE', #302, 0.5000000000000001110 ) ;
#83 =( NAMED_UNIT ( * ) PLANE_ANGLE_UNIT ( ) SI_UNIT ( $, .RADIAN. ) );
#84 = PLANE ( 'NONE',  #263 ) ;
#85 =( NAMED_UNIT ( * ) PLANE_ANGLE_UNIT ( ) SI_UNIT ( $, .RADIAN. ) );
#86 = FILL_AREA_STYLE ('',( #104 ) ) ;
#87 = SURFACE_STYLE_FILL_AREA ( #5 ) ;
#88 = SURFACE_STYLE_USAGE ( .BOTH. , #197 ) ;
#89 = ADVANCED_FACE ( 'NONE', ( #12 ), #64, .T. ) ;
#90 = SURFACE_SIDE_STYLE ('',( #87 ) ) ;
#91 = CARTESIAN_POINT ( 'NONE',  ( 0.000000000000000000, 0.000000000000000000, 0.000000000000000000 ) ) ;
#92 = ORIENTED_EDGE ( 'NONE', *, *, #295, .F. ) ;
#93 = ADVANCED_FACE ( 'NONE', ( #32 ), #198, .T. ) ;
#94 = STYLED_ITEM ( 'NONE', ( #175 ), #211 ) ;
#95 = UNCERTAINTY_MEASURE_WITH_UNIT (LENGTH_MEASURE( 1.000000000000000082E-05 ), #261, 'distance_accuracy_value', 'NONE');
#96 = SURFACE_STYLE_USAGE ( .BOTH. , #162 ) ;
#97 = DIRECTION ( 'NONE',  ( -1.000000000000000000, 0.000000000000000000, 0.000000000000000000 ) ) ;
#98 = FACE_OUTER_BOUND ( 'NONE', #308, .T. ) ;
#99 = ORIENTED_EDGE ( 'NONE', *, *, #174, .T. ) ;
#100 = ORIENTED_EDGE ( 'NONE', *, *, #205, .T. ) ;
#101 = AXIS2_PLACEMENT_3D ( 'NONE', #124, #41, #177 ) ;
#102 = CARTESIAN_POINT ( 'NONE',  ( 0.000000000000000000, 0.000000000000000000, 0.000000000000000000 ) ) ;
#103 = SURFACE_STYLE_USAGE ( .BOTH. , #90 ) ;
#104 = FILL_AREA_STYLE_COLOUR ( '', #195 ) ;
#105 = EDGE_CURVE ( 'NONE', #216, #28, #244, .T. ) ;
#106 = COLOUR_RGB ( '',1.000000000000000000, 0.000000000000000000, 0.000000000000000000 ) ;
#107 = ORIENTED_EDGE ( 'NONE', *, *, #205, .F. ) ;
#108 = APPLICATION_CONTEXT ( 'automotive_design' ) ;
#109 = VERTEX_POINT ( 'NONE', #301 ) ;
#110 = PRESENTATION_LAYER_ASSIGNMENT (  '', '', ( #65 ) ) ;
#111 = MECHANICAL_DESIGN_GEOMETRIC_PRESENTATION_REPRESENTATION (  '', ( #94 ), #253 ) ;
#112 = ORIENTED_EDGE ( 'NONE', *, *, #295, .T. ) ;
#113 = DIRECTION ( 'NONE',  ( -0.000000000000000000, -1.000000000000000000, -0.000000000000000000 ) ) ;
#114 = FACE_OUTER_BOUND ( 'NONE', #21, .T. ) ;
#115 = PRESENTATION_STYLE_ASSIGNMENT (( #54 ) ) ;
#116 = DIRECTION ( 'NONE',  ( -4.453261087808560759E-17, 1.000000000000000000, 0.000000000000000000 ) ) ;
#117 = EDGE_CURVE ( 'NONE', #193, #109, #267, .T. ) ;
#118 = EDGE_LOOP ( 'NONE', ( #136, #246 ) ) ;
#119 =( LENGTH_UNIT ( ) NAMED_UNIT ( * ) SI_UNIT ( $, .METRE. ) );
#120 = FILL_AREA_STYLE_COLOUR ( '', #106 ) ;
#121 = AXIS2_PLACEMENT_3D ( 'NONE', #226, #126, #35 ) ;
#122 = CARTESIAN_POINT ( 'NONE',  ( 6.123233995736766036E-17, 0.000000000000000000, 0.5000000000000000000 ) ) ;
#123 = CARTESIAN_POINT ( 'NONE',  ( -1.224646799147354440E-16, 6.000000000000000888, 0.000000000000000000 ) ) ;
#124 = CARTESIAN_POINT ( 'NONE',  ( 0.000000000000000000, 0.000000000000000000, 0.000000000000000000 ) ) ;
#125 = DIMENSIONAL_EXPONENTS ( 1.000000000000000000, 0.000000000000000000, 0.000000000000000000, 0.000000000000000000, 0.000000000000000000, 0.000000000000000000, 0.000000000000000000 ) ;
#126 = DIRECTION ( 'NONE',  ( -0.000000000000000000, -1.000000000000000000, -0.000000000000000000 ) ) ;
#127 = UNCERTAINTY_MEASURE_WITH_UNIT (LENGTH_MEASURE( 1.000000000000000082E-05 ), #22, 'distance_accuracy_value', 'NONE');
#128 = CARTESIAN_POINT ( 'NONE',  ( -1.224646799147354440E-16, 6.000000000000000888, 0.000000000000000000 ) ) ;
#129 =( CONVERSION_BASED_UNIT ( 'INCH', #275 ) LENGTH_UNIT ( ) NAMED_UNIT ( #59 ) );
#130 = LENGTH_MEASURE_WITH_UNIT ( LENGTH_MEASURE( 0.02539999999999999897 ), #251 );
#131 = MECHANICAL_DESIGN_GEOMETRIC_PRESENTATION_REPRESENTATION (  '', ( #151 ), #228 ) ;
#132 = DIRECTION ( 'NONE',  ( -0.000000000000000000, -1.000000000000000000, -0.000000000000000000 ) ) ;
#133 = PRESENTATION_LAYER_ASSIGNMENT (  '', '', ( #164 ) ) ;
#134 = ORIENTED_EDGE ( 'NONE', *, *, #174, .F. ) ;
#135 = CIRCLE ( 'NONE', #208, 0.5000000000000000000 ) ;
#136 = ORIENTED_EDGE ( 'NONE', *, *, #20, .T. ) ;
#137 = EDGE_CURVE ( 'NONE', #165, #71, #189, .T. ) ;
#138 = APPLICATION_PROTOCOL_DEFINITION ( 'draft international standard', 'automotive_design', 1998, #108 ) ;
#139 =( NAMED_UNIT ( * ) PLANE_ANGLE_UNIT ( ) SI_UNIT ( $, .RADIAN. ) );
#140 = CARTESIAN_POINT ( 'NONE',  ( -0.5000000000000002220, 6.000000000000000888, 0.000000000000000000 ) ) ;
#141 =( NAMED_UNIT ( * ) SI_UNIT ( $, .STERADIAN. ) SOLID_ANGLE_UNIT ( ) );
#142 = FILL_AREA_STYLE_COLOUR ( '', #282 ) ;
#143 = FILL_AREA_STYLE ('',( #262 ) ) ;
#144 = ADVANCED_FACE ( 'NONE', ( #217 ), #74, .F. ) ;
#145 = AXIS2_PLACEMENT_3D ( 'NONE', #243, #113, #77 ) ;
#146 = ORIENTED_EDGE ( 'NONE', *, *, #69, .F. ) ;
#147 = CARTESIAN_POINT ( 'NONE',  ( 0.000000000000000000, 0.000000000000000000, -0.5000000000000000000 ) ) ;
#148 = DIRECTION ( 'NONE',  ( 0.000000000000000000, 1.000000000000000000, 0.000000000000000000 ) ) ;
#149 = DIRECTION ( 'NONE',  ( -0.000000000000000000, -1.000000000000000000, -0.000000000000000000 ) ) ;
#150 = DIRECTION ( 'NONE',  ( -4.453261087808560759E-17, 1.000000000000000000, -0.000000000000000000 ) ) ;
#151 = STYLED_ITEM ( 'NONE', ( #185 ), #93 ) ;
#152 = FACE_OUTER_BOUND ( 'NONE', #73, .T. ) ;
#153 = DIRECTION ( 'NONE',  ( 0.000000000000000000, -0.000000000000000000, 1.000000000000000000 ) ) ;
#154 = PLANE ( 'NONE',  #101 ) ;
#155 = SURFACE_STYLE_FILL_AREA ( #250 ) ;
#156 =( LENGTH_UNIT ( ) NAMED_UNIT ( * ) SI_UNIT ( $, .METRE. ) );
#157 = DIRECTION ( 'NONE',  ( 0.000000000000000000, 0.000000000000000000, -1.000000000000000000 ) ) ;
#158 = AXIS2_PLACEMENT_3D ( 'NONE', #229, #16, #188 ) ;
#159 = ORIENTED_EDGE ( 'NONE', *, *, #42, .F. ) ;
#160 = ORIENTED_EDGE ( 'NONE', *, *, #70, .F. ) ;
#161 = AXIS2_PLACEMENT_3D ( 'NONE', #309, #116, #289 ) ;
#162 = SURFACE_SIDE_STYLE ('',( #4 ) ) ;
#163 = PRESENTATION_LAYER_ASSIGNMENT (  '', '', ( #230 ) ) ;
#164 = STYLED_ITEM ( 'NONE', ( #203 ), #89 ) ;
#165 = VERTEX_POINT ( 'NONE', #29 ) ;
#166 = FILL_AREA_STYLE ('',( #26 ) ) ;
#167 = ORIENTED_EDGE ( 'NONE', *, *, #20, .F. ) ;
#168 = CARTESIAN_POINT ( 'NONE',  ( 6.123233995736766036E-17, 3.250000000000000000, 0.5000000000000000000 ) ) ;
#169 = PRODUCT_DEFINITION_FORMATION_WITH_SPECIFIED_SOURCE ( 'ANY', '', #25, .NOT_KNOWN. ) ;
#170 = DIRECTION ( 'NONE',  ( 0.000000000000000000, 0.000000000000000000, 1.000000000000000000 ) ) ;
#171 = CARTESIAN_POINT ( 'NONE',  ( -0.5000000000000002220, 6.000000000000000888, 0.000000000000000000 ) ) ;
#172 =( GEOMETRIC_REPRESENTATION_CONTEXT ( 3 ) GLOBAL_UNCERTAINTY_ASSIGNED_CONTEXT ( ( #127 ) ) GLOBAL_UNIT_ASSIGNED_CONTEXT ( ( #22, #304, #223 ) ) REPRESENTATION_CONTEXT ( 'NONE', 'WORKASPACE' ) );
#173 = CYLINDRICAL_SURFACE ( 'NONE', #18, 0.5000000000000000000 ) ;
#174 = EDGE_CURVE ( 'NONE', #109, #165, #80, .T. ) ;
#175 = PRESENTATION_STYLE_ASSIGNMENT (( #31 ) ) ;
#176 = PRESENTATION_LAYER_ASSIGNMENT (  '', '', ( #151 ) ) ;
#177 = DIRECTION ( 'NONE',  ( 0.000000000000000000, 0.000000000000000000, -1.000000000000000000 ) ) ;
#178 = DIRECTION ( 'NONE',  ( -4.453261087808560759E-17, 1.000000000000000000, -0.000000000000000000 ) ) ;
#179 =( NAMED_UNIT ( * ) PLANE_ANGLE_UNIT ( ) SI_UNIT ( $, .RADIAN. ) );
#180 = EDGE_CURVE ( 'NONE', #235, #50, #82, .T. ) ;
#181 =( LENGTH_UNIT ( ) NAMED_UNIT ( * ) SI_UNIT ( $, .METRE. ) );
#182 = AXIS2_PLACEMENT_3D ( 'NONE', #128, #178, #8 ) ;
#183 = SURFACE_STYLE_FILL_AREA ( #86 ) ;
#184 = UNCERTAINTY_MEASURE_WITH_UNIT (LENGTH_MEASURE( 1.000000000000000082E-05 ), #299, 'distance_accuracy_value', 'NONE');
#185 = PRESENTATION_STYLE_ASSIGNMENT (( #224 ) ) ;
#186 = CARTESIAN_POINT ( 'NONE',  ( 0.5000000000000000000, 6.000000000000000888, 6.123233995736767268E-17 ) ) ;
#187 = COLOUR_RGB ( '',1.000000000000000000, 0.000000000000000000, 0.000000000000000000 ) ;
#188 = DIRECTION ( 'NONE',  ( -1.000000000000000000, 0.000000000000000000, 0.000000000000000000 ) ) ;
#189 = CIRCLE ( 'NONE', #145, 0.5000000000000000000 ) ;
#190 = DIRECTION ( 'NONE',  ( -1.000000000000000000, 0.000000000000000000, 0.000000000000000000 ) ) ;
#191 = LINE ( 'NONE', #140, #233 ) ;
#192 = DIRECTION ( 'NONE',  ( -1.000000000000000000, 0.000000000000000000, 0.000000000000000000 ) ) ;
#193 = VERTEX_POINT ( 'NONE', #168 ) ;
#194 = ORIENTED_EDGE ( 'NONE', *, *, #117, .T. ) ;
#195 = COLOUR_RGB ( '',1.000000000000000000, 0.000000000000000000, 0.000000000000000000 ) ;
#196 = LENGTH_MEASURE_WITH_UNIT ( LENGTH_MEASURE( 0.02539999999999999897 ), #47 );
#197 = SURFACE_SIDE_STYLE ('',( #183 ) ) ;
#198 = CYLINDRICAL_SURFACE ( 'NONE', #19, 0.5000000000000000000 ) ;
#199 = LENGTH_MEASURE_WITH_UNIT ( LENGTH_MEASURE( 0.02539999999999999897 ), #181 );
#200 = FACE_OUTER_BOUND ( 'NONE', #291, .T. ) ;
#201 = DIMENSIONAL_EXPONENTS ( 1.000000000000000000, 0.000000000000000000, 0.000000000000000000, 0.000000000000000000, 0.000000000000000000, 0.000000000000000000, 0.000000000000000000 ) ;
#202 = AXIS2_PLACEMENT_3D ( 'NONE', #259, #281, #190 ) ;
#203 = PRESENTATION_STYLE_ASSIGNMENT (( #103 ) ) ;
#204 = LENGTH_MEASURE_WITH_UNIT ( LENGTH_MEASURE( 0.02539999999999999897 ), #14 );
#205 = EDGE_CURVE ( 'NONE', #28, #216, #27, .T. ) ;
#206 = CIRCLE ( 'NONE', #121, 0.5000000000000000000 ) ;
#207 = AXIS2_PLACEMENT_3D ( 'NONE', #24, #170, #209 ) ;
#208 = AXIS2_PLACEMENT_3D ( 'NONE', #102, #149, #36 ) ;
#209 = DIRECTION ( 'NONE',  ( 1.000000000000000000, 0.000000000000000000, 0.000000000000000000 ) ) ;
#210 = ORIENTED_EDGE ( 'NONE', *, *, #137, .F. ) ;
#211 = MANIFOLD_SOLID_BREP ( 'Revolve - Cutting Edge', #237 ) ;
#212 = ORIENTED_EDGE ( 'NONE', *, *, #105, .F. ) ;
#213 = VECTOR ( 'NONE', #150, 39.37007874015748143 ) ;
#214 = CYLINDRICAL_SURFACE ( 'NONE', #182, 0.5000000000000001110 ) ;
#215 = DIRECTION ( 'NONE',  ( -0.000000000000000000, -1.000000000000000000, -0.000000000000000000 ) ) ;
#216 = VERTEX_POINT ( 'NONE', #238 ) ;
#217 = FACE_OUTER_BOUND ( 'NONE', #68, .T. ) ;
#218 = CARTESIAN_POINT ( 'NONE',  ( -1.224646799147354440E-16, 6.000000000000000888, 0.000000000000000000 ) ) ;
#219 = SURFACE_SIDE_STYLE ('',( #265 ) ) ;
#220 = MECHANICAL_DESIGN_GEOMETRIC_PRESENTATION_REPRESENTATION (  '', ( #230 ), #257 ) ;
#221 =( CONVERSION_BASED_UNIT ( 'INCH', #130 ) LENGTH_UNIT ( ) NAMED_UNIT ( #296 ) );
#222 = DIRECTION ( 'NONE',  ( -0.000000000000000000, -1.000000000000000000, -0.000000000000000000 ) ) ;
#223 =( NAMED_UNIT ( * ) SI_UNIT ( $, .STERADIAN. ) SOLID_ANGLE_UNIT ( ) );
#224 = SURFACE_STYLE_USAGE ( .BOTH. , #254 ) ;
#225 =( GEOMETRIC_REPRESENTATION_CONTEXT ( 3 ) GLOBAL_UNCERTAINTY_ASSIGNED_CONTEXT ( ( #280 ) ) GLOBAL_UNIT_ASSIGNED_CONTEXT ( ( #129, #300, #66 ) ) REPRESENTATION_CONTEXT ( 'NONE', 'WORKASPACE' ) );
#226 = CARTESIAN_POINT ( 'NONE',  ( 0.000000000000000000, 3.250000000000000000, 0.000000000000000000 ) ) ;
#227 = DIMENSIONAL_EXPONENTS ( 1.000000000000000000, 0.000000000000000000, 0.000000000000000000, 0.000000000000000000, 0.000000000000000000, 0.000000000000000000, 0.000000000000000000 ) ;
#228 =( GEOMETRIC_REPRESENTATION_CONTEXT ( 3 ) GLOBAL_UNCERTAINTY_ASSIGNED_CONTEXT ( ( #81 ) ) GLOBAL_UNIT_ASSIGNED_CONTEXT ( ( #221, #83, #271 ) ) REPRESENTATION_CONTEXT ( 'NONE', 'WORKASPACE' ) );
#229 = CARTESIAN_POINT ( 'NONE',  ( 0.000000000000000000, 3.250000000000000000, 0.000000000000000000 ) ) ;
#230 = STYLED_ITEM ( 'NONE', ( #258 ), #13 ) ;
#231 = PRODUCT_DEFINITION_SHAPE ( 'NONE', 'NONE',  #34 ) ;
#232 = ORIENTED_EDGE ( 'NONE', *, *, #278, .T. ) ;
#233 = VECTOR ( 'NONE', #239, 39.37007874015748143 ) ;
#234 = ADVANCED_FACE ( 'NONE', ( #98 ), #173, .T. ) ;
#235 = VERTEX_POINT ( 'NONE', #186 ) ;
#236 = LENGTH_MEASURE_WITH_UNIT ( LENGTH_MEASURE( 0.02539999999999999897 ), #45 );
#237 = CLOSED_SHELL ( 'NONE', ( #234, #89, #93, #252 ) ) ;
#238 = CARTESIAN_POINT ( 'NONE',  ( 0.5000000000000000000, 3.250000000000000000, 6.123233995736767268E-17 ) ) ;
#239 = DIRECTION ( 'NONE',  ( -4.453261087808560759E-17, 1.000000000000000000, -0.000000000000000000 ) ) ;
#240 = SURFACE_SIDE_STYLE ('',( #48 ) ) ;
#241 = SHAPE_DEFINITION_REPRESENTATION ( #231, #40 ) ;
#242 = CARTESIAN_POINT ( 'NONE',  ( -0.5000000000000000000, 3.250000000000000000, 0.000000000000000000 ) ) ;
#243 = CARTESIAN_POINT ( 'NONE',  ( 0.000000000000000000, 0.000000000000000000, 0.000000000000000000 ) ) ;
#244 = CIRCLE ( 'NONE', #158, 0.5000000000000000000 ) ;
#245 = APPLICATION_CONTEXT ( 'automotive_design' ) ;
#246 = ORIENTED_EDGE ( 'NONE', *, *, #180, .T. ) ;
#247 = MECHANICAL_DESIGN_GEOMETRIC_PRESENTATION_REPRESENTATION (  '', ( #164 ), #72 ) ;
#248 = UNCERTAINTY_MEASURE_WITH_UNIT (LENGTH_MEASURE( 1.000000000000000082E-05 ), #306, 'distance_accuracy_value', 'NONE');
#249 = DIRECTION ( 'NONE',  ( -4.453261087808560759E-17, 1.000000000000000000, -0.000000000000000000 ) ) ;
#250 = FILL_AREA_STYLE ('',( #120 ) ) ;
#251 =( LENGTH_UNIT ( ) NAMED_UNIT ( * ) SI_UNIT ( $, .METRE. ) );
#252 = ADVANCED_FACE ( 'NONE', ( #152 ), #154, .T. ) ;
#253 =( GEOMETRIC_REPRESENTATION_CONTEXT ( 3 ) GLOBAL_UNCERTAINTY_ASSIGNED_CONTEXT ( ( #248 ) ) GLOBAL_UNIT_ASSIGNED_CONTEXT ( ( #306, #139, #141 ) ) REPRESENTATION_CONTEXT ( 'NONE', 'WORKASPACE' ) );
#254 = SURFACE_SIDE_STYLE ('',( #155 ) ) ;
#255 = PRESENTATION_LAYER_ASSIGNMENT (  '', '', ( #94 ) ) ;
#256 = ORIENTED_EDGE ( 'NONE', *, *, #180, .F. ) ;
#257 =( GEOMETRIC_REPRESENTATION_CONTEXT ( 3 ) GLOBAL_UNCERTAINTY_ASSIGNED_CONTEXT ( ( #95 ) ) GLOBAL_UNIT_ASSIGNED_CONTEXT ( ( #261, #266, #44 ) ) REPRESENTATION_CONTEXT ( 'NONE', 'WORKASPACE' ) );
#258 = PRESENTATION_STYLE_ASSIGNMENT (( #96 ) ) ;
#259 = CARTESIAN_POINT ( 'NONE',  ( 0.000000000000000000, 3.250000000000000000, 0.000000000000000000 ) ) ;
#260 =( GEOMETRIC_REPRESENTATION_CONTEXT ( 3 ) GLOBAL_UNCERTAINTY_ASSIGNED_CONTEXT ( ( #6 ) ) GLOBAL_UNIT_ASSIGNED_CONTEXT ( ( #298, #179, #58 ) ) REPRESENTATION_CONTEXT ( 'NONE', 'WORKASPACE' ) );
#261 =( CONVERSION_BASED_UNIT ( 'INCH', #196 ) LENGTH_UNIT ( ) NAMED_UNIT ( #125 ) );
#262 = FILL_AREA_STYLE_COLOUR ( '', #15 ) ;
#263 = AXIS2_PLACEMENT_3D ( 'NONE', #11, #270, #56 ) ;
#264 = ORIENTED_EDGE ( 'NONE', *, *, #105, .T. ) ;
#265 = SURFACE_STYLE_FILL_AREA ( #166 ) ;
#266 =( NAMED_UNIT ( * ) PLANE_ANGLE_UNIT ( ) SI_UNIT ( $, .RADIAN. ) );
#268 = ADVANCED_FACE ( 'NONE', ( #292 ), #84, .F. ) ;
#267 = CIRCLE ( 'NONE', #279, 0.5000000000000000000 ) ;
#269 = LINE ( 'NONE', #7, #213 ) ;
#270 = DIRECTION ( 'NONE',  ( 4.453261087808560759E-17, -1.000000000000000000, 0.000000000000000000 ) ) ;
#271 =( NAMED_UNIT ( * ) SI_UNIT ( $, .STERADIAN. ) SOLID_ANGLE_UNIT ( ) );
#272 = COLOUR_RGB ( '',1.000000000000000000, 0.000000000000000000, 0.000000000000000000 ) ;
#273 = PRODUCT_DEFINITION_CONTEXT ( 'detailed design', #245, 'design' ) ;
#274 = DIRECTION ( 'NONE',  ( -0.000000000000000000, -1.000000000000000000, -0.000000000000000000 ) ) ;
#275 = LENGTH_MEASURE_WITH_UNIT ( LENGTH_MEASURE( 0.02539999999999999897 ), #156 );
#276 = CARTESIAN_POINT ( 'NONE',  ( 0.000000000000000000, 0.000000000000000000, 0.000000000000000000 ) ) ;
#277 = CARTESIAN_POINT ( 'NONE',  ( 0.000000000000000000, 3.250000000000000000, 0.000000000000000000 ) ) ;
#278 = EDGE_CURVE ( 'NONE', #71, #165, #135, .T. ) ;
#279 = AXIS2_PLACEMENT_3D ( 'NONE', #277, #67, #157 ) ;
#280 = UNCERTAINTY_MEASURE_WITH_UNIT (LENGTH_MEASURE( 1.000000000000000082E-05 ), #129, 'distance_accuracy_value', 'NONE');
#281 = DIRECTION ( 'NONE',  ( -4.453261087808560759E-17, 1.000000000000000000, -0.000000000000000000 ) ) ;
#282 = COLOUR_RGB ( '',0.7921568627450980005, 0.8196078431372548767, 0.9333333333333333481 ) ;
#283 = APPLICATION_PROTOCOL_DEFINITION ( 'draft international standard', 'automotive_design', 1998, #245 ) ;
#284 = DIRECTION ( 'NONE',  ( -4.453261087808560759E-17, 1.000000000000000000, -0.000000000000000000 ) ) ;
#285 = AXIS2_PLACEMENT_3D ( 'NONE', #218, #284, #97 ) ;
#286 = ORIENTED_EDGE ( 'NONE', *, *, #117, .F. ) ;
#287 = DIRECTION ( 'NONE',  ( -4.453261087808560759E-17, 1.000000000000000000, -0.000000000000000000 ) ) ;
#288 = EDGE_LOOP ( 'NONE', ( #92, #194, #99, #49 ) ) ;
#289 = DIRECTION ( 'NONE',  ( -1.000000000000000000, -4.453261087808560759E-17, 0.000000000000000000 ) ) ;
#290 = MECHANICAL_DESIGN_GEOMETRIC_PRESENTATION_REPRESENTATION (  '', ( #79 ), #172 ) ;
#291 = EDGE_LOOP ( 'NONE', ( #100, #305, #167, #159 ) ) ;
#292 = FACE_OUTER_BOUND ( 'NONE', #118, .T. ) ;
#293 = DIRECTION ( 'NONE',  ( -1.000000000000000000, 0.000000000000000000, 0.000000000000000000 ) ) ;
#294 = CYLINDRICAL_SURFACE ( 'NONE', #60, 0.5000000000000001110 ) ;
#295 = EDGE_CURVE ( 'NONE', #193, #71, #33, .T. ) ;
#296 = DIMENSIONAL_EXPONENTS ( 1.000000000000000000, 0.000000000000000000, 0.000000000000000000, 0.000000000000000000, 0.000000000000000000, 0.000000000000000000, 0.000000000000000000 ) ;
#297 = FILL_AREA_STYLE_COLOUR ( '', #272 ) ;
#298 =( CONVERSION_BASED_UNIT ( 'INCH', #204 ) LENGTH_UNIT ( ) NAMED_UNIT ( #55 ) );
#299 =( CONVERSION_BASED_UNIT ( 'INCH', #199 ) LENGTH_UNIT ( ) NAMED_UNIT ( #201 ) );
#300 =( NAMED_UNIT ( * ) PLANE_ANGLE_UNIT ( ) SI_UNIT ( $, .RADIAN. ) );
#301 = CARTESIAN_POINT ( 'NONE',  ( 0.000000000000000000, 3.250000000000000000, -0.5000000000000000000 ) ) ;
#302 = AXIS2_PLACEMENT_3D ( 'NONE', #2, #287, #192 ) ;
#303 = PRODUCT_CONTEXT ( 'NONE', #108, 'mechanical' ) ;
#304 =( NAMED_UNIT ( * ) PLANE_ANGLE_UNIT ( ) SI_UNIT ( $, .RADIAN. ) );
#305 = ORIENTED_EDGE ( 'NONE', *, *, #70, .T. ) ;
#306 =( CONVERSION_BASED_UNIT ( 'INCH', #23 ) LENGTH_UNIT ( ) NAMED_UNIT ( #227 ) );
#307 = CIRCLE ( 'NONE', #285, 0.5000000000000001110 ) ;
#308 = EDGE_LOOP ( 'NONE', ( #75, #112, #210, #134 ) ) ;
#309 = CARTESIAN_POINT ( 'NONE',  ( 4.957883579047472087E-34, 3.250000000000000000, 0.000000000000000000 ) ) ;
ENDSEC;
END-ISO-10303-21;
