ISO-10303-21;
HEADER;
FILE_DESCRIPTION (( 'STEP AP214' ),
    '1' );
FILE_NAME ('30692.STEP',
    '2023-06-22T19:01:11',
    ( '' ),
    ( '' ),
    'SwSTEP 2.0',
    'SolidWorks 2023',
    '' );
FILE_SCHEMA (( 'AUTOMOTIVE_DESIGN' ));
ENDSEC;

DATA;
#1 = LINE ( 'NONE', #145, #229 ) ;
#2 = EDGE_CURVE ( 'NONE', #159, #214, #1, .T. ) ;
#3 = ORIENTED_EDGE ( 'NONE', *, *, #134, .T. ) ;
#4 = ORIENTED_EDGE ( 'NONE', *, *, #215, .F. ) ;
#5 =( LENGTH_UNIT ( ) NAMED_UNIT ( * ) SI_UNIT ( $, .METRE. ) );
#6 = ADVANCED_FACE ( 'NONE', ( #143 ), #212, .T. ) ;
#7 = DIRECTION ( 'NONE',  ( -0.000000000000000000, -1.000000000000000000, -0.000000000000000000 ) ) ;
#8 = CLOSED_SHELL ( 'NONE', ( #273, #173, #30, #302 ) ) ;
#9 = PRESENTATION_STYLE_ASSIGNMENT (( #203 ) ) ;
#10 =( LENGTH_UNIT ( ) NAMED_UNIT ( * ) SI_UNIT ( $, .METRE. ) );
#11 = PLANE ( 'NONE',  #207 ) ;
#12 =( NAMED_UNIT ( * ) PLANE_ANGLE_UNIT ( ) SI_UNIT ( $, .RADIAN. ) );
#13 = AXIS2_PLACEMENT_3D ( 'NONE', #286, #163, #67 ) ;
#14 = DIRECTION ( 'NONE',  ( -0.000000000000000000, -1.000000000000000000, -0.000000000000000000 ) ) ;
#15 = PLANE ( 'NONE',  #13 ) ;
#16 = DIRECTION ( 'NONE',  ( -0.000000000000000000, -1.000000000000000000, -0.000000000000000000 ) ) ;
#17 = SURFACE_STYLE_USAGE ( .BOTH. , #26 ) ;
#18 = ORIENTED_EDGE ( 'NONE', *, *, #84, .F. ) ;
#19 = CARTESIAN_POINT ( 'NONE',  ( 0.000000000000000000, 0.000000000000000000, 0.000000000000000000 ) ) ;
#20 = COLOUR_RGB ( '',1.000000000000000000, 0.000000000000000000, 0.000000000000000000 ) ;
#21 = SURFACE_SIDE_STYLE ('',( #242 ) ) ;
#22 = VERTEX_POINT ( 'NONE', #181 ) ;
#23 =( NAMED_UNIT ( * ) PLANE_ANGLE_UNIT ( ) SI_UNIT ( $, .RADIAN. ) );
#24 = LENGTH_MEASURE_WITH_UNIT ( LENGTH_MEASURE( 0.02539999999999999897 ), #5 );
#25 = APPLICATION_CONTEXT ( 'automotive_design' ) ;
#26 = SURFACE_SIDE_STYLE ('',( #289 ) ) ;
#27 = CARTESIAN_POINT ( 'NONE',  ( 0.000000000000000000, 3.250000000000000000, 0.000000000000000000 ) ) ;
#28 = DIRECTION ( 'NONE',  ( -0.000000000000000000, -1.000000000000000000, -0.000000000000000000 ) ) ;
#29 = PRESENTATION_LAYER_ASSIGNMENT (  '', '', ( #262 ) ) ;
#30 = ADVANCED_FACE ( 'NONE', ( #157 ), #257, .T. ) ;
#31 = DIRECTION ( 'NONE',  ( -4.453261087808560759E-17, 1.000000000000000000, -0.000000000000000000 ) ) ;
#32 = CARTESIAN_POINT ( 'NONE',  ( 0.3750000000000000555, 6.000000000000000888, 4.592425496802576684E-17 ) ) ;
#33 = CARTESIAN_POINT ( 'NONE',  ( 0.000000000000000000, 0.000000000000000000, 0.000000000000000000 ) ) ;
#34 = APPLICATION_PROTOCOL_DEFINITION ( 'draft international standard', 'automotive_design', 1998, #25 ) ;
#35 = EDGE_LOOP ( 'NONE', ( #75, #113, #164, #119 ) ) ;
#36 = PRODUCT ( '30692', '30692', '', ( #178 ) ) ;
#37 = CARTESIAN_POINT ( 'NONE',  ( 4.592425496802575451E-17, 0.000000000000000000, 0.3750000000000000555 ) ) ;
#38 = LINE ( 'NONE', #283, #192 ) ;
#39 = EDGE_LOOP ( 'NONE', ( #3, #219 ) ) ;
#40 = LENGTH_MEASURE_WITH_UNIT ( LENGTH_MEASURE( 0.02539999999999999897 ), #223 );
#41 = VECTOR ( 'NONE', #55, 39.37007874015748143 ) ;
#42 = EDGE_CURVE ( 'NONE', #209, #159, #252, .T. ) ;
#43 = DIRECTION ( 'NONE',  ( -4.453261087808560759E-17, 1.000000000000000000, -0.000000000000000000 ) ) ;
#44 = MANIFOLD_SOLID_BREP ( 'Revolve - Cutting Edge', #129 ) ;
#45 = EDGE_LOOP ( 'NONE', ( #115, #249, #268, #86 ) ) ;
#46 = MANIFOLD_SOLID_BREP ( 'Revolve - Tool Body (Straight Shanked)', #8 ) ;
#47 = DIRECTION ( 'NONE',  ( -1.000000000000000000, 0.000000000000000000, 0.000000000000000000 ) ) ;
#48 = EDGE_LOOP ( 'NONE', ( #193, #270, #148, #18 ) ) ;
#49 = MECHANICAL_DESIGN_GEOMETRIC_PRESENTATION_REPRESENTATION (  '', ( #222 ), #72 ) ;
#50 = PRESENTATION_STYLE_ASSIGNMENT (( #171 ) ) ;
#51 = CARTESIAN_POINT ( 'NONE',  ( 0.000000000000000000, 3.250000000000000000, 0.000000000000000000 ) ) ;
#52 = SURFACE_STYLE_FILL_AREA ( #254 ) ;
#53 = FACE_OUTER_BOUND ( 'NONE', #48, .T. ) ;
#54 = COLOUR_RGB ( '',1.000000000000000000, 0.000000000000000000, 0.000000000000000000 ) ;
#55 = DIRECTION ( 'NONE',  ( -0.000000000000000000, -1.000000000000000000, -0.000000000000000000 ) ) ;
#56 = DIMENSIONAL_EXPONENTS ( 1.000000000000000000, 0.000000000000000000, 0.000000000000000000, 0.000000000000000000, 0.000000000000000000, 0.000000000000000000, 0.000000000000000000 ) ;
#57 = CARTESIAN_POINT ( 'NONE',  ( 3.718412684285603637E-34, 3.250000000000000000, 0.000000000000000000 ) ) ;
#58 = DIRECTION ( 'NONE',  ( -1.000000000000000000, 0.000000000000000000, 0.000000000000000000 ) ) ;
#59 = DIRECTION ( 'NONE',  ( -0.000000000000000000, -1.000000000000000000, -0.000000000000000000 ) ) ;
#60 = EDGE_CURVE ( 'NONE', #159, #209, #253, .T. ) ;
#61 =( GEOMETRIC_REPRESENTATION_CONTEXT ( 3 ) GLOBAL_UNCERTAINTY_ASSIGNED_CONTEXT ( ( #146 ) ) GLOBAL_UNIT_ASSIGNED_CONTEXT ( ( #95, #92, #291 ) ) REPRESENTATION_CONTEXT ( 'NONE', 'WORKASPACE' ) );
#62 = UNCERTAINTY_MEASURE_WITH_UNIT (LENGTH_MEASURE( 1.000000000000000082E-05 ), #232, 'distance_accuracy_value', 'NONE');
#63 = ORIENTED_EDGE ( 'NONE', *, *, #42, .T. ) ;
#64 = LENGTH_MEASURE_WITH_UNIT ( LENGTH_MEASURE( 0.02539999999999999897 ), #106 );
#65 = CARTESIAN_POINT ( 'NONE',  ( -1.224646799147354440E-16, 6.000000000000000888, 0.000000000000000000 ) ) ;
#66 = ADVANCED_FACE ( 'NONE', ( #293 ), #236, .T. ) ;
#67 = DIRECTION ( 'NONE',  ( 1.000000000000000000, 4.453261087808560759E-17, 0.000000000000000000 ) ) ;
#68 = STYLED_ITEM ( 'NONE', ( #9 ), #196 ) ;
#69 = EDGE_LOOP ( 'NONE', ( #243, #110 ) ) ;
#70 = EDGE_CURVE ( 'NONE', #165, #22, #151, .T. ) ;
#71 = STYLED_ITEM ( 'NONE', ( #96 ), #6 ) ;
#72 =( GEOMETRIC_REPRESENTATION_CONTEXT ( 3 ) GLOBAL_UNCERTAINTY_ASSIGNED_CONTEXT ( ( #140 ) ) GLOBAL_UNIT_ASSIGNED_CONTEXT ( ( #263, #135, #87 ) ) REPRESENTATION_CONTEXT ( 'NONE', 'WORKASPACE' ) );
#73 = CARTESIAN_POINT ( 'NONE',  ( 0.000000000000000000, 0.000000000000000000, 0.000000000000000000 ) ) ;
#74 = EDGE_LOOP ( 'NONE', ( #63, #187, #238, #122 ) ) ;
#75 = ORIENTED_EDGE ( 'NONE', *, *, #70, .T. ) ;
#76 = COLOUR_RGB ( '',0.7921568627450980005, 0.8196078431372548767, 0.9333333333333333481 ) ;
#77 = DIRECTION ( 'NONE',  ( 0.000000000000000000, 0.000000000000000000, -1.000000000000000000 ) ) ;
#78 =( NAMED_UNIT ( * ) SI_UNIT ( $, .STERADIAN. ) SOLID_ANGLE_UNIT ( ) );
#79 = AXIS2_PLACEMENT_3D ( 'NONE', #73, #7, #244 ) ;
#80 = LINE ( 'NONE', #37, #41 ) ;
#81 =( NAMED_UNIT ( * ) SI_UNIT ( $, .STERADIAN. ) SOLID_ANGLE_UNIT ( ) );
#82 = DIRECTION ( 'NONE',  ( -1.000000000000000000, 0.000000000000000000, 0.000000000000000000 ) ) ;
#83 = PRESENTATION_LAYER_ASSIGNMENT (  '', '', ( #71 ) ) ;
#84 = EDGE_CURVE ( 'NONE', #217, #190, #94, .T. ) ;
#85 = DIRECTION ( 'NONE',  ( -4.453261087808560759E-17, 1.000000000000000000, -0.000000000000000000 ) ) ;
#86 = ORIENTED_EDGE ( 'NONE', *, *, #264, .F. ) ;
#87 =( NAMED_UNIT ( * ) SI_UNIT ( $, .STERADIAN. ) SOLID_ANGLE_UNIT ( ) );
#88 = UNCERTAINTY_MEASURE_WITH_UNIT (LENGTH_MEASURE( 1.000000000000000082E-05 ), #235, 'distance_accuracy_value', 'NONE');
#89 = DIRECTION ( 'NONE',  ( -4.453261087808560759E-17, 1.000000000000000000, -0.000000000000000000 ) ) ;
#90 = AXIS2_PLACEMENT_3D ( 'NONE', #51, #245, #292 ) ;
#91 =( NAMED_UNIT ( * ) SI_UNIT ( $, .STERADIAN. ) SOLID_ANGLE_UNIT ( ) );
#92 =( NAMED_UNIT ( * ) PLANE_ANGLE_UNIT ( ) SI_UNIT ( $, .RADIAN. ) );
#93 = FILL_AREA_STYLE_COLOUR ( '', #20 ) ;
#94 = CIRCLE ( 'NONE', #79, 0.3750000000000000555 ) ;
#95 =( CONVERSION_BASED_UNIT ( 'INCH', #24 ) LENGTH_UNIT ( ) NAMED_UNIT ( #282 ) );
#96 = PRESENTATION_STYLE_ASSIGNMENT (( #216 ) ) ;
#97 = FILL_AREA_STYLE_COLOUR ( '', #54 ) ;
#98 = SURFACE_STYLE_USAGE ( .BOTH. , #176 ) ;
#99 =( GEOMETRIC_REPRESENTATION_CONTEXT ( 3 ) GLOBAL_UNCERTAINTY_ASSIGNED_CONTEXT ( ( #108 ) ) GLOBAL_UNIT_ASSIGNED_CONTEXT ( ( #280, #183, #78 ) ) REPRESENTATION_CONTEXT ( 'NONE', 'WORKASPACE' ) );
#100 = FILL_AREA_STYLE ('',( #185 ) ) ;
#101 = LENGTH_MEASURE_WITH_UNIT ( LENGTH_MEASURE( 0.02539999999999999897 ), #251 );
#102 = CYLINDRICAL_SURFACE ( 'NONE', #234, 0.3750000000000000555 ) ;
#103 = CARTESIAN_POINT ( 'NONE',  ( 0.000000000000000000, 0.000000000000000000, 0.000000000000000000 ) ) ;
#104 = AXIS2_PLACEMENT_3D ( 'NONE', #19, #16, #160 ) ;
#105 = DIRECTION ( 'NONE',  ( 0.000000000000000000, 0.000000000000000000, -1.000000000000000000 ) ) ;
#106 =( LENGTH_UNIT ( ) NAMED_UNIT ( * ) SI_UNIT ( $, .METRE. ) );
#107 = DIRECTION ( 'NONE',  ( 0.000000000000000000, -1.000000000000000000, -0.000000000000000000 ) ) ;
#108 = UNCERTAINTY_MEASURE_WITH_UNIT (LENGTH_MEASURE( 1.000000000000000082E-05 ), #280, 'distance_accuracy_value', 'NONE');
#109 =( NAMED_UNIT ( * ) SI_UNIT ( $, .STERADIAN. ) SOLID_ANGLE_UNIT ( ) );
#110 = ORIENTED_EDGE ( 'NONE', *, *, #264, .T. ) ;
#111 =( NAMED_UNIT ( * ) PLANE_ANGLE_UNIT ( ) SI_UNIT ( $, .RADIAN. ) );
#112 = PRESENTATION_LAYER_ASSIGNMENT (  '', '', ( #68 ) ) ;
#113 = ORIENTED_EDGE ( 'NONE', *, *, #205, .T. ) ;
#114 = VERTEX_POINT ( 'NONE', #191 ) ;
#115 = ORIENTED_EDGE ( 'NONE', *, *, #2, .F. ) ;
#116 = EDGE_CURVE ( 'NONE', #114, #214, #281, .T. ) ;
#117 = AXIS2_PLACEMENT_3D ( 'NONE', #27, #123, #195 ) ;
#118 = PRODUCT_DEFINITION_FORMATION_WITH_SPECIFIED_SOURCE ( 'ANY', '', #36, .NOT_KNOWN. ) ;
#119 = ORIENTED_EDGE ( 'NONE', *, *, #224, .F. ) ;
#120 = FILL_AREA_STYLE ('',( #93 ) ) ;
#121 = ADVANCED_BREP_SHAPE_REPRESENTATION ( '30692', ( #44, #46, #172 ), #161 ) ;
#122 = ORIENTED_EDGE ( 'NONE', *, *, #278, .F. ) ;
#123 = DIRECTION ( 'NONE',  ( -0.000000000000000000, -1.000000000000000000, -0.000000000000000000 ) ) ;
#124 = DIRECTION ( 'NONE',  ( -0.000000000000000000, -1.000000000000000000, -0.000000000000000000 ) ) ;
#125 = DIRECTION ( 'NONE',  ( -4.453261087808560759E-17, 1.000000000000000000, 0.000000000000000000 ) ) ;
#126 = CARTESIAN_POINT ( 'NONE',  ( 4.592425496802575451E-17, 0.000000000000000000, 0.3750000000000000555 ) ) ;
#127 = SURFACE_STYLE_FILL_AREA ( #100 ) ;
#128 = DIRECTION ( 'NONE',  ( 0.000000000000000000, 0.000000000000000000, -1.000000000000000000 ) ) ;
#129 = CLOSED_SHELL ( 'NONE', ( #196, #66, #261, #6 ) ) ;
#130 = UNCERTAINTY_MEASURE_WITH_UNIT (LENGTH_MEASURE( 1.000000000000000082E-05 ), #267, 'distance_accuracy_value', 'NONE');
#131 = PRESENTATION_STYLE_ASSIGNMENT (( #98 ) ) ;
#132 =( NAMED_UNIT ( * ) SI_UNIT ( $, .STERADIAN. ) SOLID_ANGLE_UNIT ( ) );
#133 = FACE_OUTER_BOUND ( 'NONE', #74, .T. ) ;
#134 = EDGE_CURVE ( 'NONE', #190, #217, #188, .T. ) ;
#135 =( NAMED_UNIT ( * ) PLANE_ANGLE_UNIT ( ) SI_UNIT ( $, .RADIAN. ) );
#136 = STYLED_ITEM ( 'NONE', ( #230 ), #44 ) ;
#137 = STYLED_ITEM ( 'NONE', ( #50 ), #46 ) ;
#138 = CYLINDRICAL_SURFACE ( 'NONE', #240, 0.3750000000000001110 ) ;
#139 = PRESENTATION_STYLE_ASSIGNMENT (( #17 ) ) ;
#140 = UNCERTAINTY_MEASURE_WITH_UNIT (LENGTH_MEASURE( 1.000000000000000082E-05 ), #263, 'distance_accuracy_value', 'NONE');
#141 = ORIENTED_EDGE ( 'NONE', *, *, #60, .F. ) ;
#142 = PRESENTATION_LAYER_ASSIGNMENT (  '', '', ( #136 ) ) ;
#143 = FACE_OUTER_BOUND ( 'NONE', #39, .T. ) ;
#144 = SURFACE_STYLE_FILL_AREA ( #197 ) ;
#145 = CARTESIAN_POINT ( 'NONE',  ( 0.3749999999999999445, 6.000000000000000888, 4.592425496802576068E-17 ) ) ;
#146 = UNCERTAINTY_MEASURE_WITH_UNIT (LENGTH_MEASURE( 1.000000000000000082E-05 ), #95, 'distance_accuracy_value', 'NONE');
#147 =( GEOMETRIC_REPRESENTATION_CONTEXT ( 3 ) GLOBAL_UNCERTAINTY_ASSIGNED_CONTEXT ( ( #130 ) ) GLOBAL_UNIT_ASSIGNED_CONTEXT ( ( #267, #23, #91 ) ) REPRESENTATION_CONTEXT ( 'NONE', 'WORKASPACE' ) );
#148 = ORIENTED_EDGE ( 'NONE', *, *, #224, .T. ) ;
#149 = PRODUCT_RELATED_PRODUCT_CATEGORY ( 'part', '', ( #36 ) ) ;
#150 = CARTESIAN_POINT ( 'NONE',  ( -0.3750000000000000555, 3.250000000000000000, 0.000000000000000000 ) ) ;
#151 = CIRCLE ( 'NONE', #117, 0.3750000000000000555 ) ;
#152 = CARTESIAN_POINT ( 'NONE',  ( 0.000000000000000000, 0.000000000000000000, 0.000000000000000000 ) ) ;
#153 = DIMENSIONAL_EXPONENTS ( 1.000000000000000000, 0.000000000000000000, 0.000000000000000000, 0.000000000000000000, 0.000000000000000000, 0.000000000000000000, 0.000000000000000000 ) ;
#154 = SURFACE_SIDE_STYLE ('',( #127 ) ) ;
#155 = FILL_AREA_STYLE ('',( #228 ) ) ;
#156 = COLOUR_RGB ( '',0.7921568627450980005, 0.8196078431372548767, 0.9333333333333333481 ) ;
#157 = FACE_OUTER_BOUND ( 'NONE', #45, .T. ) ;
#158 = LENGTH_MEASURE_WITH_UNIT ( LENGTH_MEASURE( 0.02539999999999999897 ), #255 );
#159 = VERTEX_POINT ( 'NONE', #201 ) ;
#160 = DIRECTION ( 'NONE',  ( 0.000000000000000000, 0.000000000000000000, -1.000000000000000000 ) ) ;
#161 =( GEOMETRIC_REPRESENTATION_CONTEXT ( 3 ) GLOBAL_UNCERTAINTY_ASSIGNED_CONTEXT ( ( #88 ) ) GLOBAL_UNIT_ASSIGNED_CONTEXT ( ( #235, #111, #109 ) ) REPRESENTATION_CONTEXT ( 'NONE', 'WORKASPACE' ) );
#162 = SURFACE_SIDE_STYLE ('',( #144 ) ) ;
#163 = DIRECTION ( 'NONE',  ( 4.453261087808560759E-17, -1.000000000000000000, 0.000000000000000000 ) ) ;
#164 = ORIENTED_EDGE ( 'NONE', *, *, #134, .F. ) ;
#165 = VERTEX_POINT ( 'NONE', #296 ) ;
#166 = EDGE_LOOP ( 'NONE', ( #170, #4 ) ) ;
#167 = AXIS2_PLACEMENT_3D ( 'NONE', #295, #59, #128 ) ;
#168 =( GEOMETRIC_REPRESENTATION_CONTEXT ( 3 ) GLOBAL_UNCERTAINTY_ASSIGNED_CONTEXT ( ( #62 ) ) GLOBAL_UNIT_ASSIGNED_CONTEXT ( ( #232, #12, #132 ) ) REPRESENTATION_CONTEXT ( 'NONE', 'WORKASPACE' ) );
#169 = CARTESIAN_POINT ( 'NONE',  ( -1.224646799147354440E-16, 6.000000000000000888, 0.000000000000000000 ) ) ;
#170 = ORIENTED_EDGE ( 'NONE', *, *, #70, .F. ) ;
#171 = SURFACE_STYLE_USAGE ( .BOTH. , #162 ) ;
#172 = AXIS2_PLACEMENT_3D ( 'NONE', #103, #206, #303 ) ;
#173 = ADVANCED_FACE ( 'NONE', ( #175 ), #11, .F. ) ;
#174 = MECHANICAL_DESIGN_GEOMETRIC_PRESENTATION_REPRESENTATION (  '', ( #71 ), #168 ) ;
#175 = FACE_OUTER_BOUND ( 'NONE', #288, .T. ) ;
#176 = SURFACE_SIDE_STYLE ('',( #52 ) ) ;
#177 =( GEOMETRIC_REPRESENTATION_CONTEXT ( 3 ) GLOBAL_UNCERTAINTY_ASSIGNED_CONTEXT ( ( #258 ) ) GLOBAL_UNIT_ASSIGNED_CONTEXT ( ( #260, #299, #81 ) ) REPRESENTATION_CONTEXT ( 'NONE', 'WORKASPACE' ) );
#178 = PRODUCT_CONTEXT ( 'NONE', #246, 'mechanical' ) ;
#179 = CARTESIAN_POINT ( 'NONE',  ( 0.000000000000000000, 0.000000000000000000, -0.3750000000000000555 ) ) ;
#180 = DIMENSIONAL_EXPONENTS ( 1.000000000000000000, 0.000000000000000000, 0.000000000000000000, 0.000000000000000000, 0.000000000000000000, 0.000000000000000000, 0.000000000000000000 ) ;
#181 = CARTESIAN_POINT ( 'NONE',  ( 4.592425496802575451E-17, 3.250000000000000000, 0.3750000000000000555 ) ) ;
#182 = SHAPE_DEFINITION_REPRESENTATION ( #285, #121 ) ;
#183 =( NAMED_UNIT ( * ) PLANE_ANGLE_UNIT ( ) SI_UNIT ( $, .RADIAN. ) );
#184 = MECHANICAL_DESIGN_GEOMETRIC_PRESENTATION_REPRESENTATION (  '', ( #262 ), #61 ) ;
#185 = FILL_AREA_STYLE_COLOUR ( '', #76 ) ;
#186 = DIRECTION ( 'NONE',  ( -4.453261087808560759E-17, 1.000000000000000000, -0.000000000000000000 ) ) ;
#187 = ORIENTED_EDGE ( 'NONE', *, *, #2, .T. ) ;
#188 = CIRCLE ( 'NONE', #218, 0.3750000000000000555 ) ;
#189 = FILL_AREA_STYLE_COLOUR ( '', #309 ) ;
#190 = VERTEX_POINT ( 'NONE', #225 ) ;
#191 = CARTESIAN_POINT ( 'NONE',  ( -0.3750000000000002776, 6.000000000000000888, 0.000000000000000000 ) ) ;
#192 = VECTOR ( 'NONE', #210, 39.37007874015748143 ) ;
#193 = ORIENTED_EDGE ( 'NONE', *, *, #205, .F. ) ;
#194 = FILL_AREA_STYLE ('',( #189 ) ) ;
#195 = DIRECTION ( 'NONE',  ( 0.000000000000000000, 0.000000000000000000, -1.000000000000000000 ) ) ;
#196 = ADVANCED_FACE ( 'NONE', ( #231 ), #102, .T. ) ;
#197 = FILL_AREA_STYLE ('',( #211 ) ) ;
#198 = MECHANICAL_DESIGN_GEOMETRIC_PRESENTATION_REPRESENTATION (  '', ( #137 ), #147 ) ;
#199 = DIRECTION ( 'NONE',  ( -4.453261087808560759E-17, 1.000000000000000000, -0.000000000000000000 ) ) ;
#200 = CARTESIAN_POINT ( 'NONE',  ( 0.000000000000000000, 0.000000000000000000, 0.000000000000000000 ) ) ;
#201 = CARTESIAN_POINT ( 'NONE',  ( 0.3750000000000000555, 3.250000000000000000, 4.592425496802576684E-17 ) ) ;
#202 = COLOUR_RGB ( '',1.000000000000000000, 0.000000000000000000, 0.000000000000000000 ) ;
#203 = SURFACE_STYLE_USAGE ( .BOTH. , #204 ) ;
#204 = SURFACE_SIDE_STYLE ('',( #298 ) ) ;
#205 = EDGE_CURVE ( 'NONE', #22, #217, #80, .T. ) ;
#206 = DIRECTION ( 'NONE',  ( 0.000000000000000000, 0.000000000000000000, 1.000000000000000000 ) ) ;
#207 = AXIS2_PLACEMENT_3D ( 'NONE', #57, #125, #248 ) ;
#208 = DIRECTION ( 'NONE',  ( -4.453261087808560759E-17, 1.000000000000000000, -0.000000000000000000 ) ) ;
#209 = VERTEX_POINT ( 'NONE', #150 ) ;
#210 = DIRECTION ( 'NONE',  ( -4.453261087808560759E-17, 1.000000000000000000, -0.000000000000000000 ) ) ;
#211 = FILL_AREA_STYLE_COLOUR ( '', #156 ) ;
#212 = PLANE ( 'NONE',  #294 ) ;
#213 = AXIS2_PLACEMENT_3D ( 'NONE', #65, #208, #233 ) ;
#214 = VERTEX_POINT ( 'NONE', #32 ) ;
#215 = EDGE_CURVE ( 'NONE', #22, #165, #287, .T. ) ;
#216 = SURFACE_STYLE_USAGE ( .BOTH. , #21 ) ;
#217 = VERTEX_POINT ( 'NONE', #126 ) ;
#218 = AXIS2_PLACEMENT_3D ( 'NONE', #152, #14, #274 ) ;
#219 = ORIENTED_EDGE ( 'NONE', *, *, #84, .T. ) ;
#220 = LENGTH_MEASURE_WITH_UNIT ( LENGTH_MEASURE( 0.02539999999999999897 ), #269 );
#221 = PRODUCT_DEFINITION_CONTEXT ( 'detailed design', #25, 'design' ) ;
#222 = STYLED_ITEM ( 'NONE', ( #131 ), #261 ) ;
#223 =( LENGTH_UNIT ( ) NAMED_UNIT ( * ) SI_UNIT ( $, .METRE. ) );
#224 = EDGE_CURVE ( 'NONE', #165, #190, #226, .T. ) ;
#225 = CARTESIAN_POINT ( 'NONE',  ( 0.000000000000000000, 0.000000000000000000, -0.3750000000000000555 ) ) ;
#226 = LINE ( 'NONE', #179, #307 ) ;
#227 = AXIS2_PLACEMENT_3D ( 'NONE', #271, #43, #47 ) ;
#228 = FILL_AREA_STYLE_COLOUR ( '', #202 ) ;
#229 = VECTOR ( 'NONE', #89, 39.37007874015748143 ) ;
#230 = PRESENTATION_STYLE_ASSIGNMENT (( #284 ) ) ;
#231 = FACE_OUTER_BOUND ( 'NONE', #35, .T. ) ;
#232 =( CONVERSION_BASED_UNIT ( 'INCH', #158 ) LENGTH_UNIT ( ) NAMED_UNIT ( #250 ) );
#233 = DIRECTION ( 'NONE',  ( -1.000000000000000000, 0.000000000000000000, 0.000000000000000000 ) ) ;
#234 = AXIS2_PLACEMENT_3D ( 'NONE', #200, #28, #77 ) ;
#235 =( CONVERSION_BASED_UNIT ( 'INCH', #64 ) LENGTH_UNIT ( ) NAMED_UNIT ( #180 ) );
#236 = PLANE ( 'NONE',  #90 ) ;
#237 = ORIENTED_EDGE ( 'NONE', *, *, #42, .F. ) ;
#238 = ORIENTED_EDGE ( 'NONE', *, *, #116, .F. ) ;
#239 = PRESENTATION_LAYER_ASSIGNMENT (  '', '', ( #137 ) ) ;
#240 = AXIS2_PLACEMENT_3D ( 'NONE', #300, #186, #305 ) ;
#241 = AXIS2_PLACEMENT_3D ( 'NONE', #304, #31, #58 ) ;
#242 = SURFACE_STYLE_FILL_AREA ( #194 ) ;
#243 = ORIENTED_EDGE ( 'NONE', *, *, #116, .T. ) ;
#244 = DIRECTION ( 'NONE',  ( 0.000000000000000000, 0.000000000000000000, -1.000000000000000000 ) ) ;
#245 = DIRECTION ( 'NONE',  ( 0.000000000000000000, 1.000000000000000000, 0.000000000000000000 ) ) ;
#246 = APPLICATION_CONTEXT ( 'automotive_design' ) ;
#247 = CIRCLE ( 'NONE', #290, 0.3750000000000001665 ) ;
#248 = DIRECTION ( 'NONE',  ( -1.000000000000000000, -4.453261087808560759E-17, 0.000000000000000000 ) ) ;
#249 = ORIENTED_EDGE ( 'NONE', *, *, #60, .T. ) ;
#250 = DIMENSIONAL_EXPONENTS ( 1.000000000000000000, 0.000000000000000000, 0.000000000000000000, 0.000000000000000000, 0.000000000000000000, 0.000000000000000000, 0.000000000000000000 ) ;
#251 =( LENGTH_UNIT ( ) NAMED_UNIT ( * ) SI_UNIT ( $, .METRE. ) );
#252 = CIRCLE ( 'NONE', #241, 0.3750000000000000555 ) ;
#253 = CIRCLE ( 'NONE', #227, 0.3750000000000000555 ) ;
#254 = FILL_AREA_STYLE ('',( #97 ) ) ;
#255 =( LENGTH_UNIT ( ) NAMED_UNIT ( * ) SI_UNIT ( $, .METRE. ) );
#256 = DIMENSIONAL_EXPONENTS ( 1.000000000000000000, 0.000000000000000000, 0.000000000000000000, 0.000000000000000000, 0.000000000000000000, 0.000000000000000000, 0.000000000000000000 ) ;
#257 = CYLINDRICAL_SURFACE ( 'NONE', #213, 0.3750000000000001110 ) ;
#258 = UNCERTAINTY_MEASURE_WITH_UNIT (LENGTH_MEASURE( 1.000000000000000082E-05 ), #260, 'distance_accuracy_value', 'NONE');
#259 = APPLICATION_PROTOCOL_DEFINITION ( 'draft international standard', 'automotive_design', 1998, #246 ) ;
#260 =( CONVERSION_BASED_UNIT ( 'INCH', #101 ) LENGTH_UNIT ( ) NAMED_UNIT ( #256 ) );
#261 = ADVANCED_FACE ( 'NONE', ( #53 ), #279, .T. ) ;
#262 = STYLED_ITEM ( 'NONE', ( #139 ), #66 ) ;
#263 =( CONVERSION_BASED_UNIT ( 'INCH', #40 ) LENGTH_UNIT ( ) NAMED_UNIT ( #301 ) );
#264 = EDGE_CURVE ( 'NONE', #214, #114, #247, .T. ) ;
#265 = PRODUCT_DEFINITION ( 'UNKNOWN', '', #118, #221 ) ;
#266 = PRESENTATION_LAYER_ASSIGNMENT (  '', '', ( #222 ) ) ;
#267 =( CONVERSION_BASED_UNIT ( 'INCH', #220 ) LENGTH_UNIT ( ) NAMED_UNIT ( #56 ) );
#268 = ORIENTED_EDGE ( 'NONE', *, *, #278, .T. ) ;
#269 =( LENGTH_UNIT ( ) NAMED_UNIT ( * ) SI_UNIT ( $, .METRE. ) );
#270 = ORIENTED_EDGE ( 'NONE', *, *, #215, .T. ) ;
#271 = CARTESIAN_POINT ( 'NONE',  ( 0.000000000000000000, 3.250000000000000000, 0.000000000000000000 ) ) ;
#272 = MECHANICAL_DESIGN_GEOMETRIC_PRESENTATION_REPRESENTATION (  '', ( #136 ), #177 ) ;
#273 = ADVANCED_FACE ( 'NONE', ( #133 ), #138, .T. ) ;
#274 = DIRECTION ( 'NONE',  ( 0.000000000000000000, 0.000000000000000000, -1.000000000000000000 ) ) ;
#275 = LENGTH_MEASURE_WITH_UNIT ( LENGTH_MEASURE( 0.02539999999999999897 ), #10 );
#276 = MECHANICAL_DESIGN_GEOMETRIC_PRESENTATION_REPRESENTATION (  '', ( #68 ), #99 ) ;
#277 = DIRECTION ( 'NONE',  ( -1.000000000000000000, 0.000000000000000000, 0.000000000000000000 ) ) ;
#278 = EDGE_CURVE ( 'NONE', #209, #114, #38, .T. ) ;
#279 = CYLINDRICAL_SURFACE ( 'NONE', #104, 0.3750000000000000555 ) ;
#280 =( CONVERSION_BASED_UNIT ( 'INCH', #275 ) LENGTH_UNIT ( ) NAMED_UNIT ( #153 ) );
#281 = CIRCLE ( 'NONE', #297, 0.3750000000000001665 ) ;
#282 = DIMENSIONAL_EXPONENTS ( 1.000000000000000000, 0.000000000000000000, 0.000000000000000000, 0.000000000000000000, 0.000000000000000000, 0.000000000000000000, 0.000000000000000000 ) ;
#283 = CARTESIAN_POINT ( 'NONE',  ( -0.3750000000000002220, 6.000000000000000888, 0.000000000000000000 ) ) ;
#284 = SURFACE_STYLE_USAGE ( .BOTH. , #154 ) ;
#285 = PRODUCT_DEFINITION_SHAPE ( 'NONE', 'NONE',  #265 ) ;
#286 = CARTESIAN_POINT ( 'NONE',  ( 0.3750000000000000555, 6.000000000000000888, 0.000000000000000000 ) ) ;
#287 = CIRCLE ( 'NONE', #167, 0.3750000000000000555 ) ;
#288 = EDGE_LOOP ( 'NONE', ( #237, #141 ) ) ;
#289 = SURFACE_STYLE_FILL_AREA ( #120 ) ;
#290 = AXIS2_PLACEMENT_3D ( 'NONE', #308, #85, #82 ) ;
#291 =( NAMED_UNIT ( * ) SI_UNIT ( $, .STERADIAN. ) SOLID_ANGLE_UNIT ( ) );
#292 = DIRECTION ( 'NONE',  ( 0.000000000000000000, -0.000000000000000000, 1.000000000000000000 ) ) ;
#293 = FACE_OUTER_BOUND ( 'NONE', #166, .T. ) ;
#294 = AXIS2_PLACEMENT_3D ( 'NONE', #33, #107, #105 ) ;
#295 = CARTESIAN_POINT ( 'NONE',  ( 0.000000000000000000, 3.250000000000000000, 0.000000000000000000 ) ) ;
#296 = CARTESIAN_POINT ( 'NONE',  ( 0.000000000000000000, 3.250000000000000000, -0.3750000000000000555 ) ) ;
#297 = AXIS2_PLACEMENT_3D ( 'NONE', #169, #199, #277 ) ;
#298 = SURFACE_STYLE_FILL_AREA ( #155 ) ;
#299 =( NAMED_UNIT ( * ) PLANE_ANGLE_UNIT ( ) SI_UNIT ( $, .RADIAN. ) );
#300 = CARTESIAN_POINT ( 'NONE',  ( -1.224646799147354440E-16, 6.000000000000000888, 0.000000000000000000 ) ) ;
#301 = DIMENSIONAL_EXPONENTS ( 1.000000000000000000, 0.000000000000000000, 0.000000000000000000, 0.000000000000000000, 0.000000000000000000, 0.000000000000000000, 0.000000000000000000 ) ;
#302 = ADVANCED_FACE ( 'NONE', ( #306 ), #15, .F. ) ;
#303 = DIRECTION ( 'NONE',  ( 1.000000000000000000, 0.000000000000000000, 0.000000000000000000 ) ) ;
#304 = CARTESIAN_POINT ( 'NONE',  ( 0.000000000000000000, 3.250000000000000000, 0.000000000000000000 ) ) ;
#305 = DIRECTION ( 'NONE',  ( -1.000000000000000000, 0.000000000000000000, 0.000000000000000000 ) ) ;
#306 = FACE_OUTER_BOUND ( 'NONE', #69, .T. ) ;
#307 = VECTOR ( 'NONE', #124, 39.37007874015748143 ) ;
#308 = CARTESIAN_POINT ( 'NONE',  ( -1.224646799147354440E-16, 6.000000000000000888, 0.000000000000000000 ) ) ;
#309 = COLOUR_RGB ( '',1.000000000000000000, 0.000000000000000000, 0.000000000000000000 ) ;
ENDSEC;
END-ISO-10303-21;
