ISO-10303-21;
HEADER;
FILE_DESCRIPTION (( 'STEP AP214' ),
    '1' );
FILE_NAME ('59659.STEP',
    '2023-07-24T15:52:01',
    ( '' ),
    ( '' ),
    'SwSTEP 2.0',
    'SolidWorks 2023',
    '' );
FILE_SCHEMA (( 'AUTOMOTIVE_DESIGN' ));
ENDSEC;

DATA;
#1 = DIRECTION ( 'NONE',  ( 0.000000000000000000, 1.000000000000000000, 0.000000000000000000 ) ) ;
#2 = CARTESIAN_POINT ( 'NONE',  ( -6.000000000000000000, 24.00000000000000000, 0.000000000000000000 ) ) ;
#3 = LINE ( 'NONE', #151, #249 ) ;
#4 = STYLED_ITEM ( 'NONE', ( #53 ), #70 ) ;
#5 = UNCERTAINTY_MEASURE_WITH_UNIT (LENGTH_MEASURE( 1.000000000000000082E-05 ), #67, 'distance_accuracy_value', 'NONE');
#6 = PRESENTATION_STYLE_ASSIGNMENT (( #180 ) ) ;
#7 =( NAMED_UNIT ( * ) SI_UNIT ( $, .STERADIAN. ) SOLID_ANGLE_UNIT ( ) );
#8 =( NAMED_UNIT ( * ) SI_UNIT ( $, .STERADIAN. ) SOLID_ANGLE_UNIT ( ) );
#9 = ORIENTED_EDGE ( 'NONE', *, *, #184, .T. ) ;
#10 = ORIENTED_EDGE ( 'NONE', *, *, #110, .F. ) ;
#11 = ORIENTED_EDGE ( 'NONE', *, *, #110, .T. ) ;
#12 = CARTESIAN_POINT ( 'NONE',  ( 0.000000000000000000, 24.00000000000000000, -6.000000000000000000 ) ) ;
#13 = STYLED_ITEM ( 'NONE', ( #133 ), #266 ) ;
#14 = CARTESIAN_POINT ( 'NONE',  ( 0.000000000000000000, 24.00000000000000000, 0.000000000000000000 ) ) ;
#15 = DIRECTION ( 'NONE',  ( 2.881521880346713429E-17, -1.000000000000000000, 0.000000000000000000 ) ) ;
#16 = DIRECTION ( 'NONE',  ( -2.881521880346713429E-17, 1.000000000000000000, -0.000000000000000000 ) ) ;
#17 = ADVANCED_FACE ( 'NONE', ( #33 ), #188, .T. ) ;
#18 = CARTESIAN_POINT ( 'NONE',  ( -1.469576158976823750E-15, 75.00000000000000000, 0.000000000000000000 ) ) ;
#19 = PRESENTATION_STYLE_ASSIGNMENT (( #169 ) ) ;
#20 = MECHANICAL_DESIGN_GEOMETRIC_PRESENTATION_REPRESENTATION (  '', ( #87 ), #38 ) ;
#21 = PRESENTATION_LAYER_ASSIGNMENT (  '', '', ( #88 ) ) ;
#22 = DIRECTION ( 'NONE',  ( -2.881521880346713429E-17, 1.000000000000000000, -0.000000000000000000 ) ) ;
#23 = EDGE_CURVE ( 'NONE', #69, #164, #172, .T. ) ;
#24 = CIRCLE ( 'NONE', #132, 6.000000000000000000 ) ;
#25 = CARTESIAN_POINT ( 'NONE',  ( 0.000000000000000000, 0.000000000000000000, 0.000000000000000000 ) ) ;
#26 = ORIENTED_EDGE ( 'NONE', *, *, #29, .F. ) ;
#27 = EDGE_LOOP ( 'NONE', ( #138, #217 ) ) ;
#28 = DIRECTION ( 'NONE',  ( -1.000000000000000000, 0.000000000000000000, 0.000000000000000000 ) ) ;
#29 = EDGE_CURVE ( 'NONE', #93, #235, #111, .T. ) ;
#30 = MECHANICAL_DESIGN_GEOMETRIC_PRESENTATION_REPRESENTATION (  '', ( #88 ), #59 ) ;
#31 = VERTEX_POINT ( 'NONE', #12 ) ;
#32 = DIRECTION ( 'NONE',  ( -2.881521880346713429E-17, 1.000000000000000000, -0.000000000000000000 ) ) ;
#33 = FACE_OUTER_BOUND ( 'NONE', #275, .T. ) ;
#34 = FILL_AREA_STYLE_COLOUR ( '', #229 ) ;
#35 = COLOUR_RGB ( '',1.000000000000000000, 0.000000000000000000, 0.000000000000000000 ) ;
#36 = ADVANCED_FACE ( 'NONE', ( #94 ), #100, .F. ) ;
#37 = DIRECTION ( 'NONE',  ( -2.881521880346713429E-17, 1.000000000000000000, -0.000000000000000000 ) ) ;
#38 =( GEOMETRIC_REPRESENTATION_CONTEXT ( 3 ) GLOBAL_UNCERTAINTY_ASSIGNED_CONTEXT ( ( #210 ) ) GLOBAL_UNIT_ASSIGNED_CONTEXT ( ( #193, #74, #146 ) ) REPRESENTATION_CONTEXT ( 'NONE', 'WORKASPACE' ) );
#39 = PRODUCT ( '59659', '59659', '', ( #222 ) ) ;
#40 = CYLINDRICAL_SURFACE ( 'NONE', #183, 6.000000000000000000 ) ;
#41 = DIRECTION ( 'NONE',  ( -0.000000000000000000, -1.000000000000000000, -0.000000000000000000 ) ) ;
#42 = MANIFOLD_SOLID_BREP ( 'Revolve - Tool Body (Straight Shanked)', #276 ) ;
#43 = CARTESIAN_POINT ( 'NONE',  ( 0.000000000000000000, 24.00000000000000000, 0.000000000000000000 ) ) ;
#44 = PRESENTATION_LAYER_ASSIGNMENT (  '', '', ( #87 ) ) ;
#45 = AXIS2_PLACEMENT_3D ( 'NONE', #43, #1, #81 ) ;
#46 = DIRECTION ( 'NONE',  ( -0.000000000000000000, -1.000000000000000000, -0.000000000000000000 ) ) ;
#47 =( NAMED_UNIT ( * ) PLANE_ANGLE_UNIT ( ) SI_UNIT ( $, .RADIAN. ) );
#48 = EDGE_CURVE ( 'NONE', #185, #257, #238, .T. ) ;
#49 =( NAMED_UNIT ( * ) PLANE_ANGLE_UNIT ( ) SI_UNIT ( $, .RADIAN. ) );
#50 = EDGE_LOOP ( 'NONE', ( #278, #26 ) ) ;
#51 = MECHANICAL_DESIGN_GEOMETRIC_PRESENTATION_REPRESENTATION (  '', ( #112 ), #178 ) ;
#52 = FACE_OUTER_BOUND ( 'NONE', #254, .T. ) ;
#53 = PRESENTATION_STYLE_ASSIGNMENT (( #218 ) ) ;
#54 = AXIS2_PLACEMENT_3D ( 'NONE', #221, #163, #240 ) ;
#55 = PRODUCT_DEFINITION ( 'UNKNOWN', '', #160, #192 ) ;
#56 = SURFACE_SIDE_STYLE ('',( #270 ) ) ;
#57 = FILL_AREA_STYLE ('',( #227 ) ) ;
#58 = SURFACE_STYLE_FILL_AREA ( #267 ) ;
#59 =( GEOMETRIC_REPRESENTATION_CONTEXT ( 3 ) GLOBAL_UNCERTAINTY_ASSIGNED_CONTEXT ( ( #139 ) ) GLOBAL_UNIT_ASSIGNED_CONTEXT ( ( #154, #243, #152 ) ) REPRESENTATION_CONTEXT ( 'NONE', 'WORKASPACE' ) );
#60 = LINE ( 'NONE', #84, #220 ) ;
#61 = CARTESIAN_POINT ( 'NONE',  ( 7.347880794884119736E-16, 24.00000000000000000, 6.000000000000000000 ) ) ;
#62 = SURFACE_STYLE_FILL_AREA ( #273 ) ;
#63 = CARTESIAN_POINT ( 'NONE',  ( -1.469576158976823750E-15, 75.00000000000000000, 0.000000000000000000 ) ) ;
#64 = FACE_OUTER_BOUND ( 'NONE', #142, .T. ) ;
#65 = MECHANICAL_DESIGN_GEOMETRIC_PRESENTATION_REPRESENTATION (  '', ( #4 ), #149 ) ;
#66 = AXIS2_PLACEMENT_3D ( 'NONE', #245, #129, #153 ) ;
#67 =( LENGTH_UNIT ( ) NAMED_UNIT ( * ) SI_UNIT ( .MILLI., .METRE. ) );
#68 = PRESENTATION_STYLE_ASSIGNMENT (( #136 ) ) ;
#69 = VERTEX_POINT ( 'NONE', #260 ) ;
#70 = ADVANCED_FACE ( 'NONE', ( #52 ), #145, .T. ) ;
#71 = SURFACE_STYLE_FILL_AREA ( #75 ) ;
#72 = FILL_AREA_STYLE ('',( #212 ) ) ;
#73 =( NAMED_UNIT ( * ) SI_UNIT ( $, .STERADIAN. ) SOLID_ANGLE_UNIT ( ) );
#74 =( NAMED_UNIT ( * ) PLANE_ANGLE_UNIT ( ) SI_UNIT ( $, .RADIAN. ) );
#75 = FILL_AREA_STYLE ('',( #195 ) ) ;
#76 =( NAMED_UNIT ( * ) PLANE_ANGLE_UNIT ( ) SI_UNIT ( $, .RADIAN. ) );
#77 = CLOSED_SHELL ( 'NONE', ( #266, #70, #99, #17 ) ) ;
#78 = STYLED_ITEM ( 'NONE', ( #167 ), #42 ) ;
#79 = FACE_OUTER_BOUND ( 'NONE', #279, .T. ) ;
#80 = AXIS2_PLACEMENT_3D ( 'NONE', #155, #102, #287 ) ;
#81 = DIRECTION ( 'NONE',  ( 0.000000000000000000, -0.000000000000000000, 1.000000000000000000 ) ) ;
#82 = CARTESIAN_POINT ( 'NONE',  ( 0.000000000000000000, 0.000000000000000000, 0.000000000000000000 ) ) ;
#83 = CARTESIAN_POINT ( 'NONE',  ( 0.000000000000000000, 0.000000000000000000, 0.000000000000000000 ) ) ;
#84 = CARTESIAN_POINT ( 'NONE',  ( -6.000000000000002665, 75.00000000000000000, 0.000000000000000000 ) ) ;
#85 = SURFACE_SIDE_STYLE ('',( #58 ) ) ;
#86 = CARTESIAN_POINT ( 'NONE',  ( 6.000000000000000000, 75.00000000000000000, 7.347880794884120722E-16 ) ) ;
#87 = STYLED_ITEM ( 'NONE', ( #68 ), #17 ) ;
#88 = STYLED_ITEM ( 'NONE', ( #19 ), #99 ) ;
#89 = CARTESIAN_POINT ( 'NONE',  ( 0.000000000000000000, 24.00000000000000000, 0.000000000000000000 ) ) ;
#90 = SURFACE_STYLE_FILL_AREA ( #72 ) ;
#91 = PRESENTATION_LAYER_ASSIGNMENT (  '', '', ( #4 ) ) ;
#92 = ORIENTED_EDGE ( 'NONE', *, *, #95, .T. ) ;
#93 = VERTEX_POINT ( 'NONE', #170 ) ;
#94 = FACE_OUTER_BOUND ( 'NONE', #27, .T. ) ;
#95 = EDGE_CURVE ( 'NONE', #31, #69, #107, .T. ) ;
#96 = ORIENTED_EDGE ( 'NONE', *, *, #95, .F. ) ;
#97 = APPLICATION_CONTEXT ( 'automotive_design' ) ;
#98 = AXIS2_PLACEMENT_3D ( 'NONE', #89, #46, #159 ) ;
#99 = ADVANCED_FACE ( 'NONE', ( #79 ), #40, .T. ) ;
#100 = PLANE ( 'NONE',  #214 ) ;
#101 = CIRCLE ( 'NONE', #191, 6.000000000000001776 ) ;
#102 = DIRECTION ( 'NONE',  ( -2.881521880346713429E-17, 1.000000000000000000, 0.000000000000000000 ) ) ;
#103 = AXIS2_PLACEMENT_3D ( 'NONE', #109, #37, #127 ) ;
#104 = APPLICATION_PROTOCOL_DEFINITION ( 'draft international standard', 'automotive_design', 1998, #113 ) ;
#105 = CARTESIAN_POINT ( 'NONE',  ( 0.000000000000000000, 0.000000000000000000, -6.000000000000000000 ) ) ;
#106 = SHAPE_DEFINITION_REPRESENTATION ( #204, #128 ) ;
#107 = LINE ( 'NONE', #105, #108 ) ;
#108 = VECTOR ( 'NONE', #228, 1000.000000000000000 ) ;
#109 = CARTESIAN_POINT ( 'NONE',  ( 0.000000000000000000, 24.00000000000000000, 0.000000000000000000 ) ) ;
#110 = EDGE_CURVE ( 'NONE', #93, #257, #3, .T. ) ;
#111 = CIRCLE ( 'NONE', #283, 6.000000000000000000 ) ;
#112 = STYLED_ITEM ( 'NONE', ( #6 ), #244 ) ;
#113 = APPLICATION_CONTEXT ( 'automotive_design' ) ;
#114 = ORIENTED_EDGE ( 'NONE', *, *, #135, .T. ) ;
#115 = DIRECTION ( 'NONE',  ( -0.000000000000000000, -1.000000000000000000, -0.000000000000000000 ) ) ;
#116 = ORIENTED_EDGE ( 'NONE', *, *, #122, .F. ) ;
#117 = APPLICATION_PROTOCOL_DEFINITION ( 'draft international standard', 'automotive_design', 1998, #97 ) ;
#118 = ORIENTED_EDGE ( 'NONE', *, *, #247, .T. ) ;
#119 = PRESENTATION_LAYER_ASSIGNMENT (  '', '', ( #78 ) ) ;
#120 = ORIENTED_EDGE ( 'NONE', *, *, #122, .T. ) ;
#121 =( NAMED_UNIT ( * ) PLANE_ANGLE_UNIT ( ) SI_UNIT ( $, .RADIAN. ) );
#122 = EDGE_CURVE ( 'NONE', #162, #31, #272, .T. ) ;
#123 = SURFACE_SIDE_STYLE ('',( #71 ) ) ;
#124 = SURFACE_STYLE_FILL_AREA ( #262 ) ;
#125 = FACE_OUTER_BOUND ( 'NONE', #258, .T. ) ;
#126 = CIRCLE ( 'NONE', #98, 6.000000000000000000 ) ;
#127 = DIRECTION ( 'NONE',  ( -1.000000000000000000, 0.000000000000000000, 0.000000000000000000 ) ) ;
#128 = ADVANCED_BREP_SHAPE_REPRESENTATION ( '59659', ( #244, #42, #66 ), #143 ) ;
#129 = DIRECTION ( 'NONE',  ( 0.000000000000000000, 0.000000000000000000, 1.000000000000000000 ) ) ;
#130 = CARTESIAN_POINT ( 'NONE',  ( -6.000000000000003553, 75.00000000000000000, 0.000000000000000000 ) ) ;
#131 = EDGE_CURVE ( 'NONE', #235, #185, #60, .T. ) ;
#132 = AXIS2_PLACEMENT_3D ( 'NONE', #82, #161, #206 ) ;
#133 = PRESENTATION_STYLE_ASSIGNMENT (( #140 ) ) ;
#134 = SURFACE_SIDE_STYLE ('',( #62 ) ) ;
#135 = EDGE_CURVE ( 'NONE', #162, #164, #264, .T. ) ;
#136 = SURFACE_STYLE_USAGE ( .BOTH. , #182 ) ;
#137 = COLOUR_RGB ( '',0.7921568627450980005, 0.8196078431372548767, 0.9333333333333333481 ) ;
#138 = ORIENTED_EDGE ( 'NONE', *, *, #48, .T. ) ;
#139 = UNCERTAINTY_MEASURE_WITH_UNIT (LENGTH_MEASURE( 1.000000000000000082E-05 ), #154, 'distance_accuracy_value', 'NONE');
#140 = SURFACE_STYLE_USAGE ( .BOTH. , #134 ) ;
#141 = ORIENTED_EDGE ( 'NONE', *, *, #247, .F. ) ;
#142 = EDGE_LOOP ( 'NONE', ( #9, #11, #234, #239 ) ) ;
#143 =( GEOMETRIC_REPRESENTATION_CONTEXT ( 3 ) GLOBAL_UNCERTAINTY_ASSIGNED_CONTEXT ( ( #5 ) ) GLOBAL_UNIT_ASSIGNED_CONTEXT ( ( #67, #47, #271 ) ) REPRESENTATION_CONTEXT ( 'NONE', 'WORKASPACE' ) );
#144 = ORIENTED_EDGE ( 'NONE', *, *, #29, .T. ) ;
#145 = PLANE ( 'NONE',  #45 ) ;
#146 =( NAMED_UNIT ( * ) SI_UNIT ( $, .STERADIAN. ) SOLID_ANGLE_UNIT ( ) );
#147 = DIRECTION ( 'NONE',  ( -2.881521880346713429E-17, 1.000000000000000000, -0.000000000000000000 ) ) ;
#148 = COLOUR_RGB ( '',1.000000000000000000, 0.000000000000000000, 0.000000000000000000 ) ;
#149 =( GEOMETRIC_REPRESENTATION_CONTEXT ( 3 ) GLOBAL_UNCERTAINTY_ASSIGNED_CONTEXT ( ( #226 ) ) GLOBAL_UNIT_ASSIGNED_CONTEXT ( ( #189, #76, #73 ) ) REPRESENTATION_CONTEXT ( 'NONE', 'WORKASPACE' ) );
#150 = SURFACE_SIDE_STYLE ('',( #124 ) ) ;
#151 = CARTESIAN_POINT ( 'NONE',  ( 5.999999999999999112, 75.00000000000000000, 7.347880794884120722E-16 ) ) ;
#152 =( NAMED_UNIT ( * ) SI_UNIT ( $, .STERADIAN. ) SOLID_ANGLE_UNIT ( ) );
#153 = DIRECTION ( 'NONE',  ( 1.000000000000000000, 0.000000000000000000, 0.000000000000000000 ) ) ;
#154 =( LENGTH_UNIT ( ) NAMED_UNIT ( * ) SI_UNIT ( .MILLI., .METRE. ) );
#155 = CARTESIAN_POINT ( 'NONE',  ( 2.490950504075057843E-33, 24.00000000000000000, 0.000000000000000000 ) ) ;
#156 = CYLINDRICAL_SURFACE ( 'NONE', #233, 6.000000000000000000 ) ;
#157 = AXIS2_PLACEMENT_3D ( 'NONE', #208, #252, #28 ) ;
#158 = UNCERTAINTY_MEASURE_WITH_UNIT (LENGTH_MEASURE( 1.000000000000000082E-05 ), #179, 'distance_accuracy_value', 'NONE');
#159 = DIRECTION ( 'NONE',  ( 0.000000000000000000, 0.000000000000000000, -1.000000000000000000 ) ) ;
#160 = PRODUCT_DEFINITION_FORMATION_WITH_SPECIFIED_SOURCE ( 'ANY', '', #39, .NOT_KNOWN. ) ;
#161 = DIRECTION ( 'NONE',  ( -0.000000000000000000, -1.000000000000000000, -0.000000000000000000 ) ) ;
#162 = VERTEX_POINT ( 'NONE', #61 ) ;
#163 = DIRECTION ( 'NONE',  ( 0.000000000000000000, -1.000000000000000000, -0.000000000000000000 ) ) ;
#164 = VERTEX_POINT ( 'NONE', #250 ) ;
#165 = CARTESIAN_POINT ( 'NONE',  ( -1.469576158976823750E-15, 75.00000000000000000, 0.000000000000000000 ) ) ;
#166 = ORIENTED_EDGE ( 'NONE', *, *, #23, .T. ) ;
#167 = PRESENTATION_STYLE_ASSIGNMENT (( #241 ) ) ;
#168 = AXIS2_PLACEMENT_3D ( 'NONE', #165, #32, #216 ) ;
#169 = SURFACE_STYLE_USAGE ( .BOTH. , #56 ) ;
#170 = CARTESIAN_POINT ( 'NONE',  ( 6.000000000000000000, 24.00000000000000000, 7.347880794884120722E-16 ) ) ;
#171 = FILL_AREA_STYLE_COLOUR ( '', #137 ) ;
#172 = CIRCLE ( 'NONE', #248, 6.000000000000000000 ) ;
#173 = CARTESIAN_POINT ( 'NONE',  ( 0.000000000000000000, 24.00000000000000000, 0.000000000000000000 ) ) ;
#174 = ORIENTED_EDGE ( 'NONE', *, *, #255, .F. ) ;
#175 = PLANE ( 'NONE',  #80 ) ;
#176 =( NAMED_UNIT ( * ) PLANE_ANGLE_UNIT ( ) SI_UNIT ( $, .RADIAN. ) );
#177 = FACE_OUTER_BOUND ( 'NONE', #215, .T. ) ;
#178 =( GEOMETRIC_REPRESENTATION_CONTEXT ( 3 ) GLOBAL_UNCERTAINTY_ASSIGNED_CONTEXT ( ( #158 ) ) GLOBAL_UNIT_ASSIGNED_CONTEXT ( ( #179, #49, #7 ) ) REPRESENTATION_CONTEXT ( 'NONE', 'WORKASPACE' ) );
#179 =( LENGTH_UNIT ( ) NAMED_UNIT ( * ) SI_UNIT ( .MILLI., .METRE. ) );
#180 = SURFACE_STYLE_USAGE ( .BOTH. , #85 ) ;
#181 = CYLINDRICAL_SURFACE ( 'NONE', #157, 6.000000000000000888 ) ;
#182 = SURFACE_SIDE_STYLE ('',( #90 ) ) ;
#183 = AXIS2_PLACEMENT_3D ( 'NONE', #83, #201, #200 ) ;
#184 = EDGE_CURVE ( 'NONE', #235, #93, #198, .T. ) ;
#185 = VERTEX_POINT ( 'NONE', #130 ) ;
#186 = UNCERTAINTY_MEASURE_WITH_UNIT (LENGTH_MEASURE( 1.000000000000000082E-05 ), #187, 'distance_accuracy_value', 'NONE');
#187 =( LENGTH_UNIT ( ) NAMED_UNIT ( * ) SI_UNIT ( .MILLI., .METRE. ) );
#188 = PLANE ( 'NONE',  #54 ) ;
#189 =( LENGTH_UNIT ( ) NAMED_UNIT ( * ) SI_UNIT ( .MILLI., .METRE. ) );
#190 = COLOUR_RGB ( '',0.7921568627450980005, 0.8196078431372548767, 0.9333333333333333481 ) ;
#191 = AXIS2_PLACEMENT_3D ( 'NONE', #63, #203, #256 ) ;
#192 = PRODUCT_DEFINITION_CONTEXT ( 'detailed design', #113, 'design' ) ;
#193 =( LENGTH_UNIT ( ) NAMED_UNIT ( * ) SI_UNIT ( .MILLI., .METRE. ) );
#194 = DIRECTION ( 'NONE',  ( -0.000000000000000000, -1.000000000000000000, -0.000000000000000000 ) ) ;
#195 = FILL_AREA_STYLE_COLOUR ( '', #190 ) ;
#196 = ADVANCED_FACE ( 'NONE', ( #225 ), #175, .F. ) ;
#197 = MECHANICAL_DESIGN_GEOMETRIC_PRESENTATION_REPRESENTATION (  '', ( #78 ), #242 ) ;
#198 = CIRCLE ( 'NONE', #103, 6.000000000000000000 ) ;
#199 = DIRECTION ( 'NONE',  ( -1.000000000000000000, 0.000000000000000000, 0.000000000000000000 ) ) ;
#200 = DIRECTION ( 'NONE',  ( 0.000000000000000000, 0.000000000000000000, -1.000000000000000000 ) ) ;
#201 = DIRECTION ( 'NONE',  ( -0.000000000000000000, -1.000000000000000000, -0.000000000000000000 ) ) ;
#202 = AXIS2_PLACEMENT_3D ( 'NONE', #18, #16, #199 ) ;
#203 = DIRECTION ( 'NONE',  ( -2.881521880346713429E-17, 1.000000000000000000, -0.000000000000000000 ) ) ;
#204 = PRODUCT_DEFINITION_SHAPE ( 'NONE', 'NONE',  #55 ) ;
#205 = UNCERTAINTY_MEASURE_WITH_UNIT (LENGTH_MEASURE( 1.000000000000000082E-05 ), #232, 'distance_accuracy_value', 'NONE');
#206 = DIRECTION ( 'NONE',  ( 0.000000000000000000, 0.000000000000000000, -1.000000000000000000 ) ) ;
#207 = ADVANCED_FACE ( 'NONE', ( #125 ), #223, .T. ) ;
#208 = CARTESIAN_POINT ( 'NONE',  ( -1.469576158976823750E-15, 75.00000000000000000, 0.000000000000000000 ) ) ;
#209 = COLOUR_RGB ( '',1.000000000000000000, 0.000000000000000000, 0.000000000000000000 ) ;
#210 = UNCERTAINTY_MEASURE_WITH_UNIT (LENGTH_MEASURE( 1.000000000000000082E-05 ), #193, 'distance_accuracy_value', 'NONE');
#211 = DIRECTION ( 'NONE',  ( 0.000000000000000000, 0.000000000000000000, -1.000000000000000000 ) ) ;
#212 = FILL_AREA_STYLE_COLOUR ( '', #148 ) ;
#213 = ORIENTED_EDGE ( 'NONE', *, *, #135, .F. ) ;
#214 = AXIS2_PLACEMENT_3D ( 'NONE', #282, #15, #259 ) ;
#215 = EDGE_LOOP ( 'NONE', ( #251, #114, #284, #96 ) ) ;
#216 = DIRECTION ( 'NONE',  ( -1.000000000000000000, 0.000000000000000000, 0.000000000000000000 ) ) ;
#217 = ORIENTED_EDGE ( 'NONE', *, *, #255, .T. ) ;
#218 = SURFACE_STYLE_USAGE ( .BOTH. , #150 ) ;
#219 = DIRECTION ( 'NONE',  ( -1.000000000000000000, 0.000000000000000000, 0.000000000000000000 ) ) ;
#220 = VECTOR ( 'NONE', #230, 1000.000000000000000 ) ;
#221 = CARTESIAN_POINT ( 'NONE',  ( 0.000000000000000000, 0.000000000000000000, 0.000000000000000000 ) ) ;
#222 = PRODUCT_CONTEXT ( 'NONE', #97, 'mechanical' ) ;
#223 = CYLINDRICAL_SURFACE ( 'NONE', #202, 6.000000000000000888 ) ;
#224 =( GEOMETRIC_REPRESENTATION_CONTEXT ( 3 ) GLOBAL_UNCERTAINTY_ASSIGNED_CONTEXT ( ( #205 ) ) GLOBAL_UNIT_ASSIGNED_CONTEXT ( ( #232, #176, #8 ) ) REPRESENTATION_CONTEXT ( 'NONE', 'WORKASPACE' ) );
#225 = FACE_OUTER_BOUND ( 'NONE', #50, .T. ) ;
#226 = UNCERTAINTY_MEASURE_WITH_UNIT (LENGTH_MEASURE( 1.000000000000000082E-05 ), #189, 'distance_accuracy_value', 'NONE');
#227 = FILL_AREA_STYLE_COLOUR ( '', #209 ) ;
#228 = DIRECTION ( 'NONE',  ( -0.000000000000000000, -1.000000000000000000, -0.000000000000000000 ) ) ;
#229 = COLOUR_RGB ( '',1.000000000000000000, 0.000000000000000000, 0.000000000000000000 ) ;
#230 = DIRECTION ( 'NONE',  ( -2.881521880346713429E-17, 1.000000000000000000, -0.000000000000000000 ) ) ;
#231 = PRODUCT_RELATED_PRODUCT_CATEGORY ( 'part', '', ( #39 ) ) ;
#232 =( LENGTH_UNIT ( ) NAMED_UNIT ( * ) SI_UNIT ( .MILLI., .METRE. ) );
#233 = AXIS2_PLACEMENT_3D ( 'NONE', #25, #115, #211 ) ;
#234 = ORIENTED_EDGE ( 'NONE', *, *, #48, .F. ) ;
#235 = VERTEX_POINT ( 'NONE', #2 ) ;
#236 = CARTESIAN_POINT ( 'NONE',  ( 0.000000000000000000, 0.000000000000000000, 0.000000000000000000 ) ) ;
#237 = PRESENTATION_LAYER_ASSIGNMENT (  '', '', ( #13 ) ) ;
#238 = CIRCLE ( 'NONE', #168, 6.000000000000001776 ) ;
#239 = ORIENTED_EDGE ( 'NONE', *, *, #131, .F. ) ;
#240 = DIRECTION ( 'NONE',  ( 0.000000000000000000, 0.000000000000000000, -1.000000000000000000 ) ) ;
#241 = SURFACE_STYLE_USAGE ( .BOTH. , #123 ) ;
#242 =( GEOMETRIC_REPRESENTATION_CONTEXT ( 3 ) GLOBAL_UNCERTAINTY_ASSIGNED_CONTEXT ( ( #186 ) ) GLOBAL_UNIT_ASSIGNED_CONTEXT ( ( #187, #121, #263 ) ) REPRESENTATION_CONTEXT ( 'NONE', 'WORKASPACE' ) );
#243 =( NAMED_UNIT ( * ) PLANE_ANGLE_UNIT ( ) SI_UNIT ( $, .RADIAN. ) );
#244 = MANIFOLD_SOLID_BREP ( 'Revolve - Cutting Edge', #77 ) ;
#245 = CARTESIAN_POINT ( 'NONE',  ( 0.000000000000000000, 0.000000000000000000, 0.000000000000000000 ) ) ;
#246 = CARTESIAN_POINT ( 'NONE',  ( 7.347880794884119736E-16, 0.000000000000000000, 6.000000000000000000 ) ) ;
#247 = EDGE_CURVE ( 'NONE', #164, #69, #24, .T. ) ;
#248 = AXIS2_PLACEMENT_3D ( 'NONE', #236, #194, #286 ) ;
#249 = VECTOR ( 'NONE', #22, 1000.000000000000000 ) ;
#250 = CARTESIAN_POINT ( 'NONE',  ( 7.347880794884119736E-16, 0.000000000000000000, 6.000000000000000000 ) ) ;
#251 = ORIENTED_EDGE ( 'NONE', *, *, #280, .T. ) ;
#252 = DIRECTION ( 'NONE',  ( -2.881521880346713429E-17, 1.000000000000000000, -0.000000000000000000 ) ) ;
#253 = ADVANCED_FACE ( 'NONE', ( #64 ), #181, .T. ) ;
#254 = EDGE_LOOP ( 'NONE', ( #281, #116 ) ) ;
#255 = EDGE_CURVE ( 'NONE', #257, #185, #101, .T. ) ;
#256 = DIRECTION ( 'NONE',  ( -1.000000000000000000, 0.000000000000000000, 0.000000000000000000 ) ) ;
#257 = VERTEX_POINT ( 'NONE', #86 ) ;
#258 = EDGE_LOOP ( 'NONE', ( #10, #144, #261, #174 ) ) ;
#259 = DIRECTION ( 'NONE',  ( 1.000000000000000000, 2.881521880346713429E-17, 0.000000000000000000 ) ) ;
#260 = CARTESIAN_POINT ( 'NONE',  ( 0.000000000000000000, 0.000000000000000000, -6.000000000000000000 ) ) ;
#261 = ORIENTED_EDGE ( 'NONE', *, *, #131, .T. ) ;
#262 = FILL_AREA_STYLE ('',( #34 ) ) ;
#263 =( NAMED_UNIT ( * ) SI_UNIT ( $, .STERADIAN. ) SOLID_ANGLE_UNIT ( ) );
#264 = LINE ( 'NONE', #246, #277 ) ;
#265 = DIRECTION ( 'NONE',  ( 0.000000000000000000, 0.000000000000000000, -1.000000000000000000 ) ) ;
#266 = ADVANCED_FACE ( 'NONE', ( #177 ), #156, .T. ) ;
#267 = FILL_AREA_STYLE ('',( #171 ) ) ;
#268 = AXIS2_PLACEMENT_3D ( 'NONE', #173, #269, #265 ) ;
#269 = DIRECTION ( 'NONE',  ( -0.000000000000000000, -1.000000000000000000, -0.000000000000000000 ) ) ;
#270 = SURFACE_STYLE_FILL_AREA ( #57 ) ;
#271 =( NAMED_UNIT ( * ) SI_UNIT ( $, .STERADIAN. ) SOLID_ANGLE_UNIT ( ) );
#272 = CIRCLE ( 'NONE', #268, 6.000000000000000000 ) ;
#273 = FILL_AREA_STYLE ('',( #274 ) ) ;
#274 = FILL_AREA_STYLE_COLOUR ( '', #35 ) ;
#275 = EDGE_LOOP ( 'NONE', ( #166, #118 ) ) ;
#276 = CLOSED_SHELL ( 'NONE', ( #253, #196, #207, #36 ) ) ;
#277 = VECTOR ( 'NONE', #41, 1000.000000000000000 ) ;
#278 = ORIENTED_EDGE ( 'NONE', *, *, #184, .F. ) ;
#279 = EDGE_LOOP ( 'NONE', ( #213, #120, #92, #141 ) ) ;
#280 = EDGE_CURVE ( 'NONE', #31, #162, #126, .T. ) ;
#281 = ORIENTED_EDGE ( 'NONE', *, *, #280, .F. ) ;
#282 = CARTESIAN_POINT ( 'NONE',  ( 6.000000000000000000, 75.00000000000000000, 0.000000000000000000 ) ) ;
#283 = AXIS2_PLACEMENT_3D ( 'NONE', #14, #147, #219 ) ;
#284 = ORIENTED_EDGE ( 'NONE', *, *, #23, .F. ) ;
#285 = PRESENTATION_LAYER_ASSIGNMENT (  '', '', ( #112 ) ) ;
#286 = DIRECTION ( 'NONE',  ( 0.000000000000000000, 0.000000000000000000, -1.000000000000000000 ) ) ;
#287 = DIRECTION ( 'NONE',  ( -1.000000000000000000, -2.881521880346713429E-17, 0.000000000000000000 ) ) ;
#288 = MECHANICAL_DESIGN_GEOMETRIC_PRESENTATION_REPRESENTATION (  '', ( #13 ), #224 ) ;
ENDSEC;
END-ISO-10303-21;
