ISO-10303-21;
HEADER;
FILE_DESCRIPTION (( 'STEP AP214' ),
    '1' );
FILE_NAME ('Micro_SEM-156-02.STEP',
    '2021-09-02T01:46:02',
    ( '' ),
    ( '' ),
    'SwSTEP 2.0',
    'SolidWorks 2020',
    '' );
FILE_SCHEMA (( 'AUTOMOTIVE_DESIGN' ));
ENDSEC;

DATA;
#1 = EDGE_CURVE ( 'NONE', #267, #161, #192, .T. ) ;
#2 = AXIS2_PLACEMENT_3D ( 'NONE', #199, #252, #169 ) ;
#3 = FACE_OUTER_BOUND ( 'NONE', #119, .T. ) ;
#4 = ORIENTED_EDGE ( 'NONE', *, *, #7, .F. ) ;
#5 =( CONVERSION_BASED_UNIT ( 'INCH', #52 ) LENGTH_UNIT ( ) NAMED_UNIT ( #21 ) );
#6 = DIRECTION ( 'NONE',  ( -0.0000000000000000000, -0.0000000000000000000, -1.000000000000000000 ) ) ;
#7 = EDGE_CURVE ( 'NONE', #67, #161, #143, .T. ) ;
#8 = PRESENTATION_LAYER_ASSIGNMENT (  '', '', ( #124 ) ) ;
#9 = DIRECTION ( 'NONE',  ( 0.0000000000000000000, 0.0000000000000000000, -1.000000000000000000 ) ) ;
#10 = CARTESIAN_POINT ( 'NONE',  ( 0.0000000000000000000, 0.0000000000000000000, 1.500000000000000222 ) ) ;
#11 = DIRECTION ( 'NONE',  ( 0.0000000000000000000, 0.0000000000000000000, 1.000000000000000000 ) ) ;
#12 = DIRECTION ( 'NONE',  ( -0.7071067811865531239, 0.0000000000000000000, -0.7071067811865419106 ) ) ;
#13 = ORIENTED_EDGE ( 'NONE', *, *, #183, .T. ) ;
#14 = STYLED_ITEM ( 'NONE', ( #18 ), #62 ) ;
#15 = EDGE_LOOP ( 'NONE', ( #49, #166, #187, #147 ) ) ;
#16 = DIRECTION ( 'NONE',  ( -1.224646799147353454E-16, -0.0000000000000000000, -1.000000000000000000 ) ) ;
#17 = PRODUCT_RELATED_PRODUCT_CATEGORY ( 'part', '', ( #137 ) ) ;
#18 = PRESENTATION_STYLE_ASSIGNMENT (( #227 ) ) ;
#19 = DIRECTION ( 'NONE',  ( -1.000000000000000000, 0.0000000000000000000, 0.0000000000000000000 ) ) ;
#20 = PRODUCT_DEFINITION_FORMATION_WITH_SPECIFIED_SOURCE ( 'ANY', '', #137, .NOT_KNOWN. ) ;
#21 = DIMENSIONAL_EXPONENTS ( 1.000000000000000000, 0.0000000000000000000, 0.0000000000000000000, 0.0000000000000000000, 0.0000000000000000000, 0.0000000000000000000, 0.0000000000000000000 ) ;
#22 = AXIS2_PLACEMENT_3D ( 'NONE', #34, #215, #32 ) ;
#23 = DIRECTION ( 'NONE',  ( -1.000000000000000000, 0.0000000000000000000, 1.224646799147353700E-16 ) ) ;
#24 = ADVANCED_FACE ( 'NONE', ( #164 ), #102, .T. ) ;
#25 = CLOSED_SHELL ( 'NONE', ( #241, #59, #63, #259, #24, #269, #277, #201, #97, #128 ) ) ;
#26 = DIRECTION ( 'NONE',  ( 1.000000000000000000, 0.0000000000000000000, 0.0000000000000000000 ) ) ;
#27 = ORIENTED_EDGE ( 'NONE', *, *, #136, .F. ) ;
#28 = DIRECTION ( 'NONE',  ( 1.000000000000000000, 0.0000000000000000000, 0.0000000000000000000 ) ) ;
#29 =( LENGTH_UNIT ( ) NAMED_UNIT ( * ) SI_UNIT ( $, .METRE. ) );
#30 = ORIENTED_EDGE ( 'NONE', *, *, #173, .F. ) ;
#31 = CARTESIAN_POINT ( 'NONE',  ( 3.833144481331216295E-17, 0.0000000000000000000, 0.3130000000000000004 ) ) ;
#32 = DIRECTION ( 'NONE',  ( -1.000000000000000000, 0.0000000000000000000, 1.224646799147353700E-16 ) ) ;
#33 = VECTOR ( 'NONE', #85, 39.37007874015748143 ) ;
#34 = CARTESIAN_POINT ( 'NONE',  ( 1.170141077868652707E-33, 0.0000000000000000000, 9.554927009839491933E-18 ) ) ;
#35 = DIRECTION ( 'NONE',  ( -1.224646799147353454E-16, -0.0000000000000000000, -1.000000000000000000 ) ) ;
#36 = CARTESIAN_POINT ( 'NONE',  ( 3.833144481331216295E-17, 0.0000000000000000000, 0.3130000000000000004 ) ) ;
#37 = FACE_OUTER_BOUND ( 'NONE', #168, .T. ) ;
#38 = VERTEX_POINT ( 'NONE', #238 ) ;
#39 = CIRCLE ( 'NONE', #212, 0.09375000000000001388 ) ;
#40 = ORIENTED_EDGE ( 'NONE', *, *, #1, .T. ) ;
#41 =( NAMED_UNIT ( * ) PLANE_ANGLE_UNIT ( ) SI_UNIT ( $, .RADIAN. ) );
#42 = EDGE_CURVE ( 'NONE', #151, #145, #152, .T. ) ;
#43 = VECTOR ( 'NONE', #12, 39.37007874015748143 ) ;
#44 = EDGE_LOOP ( 'NONE', ( #190, #13 ) ) ;
#45 = AXIS2_PLACEMENT_3D ( 'NONE', #263, #217, #167 ) ;
#46 = PRODUCT_DEFINITION_CONTEXT ( 'detailed design', #180, 'design' ) ;
#47 = EDGE_CURVE ( 'NONE', #205, #38, #122, .T. ) ;
#48 = CARTESIAN_POINT ( 'NONE',  ( 0.09375000000000001388, 1.148106374200643401E-17, 1.485000000000000986 ) ) ;
#49 = ORIENTED_EDGE ( 'NONE', *, *, #1, .F. ) ;
#50 = PLANE ( 'NONE',  #256 ) ;
#51 = CARTESIAN_POINT ( 'NONE',  ( 0.09375000000000001388, 1.148106374200643401E-17, 1.500000000000000222 ) ) ;
#52 = LENGTH_MEASURE_WITH_UNIT ( LENGTH_MEASURE( 0.02539999999999999897 ), #29 );
#53 = ORIENTED_EDGE ( 'NONE', *, *, #111, .T. ) ;
#54 = ORIENTED_EDGE ( 'NONE', *, *, #194, .F. ) ;
#55 = LENGTH_MEASURE_WITH_UNIT ( LENGTH_MEASURE( 0.02539999999999999897 ), #138 );
#56 = EDGE_LOOP ( 'NONE', ( #105, #53, #290, #27 ) ) ;
#57 = CARTESIAN_POINT ( 'NONE',  ( -0.09375000000000001388, 0.0000000000000000000, 1.500000000000000222 ) ) ;
#58 = ORIENTED_EDGE ( 'NONE', *, *, #173, .T. ) ;
#59 = ADVANCED_FACE ( 'NONE', ( #182 ), #291, .T. ) ;
#60 = AXIS2_PLACEMENT_3D ( 'NONE', #36, #213, #127 ) ;
#61 = AXIS2_PLACEMENT_3D ( 'NONE', #245, #292, #261 ) ;
#62 = ADVANCED_BREP_SHAPE_REPRESENTATION ( 'Micro_SEM-156-02', ( #193, #188 ), #146 ) ;
#63 = ADVANCED_FACE ( 'NONE', ( #246 ), #81, .T. ) ;
#64 = AXIS2_PLACEMENT_3D ( 'NONE', #135, #148, #189 ) ;
#65 = EDGE_CURVE ( 'NONE', #96, #149, #271, .T. ) ;
#66 = AXIS2_PLACEMENT_3D ( 'NONE', #83, #203, #26 ) ;
#67 = VERTEX_POINT ( 'NONE', #236 ) ;
#68 = CARTESIAN_POINT ( 'NONE',  ( 0.07802190000000000514, 9.554927009839488851E-18, -9.554927009839491933E-18 ) ) ;
#69 = ORIENTED_EDGE ( 'NONE', *, *, #136, .T. ) ;
#70 = CARTESIAN_POINT ( 'NONE',  ( -0.07875000000000061118, 0.0000000000000000000, 1.500000000000000222 ) ) ;
#71 = ORIENTED_EDGE ( 'NONE', *, *, #47, .T. ) ;
#72 = LINE ( 'NONE', #243, #240 ) ;
#73 = DIRECTION ( 'NONE',  ( 0.1736481776669314137, 0.0000000000000000000, 0.9848077530122077983 ) ) ;
#74 = AXIS2_PLACEMENT_3D ( 'NONE', #283, #281, #278 ) ;
#75 = DIRECTION ( 'NONE',  ( -1.224646799147353454E-16, -0.0000000000000000000, -1.000000000000000000 ) ) ;
#76 = DIRECTION ( 'NONE',  ( -1.000000000000000000, 0.0000000000000000000, 0.0000000000000000000 ) ) ;
#77 = CARTESIAN_POINT ( 'NONE',  ( 0.0000000000000000000, 0.0000000000000000000, 1.500000000000000222 ) ) ;
#78 = DIRECTION ( 'NONE',  ( -0.0000000000000000000, -0.0000000000000000000, -1.000000000000000000 ) ) ;
#79 = CARTESIAN_POINT ( 'NONE',  ( 0.07802190000000000514, 9.554927009839488851E-18, 0.0000000000000000000 ) ) ;
#80 = DIRECTION ( 'NONE',  ( -0.1736481776669312194, 2.126576849575783625E-17, 0.9848077530122080203 ) ) ;
#81 = CONICAL_SURFACE ( 'NONE', #107, 0.07875000000000061118, 0.7853981633974562726 ) ;
#82 = AXIS2_PLACEMENT_3D ( 'NONE', #287, #214, #219 ) ;
#83 = CARTESIAN_POINT ( 'NONE',  ( 0.0000000000000000000, 0.0000000000000000000, 1.500000000000000222 ) ) ;
#84 =( NAMED_UNIT ( * ) SI_UNIT ( $, .STERADIAN. ) SOLID_ANGLE_UNIT ( ) );
#85 = DIRECTION ( 'NONE',  ( 0.7071067811865531239, 8.659560562355003116E-17, -0.7071067811865419106 ) ) ;
#86 = EDGE_CURVE ( 'NONE', #38, #149, #134, .T. ) ;
#87 = DIRECTION ( 'NONE',  ( 0.0000000000000000000, 0.0000000000000000000, 1.000000000000000000 ) ) ;
#88 = CARTESIAN_POINT ( 'NONE',  ( -0.09374999999999995837, 0.0000000000000000000, 0.4021984875871287279 ) ) ;
#89 = PRODUCT_DEFINITION_SHAPE ( 'NONE', 'NONE',  #170 ) ;
#90 = CIRCLE ( 'NONE', #64, 0.09375000000000001388 ) ;
#91 = EDGE_CURVE ( 'NONE', #161, #149, #132, .T. ) ;
#92 = SURFACE_STYLE_FILL_AREA ( #257 ) ;
#93 = ORIENTED_EDGE ( 'NONE', *, *, #183, .F. ) ;
#94 = CARTESIAN_POINT ( 'NONE',  ( -0.07802189999999997738, 1.051799537592296220E-17, 0.3130000000000000004 ) ) ;
#95 = DIRECTION ( 'NONE',  ( -1.000000000000000000, 0.0000000000000000000, 1.224646799147353700E-16 ) ) ;
#96 = VERTEX_POINT ( 'NONE', #94 ) ;
#97 = ADVANCED_FACE ( 'NONE', ( #248 ), #100, .T. ) ;
#98 =( NAMED_UNIT ( * ) SI_UNIT ( $, .STERADIAN. ) SOLID_ANGLE_UNIT ( ) );
#99 = ORIENTED_EDGE ( 'NONE', *, *, #159, .F. ) ;
#100 = CYLINDRICAL_SURFACE ( 'NONE', #155, 0.07802190000000000514 ) ;
#101 = CYLINDRICAL_SURFACE ( 'NONE', #61, 0.07802190000000000514 ) ;
#102 = CYLINDRICAL_SURFACE ( 'NONE', #186, 0.09375000000000001388 ) ;
#103 = CIRCLE ( 'NONE', #74, 0.07802190000000000514 ) ;
#104 = CARTESIAN_POINT ( 'NONE',  ( 0.07875000000000061118, 9.644093543285480678E-18, 1.500000000000000222 ) ) ;
#105 = ORIENTED_EDGE ( 'NONE', *, *, #251, .F. ) ;
#106 = ORIENTED_EDGE ( 'NONE', *, *, #7, .T. ) ;
#107 = AXIS2_PLACEMENT_3D ( 'NONE', #288, #294, #76 ) ;
#108 = AXIS2_PLACEMENT_3D ( 'NONE', #77, #9, #163 ) ;
#109 = FILL_AREA_STYLE ('',( #198 ) ) ;
#110 =( GEOMETRIC_REPRESENTATION_CONTEXT ( 3 ) GLOBAL_UNCERTAINTY_ASSIGNED_CONTEXT ( ( #112 ) ) GLOBAL_UNIT_ASSIGNED_CONTEXT ( ( #250, #41, #270 ) ) REPRESENTATION_CONTEXT ( 'NONE', 'WORKASPACE' ) );
#111 = EDGE_CURVE ( 'NONE', #67, #96, #280, .T. ) ;
#112 = UNCERTAINTY_MEASURE_WITH_UNIT (LENGTH_MEASURE( 1.000000000000000082E-05 ), #250, 'distance_accuracy_value', 'NONE');
#113 = CARTESIAN_POINT ( 'NONE',  ( 0.0000000000000000000, 0.0000000000000000000, 1.500000000000000222 ) ) ;
#114 = ORIENTED_EDGE ( 'NONE', *, *, #253, .T. ) ;
#115 = UNCERTAINTY_MEASURE_WITH_UNIT (LENGTH_MEASURE( 1.000000000000000082E-05 ), #139, 'distance_accuracy_value', 'NONE');
#116 = PRESENTATION_LAYER_ASSIGNMENT (  '', '', ( #14 ) ) ;
#117 = FILL_AREA_STYLE_COLOUR ( '', #221 ) ;
#118 = DIRECTION ( 'NONE',  ( 1.000000000000000000, 0.0000000000000000000, 0.0000000000000000000 ) ) ;
#119 = EDGE_LOOP ( 'NONE', ( #157, #69 ) ) ;
#120 = DIRECTION ( 'NONE',  ( 0.0000000000000000000, 0.0000000000000000000, -1.000000000000000000 ) ) ;
#121 = AXIS2_PLACEMENT_3D ( 'NONE', #191, #16, #28 ) ;
#122 = LINE ( 'NONE', #244, #43 ) ;
#123 = AXIS2_PLACEMENT_3D ( 'NONE', #273, #232, #23 ) ;
#124 = STYLED_ITEM ( 'NONE', ( #231 ), #193 ) ;
#125 = EDGE_LOOP ( 'NONE', ( #93, #131, #284, #260 ) ) ;
#126 = LINE ( 'NONE', #68, #293 ) ;
#127 = DIRECTION ( 'NONE',  ( 1.000000000000000000, 0.0000000000000000000, 0.0000000000000000000 ) ) ;
#128 = ADVANCED_FACE ( 'NONE', ( #3 ), #254, .F. ) ;
#129 =( NAMED_UNIT ( * ) PLANE_ANGLE_UNIT ( ) SI_UNIT ( $, .RADIAN. ) );
#130 = ORIENTED_EDGE ( 'NONE', *, *, #42, .F. ) ;
#131 = ORIENTED_EDGE ( 'NONE', *, *, #141, .T. ) ;
#132 = CIRCLE ( 'NONE', #121, 0.09375000000000001388 ) ;
#133 = CIRCLE ( 'NONE', #45, 0.09375000000000001388 ) ;
#134 = LINE ( 'NONE', #57, #255 ) ;
#135 = CARTESIAN_POINT ( 'NONE',  ( 0.0000000000000000000, 0.0000000000000000000, 1.485000000000000986 ) ) ;
#136 = EDGE_CURVE ( 'NONE', #145, #151, #197, .T. ) ;
#137 = PRODUCT ( 'Micro_SEM-156-02', 'Micro_SEM-156-02', '', ( #172 ) ) ;
#138 =( LENGTH_UNIT ( ) NAMED_UNIT ( * ) SI_UNIT ( $, .METRE. ) );
#139 =( CONVERSION_BASED_UNIT ( 'INCH', #55 ) LENGTH_UNIT ( ) NAMED_UNIT ( #276 ) );
#140 = ORIENTED_EDGE ( 'NONE', *, *, #216, .T. ) ;
#141 = EDGE_CURVE ( 'NONE', #296, #267, #144, .T. ) ;
#142 = CARTESIAN_POINT ( 'NONE',  ( 0.0000000000000000000, 0.0000000000000000000, 1.500000000000000222 ) ) ;
#143 = LINE ( 'NONE', #264, #204 ) ;
#144 = LINE ( 'NONE', #104, #33 ) ;
#145 = VERTEX_POINT ( 'NONE', #79 ) ;
#146 =( GEOMETRIC_REPRESENTATION_CONTEXT ( 3 ) GLOBAL_UNCERTAINTY_ASSIGNED_CONTEXT ( ( #177 ) ) GLOBAL_UNIT_ASSIGNED_CONTEXT ( ( #5, #239, #84 ) ) REPRESENTATION_CONTEXT ( 'NONE', 'WORKASPACE' ) );
#147 = ORIENTED_EDGE ( 'NONE', *, *, #91, .F. ) ;
#148 = DIRECTION ( 'NONE',  ( 0.0000000000000000000, 0.0000000000000000000, -1.000000000000000000 ) ) ;
#149 = VERTEX_POINT ( 'NONE', #88 ) ;
#150 = CARTESIAN_POINT ( 'NONE',  ( 0.0000000000000000000, 0.0000000000000000000, 0.0000000000000000000 ) ) ;
#151 = VERTEX_POINT ( 'NONE', #211 ) ;
#152 = CIRCLE ( 'NONE', #22, 0.07802190000000000514 ) ;
#153 = LENGTH_MEASURE_WITH_UNIT ( LENGTH_MEASURE( 0.02539999999999999897 ), #272 );
#154 = DIRECTION ( 'NONE',  ( 0.0000000000000000000, 0.0000000000000000000, 1.000000000000000000 ) ) ;
#155 = AXIS2_PLACEMENT_3D ( 'NONE', #265, #258, #95 ) ;
#156 = CONICAL_SURFACE ( 'NONE', #108, 0.07875000000000061118, 0.7853981633974562726 ) ;
#157 = ORIENTED_EDGE ( 'NONE', *, *, #42, .T. ) ;
#158 = EDGE_LOOP ( 'NONE', ( #58, #234, #130, #185 ) ) ;
#159 = EDGE_CURVE ( 'NONE', #205, #296, #174, .T. ) ;
#160 = DIRECTION ( 'NONE',  ( 1.000000000000000000, 0.0000000000000000000, 0.0000000000000000000 ) ) ;
#161 = VERTEX_POINT ( 'NONE', #206 ) ;
#162 = EDGE_LOOP ( 'NONE', ( #279, #99, #71, #54 ) ) ;
#163 = DIRECTION ( 'NONE',  ( -1.000000000000000000, 0.0000000000000000000, 0.0000000000000000000 ) ) ;
#164 = FACE_OUTER_BOUND ( 'NONE', #15, .T. ) ;
#165 = CARTESIAN_POINT ( 'NONE',  ( 0.0000000000000000000, 0.0000000000000000000, 1.485000000000000986 ) ) ;
#166 = ORIENTED_EDGE ( 'NONE', *, *, #194, .T. ) ;
#167 = DIRECTION ( 'NONE',  ( 1.000000000000000000, 0.0000000000000000000, 0.0000000000000000000 ) ) ;
#168 = EDGE_LOOP ( 'NONE', ( #114, #40, #220, #207 ) ) ;
#169 = DIRECTION ( 'NONE',  ( 1.000000000000000000, 0.0000000000000000000, -0.0000000000000000000 ) ) ;
#170 = PRODUCT_DEFINITION ( 'UNKNOWN', '', #20, #46 ) ;
#171 = APPLICATION_CONTEXT ( 'automotive_design' ) ;
#172 = PRODUCT_CONTEXT ( 'NONE', #171, 'mechanical' ) ;
#173 = EDGE_CURVE ( 'NONE', #96, #67, #103, .T. ) ;
#174 = CIRCLE ( 'NONE', #66, 0.07875000000000061118 ) ;
#175 = DIRECTION ( 'NONE',  ( 1.000000000000000000, 0.0000000000000000000, 0.0000000000000000000 ) ) ;
#176 = MECHANICAL_DESIGN_GEOMETRIC_PRESENTATION_REPRESENTATION (  '', ( #124 ), #226 ) ;
#177 = UNCERTAINTY_MEASURE_WITH_UNIT (LENGTH_MEASURE( 1.000000000000000082E-05 ), #5, 'distance_accuracy_value', 'NONE');
#178 = SURFACE_SIDE_STYLE ('',( #92 ) ) ;
#179 = DIRECTION ( 'NONE',  ( 1.224646799147353454E-16, 0.0000000000000000000, 1.000000000000000000 ) ) ;
#180 = APPLICATION_CONTEXT ( 'automotive_design' ) ;
#181 = CARTESIAN_POINT ( 'NONE',  ( 3.833144481331216295E-17, 0.0000000000000000000, 0.3130000000000000004 ) ) ;
#182 = FACE_OUTER_BOUND ( 'NONE', #209, .T. ) ;
#183 = EDGE_CURVE ( 'NONE', #296, #205, #266, .T. ) ;
#184 = DIRECTION ( 'NONE',  ( 1.000000000000000000, 0.0000000000000000000, -0.0000000000000000000 ) ) ;
#185 = ORIENTED_EDGE ( 'NONE', *, *, #247, .F. ) ;
#186 = AXIS2_PLACEMENT_3D ( 'NONE', #10, #218, #242 ) ;
#187 = ORIENTED_EDGE ( 'NONE', *, *, #86, .T. ) ;
#188 = AXIS2_PLACEMENT_3D ( 'NONE', #150, #154, #225 ) ;
#189 = DIRECTION ( 'NONE',  ( 1.000000000000000000, 0.0000000000000000000, 0.0000000000000000000 ) ) ;
#190 = ORIENTED_EDGE ( 'NONE', *, *, #159, .T. ) ;
#191 = CARTESIAN_POINT ( 'NONE',  ( 4.925510904454838295E-17, 0.0000000000000000000, 0.4021984875871287279 ) ) ;
#192 = LINE ( 'NONE', #51, #222 ) ;
#193 = MANIFOLD_SOLID_BREP ( 'Cut-Revolve1', #25 ) ;
#194 = EDGE_CURVE ( 'NONE', #267, #38, #90, .T. ) ;
#195 = DIRECTION ( 'NONE',  ( -1.224646799147353454E-16, -0.0000000000000000000, -1.000000000000000000 ) ) ;
#196 = AXIS2_PLACEMENT_3D ( 'NONE', #181, #195, #19 ) ;
#197 = CIRCLE ( 'NONE', #123, 0.07802190000000000514 ) ;
#198 = FILL_AREA_STYLE_COLOUR ( '', #299 ) ;
#199 = CARTESIAN_POINT ( 'NONE',  ( 0.0000000000000000000, 0.0000000000000000000, 0.0000000000000000000 ) ) ;
#200 = SHAPE_DEFINITION_REPRESENTATION ( #89, #62 ) ;
#201 = ADVANCED_FACE ( 'NONE', ( #289 ), #230, .T. ) ;
#202 = SURFACE_SIDE_STYLE ('',( #228 ) ) ;
#203 = DIRECTION ( 'NONE',  ( 0.0000000000000000000, 0.0000000000000000000, 1.000000000000000000 ) ) ;
#204 = VECTOR ( 'NONE', #73, 39.37007874015748143 ) ;
#205 = VERTEX_POINT ( 'NONE', #70 ) ;
#206 = CARTESIAN_POINT ( 'NONE',  ( 0.09375000000000004163, 1.148106374200644017E-17, 0.4021984875871287279 ) ) ;
#207 = ORIENTED_EDGE ( 'NONE', *, *, #86, .F. ) ;
#208 = DIMENSIONAL_EXPONENTS ( 1.000000000000000000, 0.0000000000000000000, 0.0000000000000000000, 0.0000000000000000000, 0.0000000000000000000, 0.0000000000000000000, 0.0000000000000000000 ) ;
#209 = EDGE_LOOP ( 'NONE', ( #30, #262, #140, #4 ) ) ;
#210 = FACE_OUTER_BOUND ( 'NONE', #162, .T. ) ;
#211 = CARTESIAN_POINT ( 'NONE',  ( -0.07802190000000000514, 0.0000000000000000000, 1.910985401967898387E-17 ) ) ;
#212 = AXIS2_PLACEMENT_3D ( 'NONE', #165, #120, #160 ) ;
#213 = DIRECTION ( 'NONE',  ( 1.224646799147353454E-16, 0.0000000000000000000, 1.000000000000000000 ) ) ;
#214 = DIRECTION ( 'NONE',  ( -0.0000000000000000000, -0.0000000000000000000, -1.000000000000000000 ) ) ;
#215 = DIRECTION ( 'NONE',  ( -1.224646799147353454E-16, -0.0000000000000000000, -1.000000000000000000 ) ) ;
#216 = EDGE_CURVE ( 'NONE', #149, #161, #133, .T. ) ;
#217 = DIRECTION ( 'NONE',  ( -1.224646799147353454E-16, -0.0000000000000000000, -1.000000000000000000 ) ) ;
#218 = DIRECTION ( 'NONE',  ( -0.0000000000000000000, -0.0000000000000000000, -1.000000000000000000 ) ) ;
#219 = DIRECTION ( 'NONE',  ( -1.000000000000000000, 0.0000000000000000000, 0.0000000000000000000 ) ) ;
#220 = ORIENTED_EDGE ( 'NONE', *, *, #216, .F. ) ;
#221 = COLOUR_RGB ( '',0.7921568627450980005, 0.8196078431372548767, 0.9333333333333333481 ) ;
#222 = VECTOR ( 'NONE', #78, 39.37007874015748143 ) ;
#223 = APPLICATION_PROTOCOL_DEFINITION ( 'draft international standard', 'automotive_design', 1998, #171 ) ;
#224 = ORIENTED_EDGE ( 'NONE', *, *, #111, .F. ) ;
#225 = DIRECTION ( 'NONE',  ( 1.000000000000000000, 0.0000000000000000000, 0.0000000000000000000 ) ) ;
#226 =( GEOMETRIC_REPRESENTATION_CONTEXT ( 3 ) GLOBAL_UNCERTAINTY_ASSIGNED_CONTEXT ( ( #115 ) ) GLOBAL_UNIT_ASSIGNED_CONTEXT ( ( #139, #129, #98 ) ) REPRESENTATION_CONTEXT ( 'NONE', 'WORKASPACE' ) );
#227 = SURFACE_STYLE_USAGE ( .BOTH. , #202 ) ;
#228 = SURFACE_STYLE_FILL_AREA ( #109 ) ;
#229 = VECTOR ( 'NONE', #80, 39.37007874015747433 ) ;
#230 = CONICAL_SURFACE ( 'NONE', #275, 0.07802190000000000514, 0.1745329251994339192 ) ;
#231 = PRESENTATION_STYLE_ASSIGNMENT (( #282 ) ) ;
#232 = DIRECTION ( 'NONE',  ( -1.224646799147353454E-16, -0.0000000000000000000, -1.000000000000000000 ) ) ;
#233 = AXIS2_PLACEMENT_3D ( 'NONE', #113, #87, #175 ) ;
#234 = ORIENTED_EDGE ( 'NONE', *, *, #251, .T. ) ;
#235 = CARTESIAN_POINT ( 'NONE',  ( 0.07875000000000061118, 1.056257864264595965E-17, 1.500000000000000222 ) ) ;
#236 = CARTESIAN_POINT ( 'NONE',  ( 0.07802190000000004677, 0.0000000000000000000, 0.3130000000000000004 ) ) ;
#237 = FACE_OUTER_BOUND ( 'NONE', #158, .T. ) ;
#238 = CARTESIAN_POINT ( 'NONE',  ( -0.09375000000000001388, 0.0000000000000000000, 1.485000000000000986 ) ) ;
#239 =( NAMED_UNIT ( * ) PLANE_ANGLE_UNIT ( ) SI_UNIT ( $, .RADIAN. ) );
#240 = VECTOR ( 'NONE', #35, 39.37007874015748143 ) ;
#241 = ADVANCED_FACE ( 'NONE', ( #237 ), #101, .T. ) ;
#242 = DIRECTION ( 'NONE',  ( -1.000000000000000000, 0.0000000000000000000, 0.0000000000000000000 ) ) ;
#243 = CARTESIAN_POINT ( 'NONE',  ( -0.07802190000000000514, 0.0000000000000000000, 9.554927009839491933E-18 ) ) ;
#244 = CARTESIAN_POINT ( 'NONE',  ( -0.07875000000000061118, 0.0000000000000000000, 1.500000000000000222 ) ) ;
#245 = CARTESIAN_POINT ( 'NONE',  ( 0.0000000000000000000, 0.0000000000000000000, 0.0000000000000000000 ) ) ;
#246 = FACE_OUTER_BOUND ( 'NONE', #125, .T. ) ;
#247 = EDGE_CURVE ( 'NONE', #96, #151, #72, .T. ) ;
#248 = FACE_OUTER_BOUND ( 'NONE', #56, .T. ) ;
#249 = EDGE_LOOP ( 'NONE', ( #286, #224, #106, #297 ) ) ;
#250 =( CONVERSION_BASED_UNIT ( 'INCH', #153 ) LENGTH_UNIT ( ) NAMED_UNIT ( #208 ) );
#251 = EDGE_CURVE ( 'NONE', #67, #145, #126, .T. ) ;
#252 = DIRECTION ( 'NONE',  ( 0.0000000000000000000, 0.0000000000000000000, 1.000000000000000000 ) ) ;
#253 = EDGE_CURVE ( 'NONE', #38, #267, #39, .T. ) ;
#254 = PLANE ( 'NONE',  #2 ) ;
#255 = VECTOR ( 'NONE', #6, 39.37007874015748143 ) ;
#256 = AXIS2_PLACEMENT_3D ( 'NONE', #142, #11, #184 ) ;
#257 = FILL_AREA_STYLE ('',( #117 ) ) ;
#258 = DIRECTION ( 'NONE',  ( -1.224646799147353454E-16, -0.0000000000000000000, -1.000000000000000000 ) ) ;
#259 = ADVANCED_FACE ( 'NONE', ( #37 ), #268, .T. ) ;
#260 = ORIENTED_EDGE ( 'NONE', *, *, #47, .F. ) ;
#261 = DIRECTION ( 'NONE',  ( -1.000000000000000000, 0.0000000000000000000, 1.224646799147353700E-16 ) ) ;
#262 = ORIENTED_EDGE ( 'NONE', *, *, #65, .T. ) ;
#263 = CARTESIAN_POINT ( 'NONE',  ( 4.925510904454838295E-17, 0.0000000000000000000, 0.4021984875871287279 ) ) ;
#264 = CARTESIAN_POINT ( 'NONE',  ( 0.07802190000000004677, 0.0000000000000000000, 0.3130000000000000004 ) ) ;
#265 = CARTESIAN_POINT ( 'NONE',  ( 0.0000000000000000000, 0.0000000000000000000, 0.0000000000000000000 ) ) ;
#266 = CIRCLE ( 'NONE', #233, 0.07875000000000061118 ) ;
#267 = VERTEX_POINT ( 'NONE', #48 ) ;
#268 = CYLINDRICAL_SURFACE ( 'NONE', #82, 0.09375000000000001388 ) ;
#269 = ADVANCED_FACE ( 'NONE', ( #295 ), #50, .T. ) ;
#270 =( NAMED_UNIT ( * ) SI_UNIT ( $, .STERADIAN. ) SOLID_ANGLE_UNIT ( ) );
#271 = LINE ( 'NONE', #274, #229 ) ;
#272 =( LENGTH_UNIT ( ) NAMED_UNIT ( * ) SI_UNIT ( $, .METRE. ) );
#273 = CARTESIAN_POINT ( 'NONE',  ( 1.170141077868652707E-33, 0.0000000000000000000, 9.554927009839491933E-18 ) ) ;
#274 = CARTESIAN_POINT ( 'NONE',  ( -0.07802189999999997738, 9.554927009839488851E-18, 0.3130000000000000004 ) ) ;
#275 = AXIS2_PLACEMENT_3D ( 'NONE', #31, #179, #118 ) ;
#276 = DIMENSIONAL_EXPONENTS ( 1.000000000000000000, 0.0000000000000000000, 0.0000000000000000000, 0.0000000000000000000, 0.0000000000000000000, 0.0000000000000000000, 0.0000000000000000000 ) ;
#277 = ADVANCED_FACE ( 'NONE', ( #210 ), #156, .T. ) ;
#278 = DIRECTION ( 'NONE',  ( -1.000000000000000000, 0.0000000000000000000, 0.0000000000000000000 ) ) ;
#279 = ORIENTED_EDGE ( 'NONE', *, *, #141, .F. ) ;
#280 = CIRCLE ( 'NONE', #196, 0.07802190000000000514 ) ;
#281 = DIRECTION ( 'NONE',  ( -1.224646799147353454E-16, -0.0000000000000000000, -1.000000000000000000 ) ) ;
#282 = SURFACE_STYLE_USAGE ( .BOTH. , #178 ) ;
#283 = CARTESIAN_POINT ( 'NONE',  ( 3.833144481331216295E-17, 0.0000000000000000000, 0.3130000000000000004 ) ) ;
#284 = ORIENTED_EDGE ( 'NONE', *, *, #253, .F. ) ;
#285 = MECHANICAL_DESIGN_GEOMETRIC_PRESENTATION_REPRESENTATION (  '', ( #14 ), #110 ) ;
#286 = ORIENTED_EDGE ( 'NONE', *, *, #65, .F. ) ;
#287 = CARTESIAN_POINT ( 'NONE',  ( 0.0000000000000000000, 0.0000000000000000000, 1.500000000000000222 ) ) ;
#288 = CARTESIAN_POINT ( 'NONE',  ( 0.0000000000000000000, 0.0000000000000000000, 1.500000000000000222 ) ) ;
#289 = FACE_OUTER_BOUND ( 'NONE', #249, .T. ) ;
#290 = ORIENTED_EDGE ( 'NONE', *, *, #247, .T. ) ;
#291 = CONICAL_SURFACE ( 'NONE', #60, 0.07802190000000000514, 0.1745329251994339192 ) ;
#292 = DIRECTION ( 'NONE',  ( -1.224646799147353454E-16, -0.0000000000000000000, -1.000000000000000000 ) ) ;
#293 = VECTOR ( 'NONE', #75, 39.37007874015748143 ) ;
#294 = DIRECTION ( 'NONE',  ( 0.0000000000000000000, 0.0000000000000000000, -1.000000000000000000 ) ) ;
#295 = FACE_OUTER_BOUND ( 'NONE', #44, .T. ) ;
#296 = VERTEX_POINT ( 'NONE', #235 ) ;
#297 = ORIENTED_EDGE ( 'NONE', *, *, #91, .T. ) ;
#298 = APPLICATION_PROTOCOL_DEFINITION ( 'draft international standard', 'automotive_design', 1998, #180 ) ;
#299 = COLOUR_RGB ( '',0.7921568627450980005, 0.8196078431372548767, 0.9333333333333333481 ) ;
ENDSEC;
END-ISO-10303-21;
