ISO-10303-21;
HEADER;
FILE_DESCRIPTION (( 'STEP AP214' ),
    '1' );
FILE_NAME ('Micro_DMM-040-2120.STEP',
    '2021-09-02T16:16:22',
    ( '' ),
    ( '' ),
    'SwSTEP 2.0',
    'SolidWorks 2020',
    '' );
FILE_SCHEMA (( 'AUTOMOTIVE_DESIGN' ));
ENDSEC;

DATA;
#1 = LINE ( 'NONE', #197, #232 ) ;
#2 = EDGE_LOOP ( 'NONE', ( #186, #319 ) ) ;
#3 = CARTESIAN_POINT ( 'NONE',  ( 0.07869000000000000994, 0.0000000000000000000, 0.04110156566360921582 ) ) ;
#4 = CARTESIAN_POINT ( 'NONE',  ( 0.0000000000000000000, 0.0000000000000000000, 1.968503999999999809 ) ) ;
#5 = VERTEX_POINT ( 'NONE', #275 ) ;
#6 = PRESENTATION_STYLE_ASSIGNMENT (( #83 ) ) ;
#7 = MECHANICAL_DESIGN_GEOMETRIC_PRESENTATION_REPRESENTATION (  '', ( #216 ), #237 ) ;
#8 = VERTEX_POINT ( 'NONE', #3 ) ;
#9 = CARTESIAN_POINT ( 'NONE',  ( -0.06374000000000018540, 0.0000000000000000000, 1.968503999999999809 ) ) ;
#10 = ORIENTED_EDGE ( 'NONE', *, *, #92, .T. ) ;
#11 = EDGE_CURVE ( 'NONE', #8, #139, #121, .T. ) ;
#12 = CONICAL_SURFACE ( 'NONE', #128, 0.007499999999999999722, 1.047197551196600518 ) ;
#13 = EDGE_CURVE ( 'NONE', #262, #5, #193, .T. ) ;
#14 = CARTESIAN_POINT ( 'NONE',  ( 0.0000000000000000000, 0.0000000000000000000, 1.968503999999999809 ) ) ;
#15 = EDGE_CURVE ( 'NONE', #187, #240, #77, .T. ) ;
#16 = DIRECTION ( 'NONE',  ( -1.000000000000000000, 0.0000000000000000000, 0.0000000000000000000 ) ) ;
#17 = CIRCLE ( 'NONE', #271, 0.07869000000000006545 ) ;
#18 = VECTOR ( 'NONE', #277, 39.37007874015748143 ) ;
#19 = CARTESIAN_POINT ( 'NONE',  ( -0.07869000000000006545, 0.0000000000000000000, 0.4330709999999999837 ) ) ;
#20 = DIRECTION ( 'NONE',  ( -0.0000000000000000000, -0.0000000000000000000, -1.000000000000000000 ) ) ;
#21 = LINE ( 'NONE', #96, #191 ) ;
#22 = DIRECTION ( 'NONE',  ( -1.000000000000000000, 0.0000000000000000000, 0.0000000000000000000 ) ) ;
#23 = FILL_AREA_STYLE_COLOUR ( '', #146 ) ;
#24 = DIRECTION ( 'NONE',  ( 1.000000000000000000, 0.0000000000000000000, -0.0000000000000000000 ) ) ;
#25 =( NAMED_UNIT ( * ) SI_UNIT ( $, .STERADIAN. ) SOLID_ANGLE_UNIT ( ) );
#26 = ADVANCED_FACE ( 'NONE', ( #205 ), #49, .T. ) ;
#27 = AXIS2_PLACEMENT_3D ( 'NONE', #229, #282, #175 ) ;
#28 =( CONVERSION_BASED_UNIT ( 'INCH', #107 ) LENGTH_UNIT ( ) NAMED_UNIT ( #41 ) );
#29 = DIRECTION ( 'NONE',  ( 1.000000000000000000, 0.0000000000000000000, 0.0000000000000000000 ) ) ;
#30 = ORIENTED_EDGE ( 'NONE', *, *, #52, .F. ) ;
#31 = EDGE_CURVE ( 'NONE', #295, #187, #1, .T. ) ;
#32 = SURFACE_SIDE_STYLE ('',( #206 ) ) ;
#33 = ORIENTED_EDGE ( 'NONE', *, *, #11, .F. ) ;
#34 = ORIENTED_EDGE ( 'NONE', *, *, #163, .F. ) ;
#35 = EDGE_LOOP ( 'NONE', ( #215, #182 ) ) ;
#36 = ADVANCED_FACE ( 'NONE', ( #222 ), #12, .T. ) ;
#37 = AXIS2_PLACEMENT_3D ( 'NONE', #131, #72, #152 ) ;
#38 = FACE_OUTER_BOUND ( 'NONE', #119, .T. ) ;
#39 = DIRECTION ( 'NONE',  ( -1.000000000000000000, 0.0000000000000000000, 0.0000000000000000000 ) ) ;
#40 = CARTESIAN_POINT ( 'NONE',  ( 0.0000000000000000000, 0.0000000000000000000, 1.953504000000000129 ) ) ;
#41 = DIMENSIONAL_EXPONENTS ( 1.000000000000000000, 0.0000000000000000000, 0.0000000000000000000, 0.0000000000000000000, 0.0000000000000000000, 0.0000000000000000000, 0.0000000000000000000 ) ;
#42 = DIRECTION ( 'NONE',  ( 0.0000000000000000000, 0.0000000000000000000, -1.000000000000000000 ) ) ;
#43 = CARTESIAN_POINT ( 'NONE',  ( -0.007499999999999999722, 5.277615380925519009E-18, 1.707404996040164512E-17 ) ) ;
#44 = DIRECTION ( 'NONE',  ( 1.000000000000000000, 0.0000000000000000000, 0.0000000000000000000 ) ) ;
#45 = CARTESIAN_POINT ( 'NONE',  ( -0.07874000000000000443, 0.0000000000000000000, 1.968503999999999809 ) ) ;
#46 = ORIENTED_EDGE ( 'NONE', *, *, #13, .T. ) ;
#47 = DIRECTION ( 'NONE',  ( 0.7071067811865502373, 8.659560562354966138E-17, -0.7071067811865446862 ) ) ;
#48 = CYLINDRICAL_SURFACE ( 'NONE', #272, 0.07869000000000003769 ) ;
#49 = CONICAL_SURFACE ( 'NONE', #208, 0.06374000000000018540, 0.7853981633974522758 ) ;
#50 = DIRECTION ( 'NONE',  ( -0.0000000000000000000, -0.0000000000000000000, -1.000000000000000000 ) ) ;
#51 = MECHANICAL_DESIGN_GEOMETRIC_PRESENTATION_REPRESENTATION (  '', ( #63 ), #329 ) ;
#52 = EDGE_CURVE ( 'NONE', #176, #259, #105, .T. ) ;
#53 = ORIENTED_EDGE ( 'NONE', *, *, #62, .T. ) ;
#54 = DIRECTION ( 'NONE',  ( 0.0000000000000000000, 0.0000000000000000000, 1.000000000000000000 ) ) ;
#55 = SHAPE_DEFINITION_REPRESENTATION ( #257, #94 ) ;
#56 = ORIENTED_EDGE ( 'NONE', *, *, #170, .F. ) ;
#57 = CARTESIAN_POINT ( 'NONE',  ( 0.0000000000000000000, 0.0000000000000000000, 1.968503999999999809 ) ) ;
#58 = ORIENTED_EDGE ( 'NONE', *, *, #218, .T. ) ;
#59 = CYLINDRICAL_SURFACE ( 'NONE', #120, 0.07874000000000000443 ) ;
#60 = AXIS2_PLACEMENT_3D ( 'NONE', #111, #134, #153 ) ;
#61 = ORIENTED_EDGE ( 'NONE', *, *, #31, .F. ) ;
#62 = EDGE_CURVE ( 'NONE', #112, #187, #321, .T. ) ;
#63 = STYLED_ITEM ( 'NONE', ( #100 ), #261 ) ;
#64 = EDGE_CURVE ( 'NONE', #259, #139, #305, .T. ) ;
#65 = PRESENTATION_LAYER_ASSIGNMENT (  '', '', ( #216 ) ) ;
#66 = CIRCLE ( 'NONE', #37, 0.07874000000000000443 ) ;
#67 = ADVANCED_FACE ( 'NONE', ( #201 ), #151, .T. ) ;
#68 = DIRECTION ( 'NONE',  ( -1.000000000000000000, 0.0000000000000000000, 0.0000000000000000000 ) ) ;
#69 = DIRECTION ( 'NONE',  ( -1.000000000000000000, 0.0000000000000000000, 0.0000000000000000000 ) ) ;
#70 =( LENGTH_UNIT ( ) NAMED_UNIT ( * ) SI_UNIT ( $, .METRE. ) );
#71 = EDGE_LOOP ( 'NONE', ( #165, #30, #289, #162 ) ) ;
#72 = DIRECTION ( 'NONE',  ( 0.0000000000000000000, 0.0000000000000000000, -1.000000000000000000 ) ) ;
#73 = ADVANCED_FACE ( 'NONE', ( #104 ), #249, .T. ) ;
#74 = CARTESIAN_POINT ( 'NONE',  ( 0.0000000000000000000, 0.0000000000000000000, 1.968503999999999809 ) ) ;
#75 = FACE_BOUND ( 'NONE', #35, .T. ) ;
#76 = ADVANCED_FACE ( 'NONE', ( #224 ), #159, .T. ) ;
#77 = LINE ( 'NONE', #45, #18 ) ;
#78 =( NAMED_UNIT ( * ) PLANE_ANGLE_UNIT ( ) SI_UNIT ( $, .RADIAN. ) );
#79 = CARTESIAN_POINT ( 'NONE',  ( 0.0000000000000000000, 0.0000000000000000000, 0.4330709999999999837 ) ) ;
#80 =( NAMED_UNIT ( * ) PLANE_ANGLE_UNIT ( ) SI_UNIT ( $, .RADIAN. ) );
#81 = ORIENTED_EDGE ( 'NONE', *, *, #169, .F. ) ;
#82 = VECTOR ( 'NONE', #50, 39.37007874015748143 ) ;
#83 = SURFACE_STYLE_USAGE ( .BOTH. , #32 ) ;
#84 = AXIS2_PLACEMENT_3D ( 'NONE', #179, #103, #16 ) ;
#85 = ORIENTED_EDGE ( 'NONE', *, *, #169, .T. ) ;
#86 = ORIENTED_EDGE ( 'NONE', *, *, #62, .F. ) ;
#87 = EDGE_LOOP ( 'NONE', ( #268, #160, #81, #61 ) ) ;
#88 =( NAMED_UNIT ( * ) PLANE_ANGLE_UNIT ( ) SI_UNIT ( $, .RADIAN. ) );
#89 = ORIENTED_EDGE ( 'NONE', *, *, #300, .F. ) ;
#90 = CONICAL_SURFACE ( 'NONE', #126, 0.007499999999999999722, 1.047197551196600518 ) ;
#91 = ORIENTED_EDGE ( 'NONE', *, *, #150, .F. ) ;
#92 = EDGE_CURVE ( 'NONE', #5, #262, #17, .T. ) ;
#93 = AXIS2_PLACEMENT_3D ( 'NONE', #267, #110, #44 ) ;
#94 = ADVANCED_BREP_SHAPE_REPRESENTATION ( 'Micro_DMM-040-2120', ( #261, #93 ), #167 ) ;
#95 = UNCERTAINTY_MEASURE_WITH_UNIT (LENGTH_MEASURE( 1.000000000000000082E-05 ), #136, 'distance_accuracy_value', 'NONE');
#96 = CARTESIAN_POINT ( 'NONE',  ( 0.007499999999999999722, 0.0000000000000000000, 1.707404996040164512E-17 ) ) ;
#97 = AXIS2_PLACEMENT_3D ( 'NONE', #196, #154, #106 ) ;
#98 = CIRCLE ( 'NONE', #299, 0.07869000000000000994 ) ;
#99 = ORIENTED_EDGE ( 'NONE', *, *, #137, .F. ) ;
#100 = PRESENTATION_STYLE_ASSIGNMENT (( #309 ) ) ;
#101 = DIRECTION ( 'NONE',  ( -0.0000000000000000000, -0.0000000000000000000, -1.000000000000000000 ) ) ;
#102 = CARTESIAN_POINT ( 'NONE',  ( -0.07874000000000000443, 0.0000000000000000000, 0.4330709999999999837 ) ) ;
#103 = DIRECTION ( 'NONE',  ( -0.0000000000000000000, -0.0000000000000000000, -1.000000000000000000 ) ) ;
#104 = FACE_OUTER_BOUND ( 'NONE', #236, .T. ) ;
#105 = CIRCLE ( 'NONE', #181, 0.007499999999999999722 ) ;
#106 = DIRECTION ( 'NONE',  ( -1.000000000000000000, 0.0000000000000000000, 0.0000000000000000000 ) ) ;
#107 = LENGTH_MEASURE_WITH_UNIT ( LENGTH_MEASURE( 0.02539999999999999897 ), #207 );
#108 = DIRECTION ( 'NONE',  ( -0.0000000000000000000, -0.0000000000000000000, -1.000000000000000000 ) ) ;
#109 = DIRECTION ( 'NONE',  ( 0.0000000000000000000, 0.0000000000000000000, 1.000000000000000000 ) ) ;
#110 = DIRECTION ( 'NONE',  ( 0.0000000000000000000, 0.0000000000000000000, 1.000000000000000000 ) ) ;
#111 = CARTESIAN_POINT ( 'NONE',  ( 0.0000000000000000000, 0.0000000000000000000, 0.04110156566360921582 ) ) ;
#112 = VERTEX_POINT ( 'NONE', #173 ) ;
#113 = VECTOR ( 'NONE', #306, 39.37007874015748143 ) ;
#114 = CARTESIAN_POINT ( 'NONE',  ( 0.0000000000000000000, 0.0000000000000000000, 0.04110156566360921582 ) ) ;
#115 = APPLICATION_PROTOCOL_DEFINITION ( 'draft international standard', 'automotive_design', 1998, #297 ) ;
#116 = EDGE_LOOP ( 'NONE', ( #34, #269, #145, #99 ) ) ;
#117 = DIRECTION ( 'NONE',  ( -0.0000000000000000000, -0.0000000000000000000, -1.000000000000000000 ) ) ;
#118 = EDGE_CURVE ( 'NONE', #292, #240, #148, .T. ) ;
#119 = EDGE_LOOP ( 'NONE', ( #46, #58, #238, #314 ) ) ;
#120 = AXIS2_PLACEMENT_3D ( 'NONE', #57, #233, #141 ) ;
#121 = CIRCLE ( 'NONE', #60, 0.07869000000000000994 ) ;
#122 = AXIS2_PLACEMENT_3D ( 'NONE', #164, #109, #143 ) ;
#123 = ADVANCED_FACE ( 'NONE', ( #304 ), #90, .T. ) ;
#124 = ADVANCED_FACE ( 'NONE', ( #178 ), #48, .T. ) ;
#125 = LINE ( 'NONE', #247, #113 ) ;
#126 = AXIS2_PLACEMENT_3D ( 'NONE', #228, #327, #307 ) ;
#127 = CARTESIAN_POINT ( 'NONE',  ( 0.0000000000000000000, 0.0000000000000000000, 0.4330709999999999837 ) ) ;
#128 = AXIS2_PLACEMENT_3D ( 'NONE', #281, #156, #29 ) ;
#129 = DIRECTION ( 'NONE',  ( 1.000000000000000000, 0.0000000000000000000, 0.0000000000000000000 ) ) ;
#130 = CARTESIAN_POINT ( 'NONE',  ( 0.0000000000000000000, 0.0000000000000000000, 1.968503999999999809 ) ) ;
#131 = CARTESIAN_POINT ( 'NONE',  ( 0.0000000000000000000, 0.0000000000000000000, 1.953504000000000129 ) ) ;
#132 = DIRECTION ( 'NONE',  ( 0.0000000000000000000, 0.0000000000000000000, 1.000000000000000000 ) ) ;
#133 = DIRECTION ( 'NONE',  ( -0.0000000000000000000, -0.0000000000000000000, -1.000000000000000000 ) ) ;
#134 = DIRECTION ( 'NONE',  ( -0.0000000000000000000, -0.0000000000000000000, -1.000000000000000000 ) ) ;
#135 = AXIS2_PLACEMENT_3D ( 'NONE', #74, #132, #24 ) ;
#136 =( CONVERSION_BASED_UNIT ( 'INCH', #192 ) LENGTH_UNIT ( ) NAMED_UNIT ( #225 ) );
#137 = EDGE_CURVE ( 'NONE', #176, #8, #21, .T. ) ;
#138 = DIRECTION ( 'NONE',  ( -1.000000000000000000, 0.0000000000000000000, 0.0000000000000000000 ) ) ;
#139 = VERTEX_POINT ( 'NONE', #149 ) ;
#140 = ORIENTED_EDGE ( 'NONE', *, *, #15, .T. ) ;
#141 = DIRECTION ( 'NONE',  ( -1.000000000000000000, 0.0000000000000000000, 0.0000000000000000000 ) ) ;
#142 = ORIENTED_EDGE ( 'NONE', *, *, #300, .T. ) ;
#143 = DIRECTION ( 'NONE',  ( 1.000000000000000000, 0.0000000000000000000, -0.0000000000000000000 ) ) ;
#144 = ORIENTED_EDGE ( 'NONE', *, *, #280, .F. ) ;
#145 = ORIENTED_EDGE ( 'NONE', *, *, #303, .T. ) ;
#146 = COLOUR_RGB ( '',0.7921568627450980005, 0.8196078431372548767, 0.9333333333333333481 ) ;
#147 = UNCERTAINTY_MEASURE_WITH_UNIT (LENGTH_MEASURE( 1.000000000000000082E-05 ), #266, 'distance_accuracy_value', 'NONE');
#148 = CIRCLE ( 'NONE', #84, 0.07874000000000000443 ) ;
#149 = CARTESIAN_POINT ( 'NONE',  ( -0.07869000000000000994, 9.636745662490523605E-18, 0.04110156566360921582 ) ) ;
#150 = EDGE_CURVE ( 'NONE', #183, #112, #223, .T. ) ;
#151 = CYLINDRICAL_SURFACE ( 'NONE', #273, 0.07874000000000000443 ) ;
#152 = DIRECTION ( 'NONE',  ( 1.000000000000000000, 0.0000000000000000000, 0.0000000000000000000 ) ) ;
#153 = DIRECTION ( 'NONE',  ( -1.000000000000000000, 0.0000000000000000000, 0.0000000000000000000 ) ) ;
#154 = DIRECTION ( 'NONE',  ( -0.0000000000000000000, -0.0000000000000000000, -1.000000000000000000 ) ) ;
#155 = DIRECTION ( 'NONE',  ( 1.000000000000000000, 0.0000000000000000000, 0.0000000000000000000 ) ) ;
#156 = DIRECTION ( 'NONE',  ( 0.0000000000000000000, 0.0000000000000000000, 1.000000000000000000 ) ) ;
#157 = CARTESIAN_POINT ( 'NONE',  ( -0.07874000000000000443, 0.0000000000000000000, 1.953504000000000129 ) ) ;
#158 = CARTESIAN_POINT ( 'NONE',  ( 0.0000000000000000000, 0.0000000000000000000, 0.0000000000000000000 ) ) ;
#159 = CONICAL_SURFACE ( 'NONE', #189, 0.06374000000000018540, 0.7853981633974522758 ) ;
#160 = ORIENTED_EDGE ( 'NONE', *, *, #150, .T. ) ;
#161 = PRODUCT_CONTEXT ( 'NONE', #297, 'mechanical' ) ;
#162 = ORIENTED_EDGE ( 'NONE', *, *, #11, .T. ) ;
#163 = EDGE_CURVE ( 'NONE', #259, #176, #287, .T. ) ;
#164 = CARTESIAN_POINT ( 'NONE',  ( 0.0000000000000000000, 0.0000000000000000000, 0.0000000000000000000 ) ) ;
#165 = ORIENTED_EDGE ( 'NONE', *, *, #64, .F. ) ;
#166 = ORIENTED_EDGE ( 'NONE', *, *, #118, .T. ) ;
#167 =( GEOMETRIC_REPRESENTATION_CONTEXT ( 3 ) GLOBAL_UNCERTAINTY_ASSIGNED_CONTEXT ( ( #147 ) ) GLOBAL_UNIT_ASSIGNED_CONTEXT ( ( #266, #88, #312 ) ) REPRESENTATION_CONTEXT ( 'NONE', 'WORKASPACE' ) );
#168 = AXIS2_PLACEMENT_3D ( 'NONE', #302, #133, #198 ) ;
#169 = EDGE_CURVE ( 'NONE', #187, #112, #66, .T. ) ;
#170 = EDGE_CURVE ( 'NONE', #112, #292, #276, .T. ) ;
#171 = DIRECTION ( 'NONE',  ( 0.8660254037844400399, 0.0000000000000000000, 0.4999999999999976685 ) ) ;
#172 = DIRECTION ( 'NONE',  ( 0.0000000000000000000, 0.0000000000000000000, -1.000000000000000000 ) ) ;
#173 = CARTESIAN_POINT ( 'NONE',  ( 0.07874000000000000443, 9.642868896486258509E-18, 1.953504000000000129 ) ) ;
#174 = PRODUCT_DEFINITION_CONTEXT ( 'detailed design', #308, 'design' ) ;
#175 = DIRECTION ( 'NONE',  ( -1.000000000000000000, 0.0000000000000000000, 0.0000000000000000000 ) ) ;
#176 = VERTEX_POINT ( 'NONE', #284 ) ;
#177 = CARTESIAN_POINT ( 'NONE',  ( 0.06374000000000018540, 7.805898697765251255E-18, 1.968503999999999809 ) ) ;
#178 = FACE_OUTER_BOUND ( 'NONE', #316, .T. ) ;
#179 = CARTESIAN_POINT ( 'NONE',  ( 0.0000000000000000000, 0.0000000000000000000, 0.4330709999999999837 ) ) ;
#180 = CARTESIAN_POINT ( 'NONE',  ( 0.07874000000000000443, 9.642868896486258509E-18, 0.4330709999999999837 ) ) ;
#181 = AXIS2_PLACEMENT_3D ( 'NONE', #195, #20, #69 ) ;
#182 = ORIENTED_EDGE ( 'NONE', *, *, #92, .F. ) ;
#183 = VERTEX_POINT ( 'NONE', #252 ) ;
#184 = EDGE_LOOP ( 'NONE', ( #142, #166 ) ) ;
#185 = DIRECTION ( 'NONE',  ( 1.000000000000000000, 0.0000000000000000000, 0.0000000000000000000 ) ) ;
#186 = ORIENTED_EDGE ( 'NONE', *, *, #52, .T. ) ;
#187 = VERTEX_POINT ( 'NONE', #157 ) ;
#188 = ORIENTED_EDGE ( 'NONE', *, *, #15, .F. ) ;
#189 = AXIS2_PLACEMENT_3D ( 'NONE', #326, #42, #203 ) ;
#190 = EDGE_CURVE ( 'NONE', #183, #295, #242, .T. ) ;
#191 = VECTOR ( 'NONE', #171, 39.37007874015748143 ) ;
#192 = LENGTH_MEASURE_WITH_UNIT ( LENGTH_MEASURE( 0.02539999999999999897 ), #70 );
#193 = CIRCLE ( 'NONE', #288, 0.07869000000000006545 ) ;
#194 = CIRCLE ( 'NONE', #243, 0.06374000000000018540 ) ;
#195 = CARTESIAN_POINT ( 'NONE',  ( 0.0000000000000000000, 0.0000000000000000000, 1.707404996040164512E-17 ) ) ;
#196 = CARTESIAN_POINT ( 'NONE',  ( 0.0000000000000000000, 0.0000000000000000000, 0.0000000000000000000 ) ) ;
#197 = CARTESIAN_POINT ( 'NONE',  ( -0.06374000000000018540, 0.0000000000000000000, 1.968503999999999809 ) ) ;
#198 = DIRECTION ( 'NONE',  ( -1.000000000000000000, 0.0000000000000000000, 0.0000000000000000000 ) ) ;
#199 = COLOUR_RGB ( '',0.7921568627450980005, 0.8196078431372548767, 0.9333333333333333481 ) ;
#200 = PRODUCT ( 'Micro_DMM-040-2120', 'Micro_DMM-040-2120', '', ( #161 ) ) ;
#201 = FACE_OUTER_BOUND ( 'NONE', #318, .T. ) ;
#202 = SURFACE_STYLE_FILL_AREA ( #278 ) ;
#203 = DIRECTION ( 'NONE',  ( -1.000000000000000000, 0.0000000000000000000, 0.0000000000000000000 ) ) ;
#204 = LENGTH_MEASURE_WITH_UNIT ( LENGTH_MEASURE( 0.02539999999999999897 ), #239 );
#205 = FACE_OUTER_BOUND ( 'NONE', #213, .T. ) ;
#206 = SURFACE_STYLE_FILL_AREA ( #263 ) ;
#207 =( LENGTH_UNIT ( ) NAMED_UNIT ( * ) SI_UNIT ( $, .METRE. ) );
#208 = AXIS2_PLACEMENT_3D ( 'NONE', #130, #231, #39 ) ;
#209 = ORIENTED_EDGE ( 'NONE', *, *, #170, .T. ) ;
#210 = AXIS2_PLACEMENT_3D ( 'NONE', #293, #117, #291 ) ;
#211 = PRODUCT_RELATED_PRODUCT_CATEGORY ( 'part', '', ( #200 ) ) ;
#212 = CARTESIAN_POINT ( 'NONE',  ( -0.07869000000000003769, 0.0000000000000000000, 0.0000000000000000000 ) ) ;
#213 = EDGE_LOOP ( 'NONE', ( #91, #144, #253, #86 ) ) ;
#214 = DIRECTION ( 'NONE',  ( -1.000000000000000000, 0.0000000000000000000, 0.0000000000000000000 ) ) ;
#215 = ORIENTED_EDGE ( 'NONE', *, *, #13, .F. ) ;
#216 = STYLED_ITEM ( 'NONE', ( #6 ), #94 ) ;
#217 = PRESENTATION_LAYER_ASSIGNMENT (  '', '', ( #63 ) ) ;
#218 = EDGE_CURVE ( 'NONE', #5, #8, #125, .T. ) ;
#219 = CIRCLE ( 'NONE', #210, 0.07874000000000000443 ) ;
#220 = PLANE ( 'NONE',  #27 ) ;
#221 = VECTOR ( 'NONE', #227, 39.37007874015748143 ) ;
#222 = FACE_OUTER_BOUND ( 'NONE', #71, .T. ) ;
#223 = LINE ( 'NONE', #177, #246 ) ;
#224 = FACE_OUTER_BOUND ( 'NONE', #87, .T. ) ;
#225 = DIMENSIONAL_EXPONENTS ( 1.000000000000000000, 0.0000000000000000000, 0.0000000000000000000, 0.0000000000000000000, 0.0000000000000000000, 0.0000000000000000000, 0.0000000000000000000 ) ;
#226 = ADVANCED_FACE ( 'NONE', ( #38 ), #320, .T. ) ;
#227 = DIRECTION ( 'NONE',  ( -0.0000000000000000000, -0.0000000000000000000, -1.000000000000000000 ) ) ;
#228 = CARTESIAN_POINT ( 'NONE',  ( 0.0000000000000000000, 0.0000000000000000000, 1.707404996040164512E-17 ) ) ;
#229 = CARTESIAN_POINT ( 'NONE',  ( 0.07869000000000006545, 0.0000000000000000000, 0.4330709999999999837 ) ) ;
#230 = PRODUCT_DEFINITION_FORMATION_WITH_SPECIFIED_SOURCE ( 'ANY', '', #200, .NOT_KNOWN. ) ;
#231 = DIRECTION ( 'NONE',  ( 0.0000000000000000000, 0.0000000000000000000, -1.000000000000000000 ) ) ;
#232 = VECTOR ( 'NONE', #310, 39.37007874015748854 ) ;
#233 = DIRECTION ( 'NONE',  ( -0.0000000000000000000, -0.0000000000000000000, -1.000000000000000000 ) ) ;
#234 = ORIENTED_EDGE ( 'NONE', *, *, #190, .T. ) ;
#235 = FILL_AREA_STYLE_COLOUR ( '', #199 ) ;
#236 = EDGE_LOOP ( 'NONE', ( #241, #234 ) ) ;
#237 =( GEOMETRIC_REPRESENTATION_CONTEXT ( 3 ) GLOBAL_UNCERTAINTY_ASSIGNED_CONTEXT ( ( #250 ) ) GLOBAL_UNIT_ASSIGNED_CONTEXT ( ( #28, #80, #294 ) ) REPRESENTATION_CONTEXT ( 'NONE', 'WORKASPACE' ) );
#238 = ORIENTED_EDGE ( 'NONE', *, *, #303, .F. ) ;
#239 =( LENGTH_UNIT ( ) NAMED_UNIT ( * ) SI_UNIT ( $, .METRE. ) );
#240 = VERTEX_POINT ( 'NONE', #102 ) ;
#241 = ORIENTED_EDGE ( 'NONE', *, *, #280, .T. ) ;
#242 = CIRCLE ( 'NONE', #313, 0.06374000000000018540 ) ;
#243 = AXIS2_PLACEMENT_3D ( 'NONE', #4, #54, #185 ) ;
#244 = FACE_OUTER_BOUND ( 'NONE', #184, .T. ) ;
#245 = DIRECTION ( 'NONE',  ( -0.8660254037844400399, 1.060575238724908640E-16, 0.4999999999999976685 ) ) ;
#246 = VECTOR ( 'NONE', #47, 39.37007874015748854 ) ;
#247 = CARTESIAN_POINT ( 'NONE',  ( 0.07869000000000003769, 9.636745662490528228E-18, 0.0000000000000000000 ) ) ;
#248 = CLOSED_SHELL ( 'NONE', ( #226, #123, #76, #322, #67, #73, #26, #251, #36, #124, #270 ) ) ;
#249 = PLANE ( 'NONE',  #135 ) ;
#250 = UNCERTAINTY_MEASURE_WITH_UNIT (LENGTH_MEASURE( 1.000000000000000082E-05 ), #28, 'distance_accuracy_value', 'NONE');
#251 = ADVANCED_FACE ( 'NONE', ( #75, #244 ), #220, .T. ) ;
#252 = CARTESIAN_POINT ( 'NONE',  ( 0.06374000000000018540, 8.724383797125754882E-18, 1.968503999999999809 ) ) ;
#253 = ORIENTED_EDGE ( 'NONE', *, *, #31, .T. ) ;
#254 = PRODUCT_DEFINITION ( 'UNKNOWN', '', #230, #174 ) ;
#255 = DIRECTION ( 'NONE',  ( -1.000000000000000000, 0.0000000000000000000, 0.0000000000000000000 ) ) ;
#256 = PLANE ( 'NONE',  #122 ) ;
#257 = PRODUCT_DEFINITION_SHAPE ( 'NONE', 'NONE',  #254 ) ;
#258 = DIRECTION ( 'NONE',  ( -0.0000000000000000000, -0.0000000000000000000, -1.000000000000000000 ) ) ;
#259 = VERTEX_POINT ( 'NONE', #43 ) ;
#260 = LINE ( 'NONE', #212, #82 ) ;
#261 = MANIFOLD_SOLID_BREP ( 'Cut-Revolve4', #248 ) ;
#262 = VERTEX_POINT ( 'NONE', #19 ) ;
#263 = FILL_AREA_STYLE ('',( #235 ) ) ;
#264 = APPLICATION_PROTOCOL_DEFINITION ( 'draft international standard', 'automotive_design', 1998, #308 ) ;
#265 = EDGE_LOOP ( 'NONE', ( #85, #209, #89, #188 ) ) ;
#266 =( CONVERSION_BASED_UNIT ( 'INCH', #204 ) LENGTH_UNIT ( ) NAMED_UNIT ( #279 ) );
#267 = CARTESIAN_POINT ( 'NONE',  ( 0.0000000000000000000, 0.0000000000000000000, 0.0000000000000000000 ) ) ;
#268 = ORIENTED_EDGE ( 'NONE', *, *, #190, .F. ) ;
#269 = ORIENTED_EDGE ( 'NONE', *, *, #64, .T. ) ;
#270 = ADVANCED_FACE ( 'NONE', ( #325 ), #256, .F. ) ;
#271 = AXIS2_PLACEMENT_3D ( 'NONE', #79, #101, #22 ) ;
#272 = AXIS2_PLACEMENT_3D ( 'NONE', #158, #258, #68 ) ;
#273 = AXIS2_PLACEMENT_3D ( 'NONE', #283, #108, #255 ) ;
#274 = DIRECTION ( 'NONE',  ( 0.0000000000000000000, 0.0000000000000000000, 1.000000000000000000 ) ) ;
#275 = CARTESIAN_POINT ( 'NONE',  ( 0.07869000000000006545, 9.636745662490529768E-18, 0.4330709999999999837 ) ) ;
#276 = LINE ( 'NONE', #328, #221 ) ;
#277 = DIRECTION ( 'NONE',  ( -0.0000000000000000000, -0.0000000000000000000, -1.000000000000000000 ) ) ;
#278 = FILL_AREA_STYLE ('',( #23 ) ) ;
#279 = DIMENSIONAL_EXPONENTS ( 1.000000000000000000, 0.0000000000000000000, 0.0000000000000000000, 0.0000000000000000000, 0.0000000000000000000, 0.0000000000000000000, 0.0000000000000000000 ) ;
#280 = EDGE_CURVE ( 'NONE', #295, #183, #194, .T. ) ;
#281 = CARTESIAN_POINT ( 'NONE',  ( 0.0000000000000000000, 0.0000000000000000000, 1.707404996040164512E-17 ) ) ;
#282 = DIRECTION ( 'NONE',  ( -0.0000000000000000000, 0.0000000000000000000, -1.000000000000000000 ) ) ;
#283 = CARTESIAN_POINT ( 'NONE',  ( 0.0000000000000000000, 0.0000000000000000000, 1.968503999999999809 ) ) ;
#284 = CARTESIAN_POINT ( 'NONE',  ( 0.007499999999999999722, 0.0000000000000000000, 1.707404996040164512E-17 ) ) ;
#285 = CARTESIAN_POINT ( 'NONE',  ( -0.007499999999999999722, 9.184850993605147975E-19, 1.707404996040164512E-17 ) ) ;
#286 = DIRECTION ( 'NONE',  ( -0.0000000000000000000, -0.0000000000000000000, -1.000000000000000000 ) ) ;
#287 = CIRCLE ( 'NONE', #168, 0.007499999999999999722 ) ;
#288 = AXIS2_PLACEMENT_3D ( 'NONE', #127, #324, #138 ) ;
#289 = ORIENTED_EDGE ( 'NONE', *, *, #137, .T. ) ;
#290 = AXIS2_PLACEMENT_3D ( 'NONE', #40, #172, #155 ) ;
#291 = DIRECTION ( 'NONE',  ( -1.000000000000000000, 0.0000000000000000000, 0.0000000000000000000 ) ) ;
#292 = VERTEX_POINT ( 'NONE', #180 ) ;
#293 = CARTESIAN_POINT ( 'NONE',  ( 0.0000000000000000000, 0.0000000000000000000, 0.4330709999999999837 ) ) ;
#294 =( NAMED_UNIT ( * ) SI_UNIT ( $, .STERADIAN. ) SOLID_ANGLE_UNIT ( ) );
#295 = VERTEX_POINT ( 'NONE', #9 ) ;
#296 = ORIENTED_EDGE ( 'NONE', *, *, #118, .F. ) ;
#297 = APPLICATION_CONTEXT ( 'automotive_design' ) ;
#298 = ORIENTED_EDGE ( 'NONE', *, *, #315, .T. ) ;
#299 = AXIS2_PLACEMENT_3D ( 'NONE', #114, #286, #214 ) ;
#300 = EDGE_CURVE ( 'NONE', #240, #292, #219, .T. ) ;
#301 = VECTOR ( 'NONE', #245, 39.37007874015748143 ) ;
#302 = CARTESIAN_POINT ( 'NONE',  ( 0.0000000000000000000, 0.0000000000000000000, 1.707404996040164512E-17 ) ) ;
#303 = EDGE_CURVE ( 'NONE', #139, #8, #98, .T. ) ;
#304 = FACE_OUTER_BOUND ( 'NONE', #116, .T. ) ;
#305 = LINE ( 'NONE', #285, #301 ) ;
#306 = DIRECTION ( 'NONE',  ( -0.0000000000000000000, -0.0000000000000000000, -1.000000000000000000 ) ) ;
#307 = DIRECTION ( 'NONE',  ( 1.000000000000000000, 0.0000000000000000000, 0.0000000000000000000 ) ) ;
#308 = APPLICATION_CONTEXT ( 'automotive_design' ) ;
#309 = SURFACE_STYLE_USAGE ( .BOTH. , #323 ) ;
#310 = DIRECTION ( 'NONE',  ( -0.7071067811865502373, 0.0000000000000000000, -0.7071067811865446862 ) ) ;
#311 = ORIENTED_EDGE ( 'NONE', *, *, #218, .F. ) ;
#312 =( NAMED_UNIT ( * ) SI_UNIT ( $, .STERADIAN. ) SOLID_ANGLE_UNIT ( ) );
#313 = AXIS2_PLACEMENT_3D ( 'NONE', #14, #274, #129 ) ;
#314 = ORIENTED_EDGE ( 'NONE', *, *, #315, .F. ) ;
#315 = EDGE_CURVE ( 'NONE', #262, #139, #260, .T. ) ;
#316 = EDGE_LOOP ( 'NONE', ( #311, #10, #298, #33 ) ) ;
#317 = FACE_OUTER_BOUND ( 'NONE', #265, .T. ) ;
#318 = EDGE_LOOP ( 'NONE', ( #56, #53, #140, #296 ) ) ;
#319 = ORIENTED_EDGE ( 'NONE', *, *, #163, .T. ) ;
#320 = CYLINDRICAL_SURFACE ( 'NONE', #97, 0.07869000000000003769 ) ;
#321 = CIRCLE ( 'NONE', #290, 0.07874000000000000443 ) ;
#322 = ADVANCED_FACE ( 'NONE', ( #317 ), #59, .T. ) ;
#323 = SURFACE_SIDE_STYLE ('',( #202 ) ) ;
#324 = DIRECTION ( 'NONE',  ( -0.0000000000000000000, -0.0000000000000000000, -1.000000000000000000 ) ) ;
#325 = FACE_OUTER_BOUND ( 'NONE', #2, .T. ) ;
#326 = CARTESIAN_POINT ( 'NONE',  ( 0.0000000000000000000, 0.0000000000000000000, 1.968503999999999809 ) ) ;
#327 = DIRECTION ( 'NONE',  ( 0.0000000000000000000, 0.0000000000000000000, 1.000000000000000000 ) ) ;
#328 = CARTESIAN_POINT ( 'NONE',  ( 0.07874000000000000443, 9.642868896486258509E-18, 1.968503999999999809 ) ) ;
#329 =( GEOMETRIC_REPRESENTATION_CONTEXT ( 3 ) GLOBAL_UNCERTAINTY_ASSIGNED_CONTEXT ( ( #95 ) ) GLOBAL_UNIT_ASSIGNED_CONTEXT ( ( #136, #78, #25 ) ) REPRESENTATION_CONTEXT ( 'NONE', 'WORKASPACE' ) );
ENDSEC;
END-ISO-10303-21;
