ISO-10303-21;
HEADER;
FILE_DESCRIPTION (( 'STEP AP214' ),
    '1' );
FILE_NAME ('Micro_EMSM-040-2.STEP',
    '2022-03-15T14:38:03',
    ( '' ),
    ( '' ),
    'SwSTEP 2.0',
    'SolidWorks 2022',
    '' );
FILE_SCHEMA (( 'AUTOMOTIVE_DESIGN' ));
ENDSEC;

DATA;
#1 = LINE ( 'NONE', #96, #251 ) ;
#2 = DIMENSIONAL_EXPONENTS ( 1.000000000000000000, 0.000000000000000000, 0.000000000000000000, 0.000000000000000000, 0.000000000000000000, 0.000000000000000000, 0.000000000000000000 ) ;
#3 = DIRECTION ( 'NONE',  ( 0.000000000000000000, 0.000000000000000000, -1.000000000000000000 ) ) ;
#4 = AXIS2_PLACEMENT_3D ( 'NONE', #209, #53, #5 ) ;
#5 = DIRECTION ( 'NONE',  ( -1.000000000000000000, 0.000000000000000000, 1.224646799147352961E-16 ) ) ;
#6 = ORIENTED_EDGE ( 'NONE', *, *, #43, .F. ) ;
#7 = PRODUCT_DEFINITION_FORMATION_WITH_SPECIFIED_SOURCE ( 'ANY', '', #29, .NOT_KNOWN. ) ;
#8 = DIRECTION ( 'NONE',  ( 1.224646799147353207E-16, 0.000000000000000000, 1.000000000000000000 ) ) ;
#9 = CARTESIAN_POINT ( 'NONE',  ( 0.000000000000000000, 0.000000000000000000, 1.968503999999999809 ) ) ;
#10 = CARTESIAN_POINT ( 'NONE',  ( 8.684062996011783728E-17, 0.000000000000000000, 0.7091075567304765404 ) ) ;
#11 = AXIS2_PLACEMENT_3D ( 'NONE', #263, #76, #148 ) ;
#12 = CARTESIAN_POINT ( 'NONE',  ( 0.07866125999999999674, 9.633226027589770864E-18, -1.895600338963814870E-33 ) ) ;
#13 = FACE_OUTER_BOUND ( 'NONE', #22, .T. ) ;
#14 = DIRECTION ( 'NONE',  ( -1.224646799147353207E-16, -0.000000000000000000, -1.000000000000000000 ) ) ;
#15 = ORIENTED_EDGE ( 'NONE', *, *, #31, .T. ) ;
#16 = EDGE_CURVE ( 'NONE', #25, #287, #224, .T. ) ;
#17 = PRODUCT_CONTEXT ( 'NONE', #73, 'mechanical' ) ;
#18 = SURFACE_SIDE_STYLE ('',( #41 ) ) ;
#19 = LINE ( 'NONE', #110, #159 ) ;
#20 = ADVANCED_FACE ( 'NONE', ( #157 ), #202, .T. ) ;
#21 = CIRCLE ( 'NONE', #65, 0.06374000000000018540 ) ;
#22 = EDGE_LOOP ( 'NONE', ( #69, #119, #86, #62 ) ) ;
#23 = DIRECTION ( 'NONE',  ( -1.224646799147353207E-16, -0.000000000000000000, -1.000000000000000000 ) ) ;
#24 = VERTEX_POINT ( 'NONE', #112 ) ;
#25 = VERTEX_POINT ( 'NONE', #118 ) ;
#26 = ORIENTED_EDGE ( 'NONE', *, *, #162, .F. ) ;
#27 = PRODUCT_RELATED_PRODUCT_CATEGORY ( 'part', '', ( #29 ) ) ;
#28 = CIRCLE ( 'NONE', #213, 0.07866125999999999674 ) ;
#29 = PRODUCT ( 'Micro_EMSM-040-2', 'Micro_EMSM-040-2', '', ( #17 ) ) ;
#30 =( LENGTH_UNIT ( ) NAMED_UNIT ( * ) SI_UNIT ( $, .METRE. ) );
#31 = EDGE_CURVE ( 'NONE', #24, #78, #21, .T. ) ;
#32 = CARTESIAN_POINT ( 'NONE',  ( 0.000000000000000000, 0.000000000000000000, 1.953504000000000129 ) ) ;
#33 = EDGE_CURVE ( 'NONE', #208, #168, #28, .T. ) ;
#34 = VECTOR ( 'NONE', #14, 39.37007874015748143 ) ;
#35 = CARTESIAN_POINT ( 'NONE',  ( -0.07874000000000000443, 0.000000000000000000, 1.953504000000000129 ) ) ;
#36 = FACE_OUTER_BOUND ( 'NONE', #244, .T. ) ;
#37 = FACE_OUTER_BOUND ( 'NONE', #283, .T. ) ;
#38 = CARTESIAN_POINT ( 'NONE',  ( 8.678594253305624695E-17, 0.000000000000000000, 0.7086609999999999854 ) ) ;
#39 =( NAMED_UNIT ( * ) SI_UNIT ( $, .STERADIAN. ) SOLID_ANGLE_UNIT ( ) );
#40 = DIRECTION ( 'NONE',  ( -1.000000000000000000, 0.000000000000000000, 0.000000000000000000 ) ) ;
#41 = SURFACE_STYLE_FILL_AREA ( #266 ) ;
#42 = CIRCLE ( 'NONE', #47, 0.07874000000000000443 ) ;
#43 = EDGE_CURVE ( 'NONE', #201, #296, #197, .T. ) ;
#44 = EDGE_CURVE ( 'NONE', #78, #24, #249, .T. ) ;
#45 = DIRECTION ( 'NONE',  ( -1.000000000000000000, 0.000000000000000000, 1.224646799147352961E-16 ) ) ;
#46 = ORIENTED_EDGE ( 'NONE', *, *, #297, .T. ) ;
#47 = AXIS2_PLACEMENT_3D ( 'NONE', #174, #220, #272 ) ;
#48 =( NAMED_UNIT ( * ) SI_UNIT ( $, .STERADIAN. ) SOLID_ANGLE_UNIT ( ) );
#49 = ORIENTED_EDGE ( 'NONE', *, *, #33, .F. ) ;
#50 = DIRECTION ( 'NONE',  ( 0.000000000000000000, 0.000000000000000000, 1.000000000000000000 ) ) ;
#51 = ADVANCED_FACE ( 'NONE', ( #259 ), #299, .T. ) ;
#52 = CARTESIAN_POINT ( 'NONE',  ( 8.678594253305624695E-17, 0.000000000000000000, 0.7086609999999999854 ) ) ;
#53 = DIRECTION ( 'NONE',  ( -1.224646799147353207E-16, -0.000000000000000000, -1.000000000000000000 ) ) ;
#54 = DIRECTION ( 'NONE',  ( -0.1736481776669312194, 2.126576849575783625E-17, 0.9848077530122080203 ) ) ;
#55 = PLANE ( 'NONE',  #156 ) ;
#56 = VECTOR ( 'NONE', #282, 39.37007874015748143 ) ;
#57 = CYLINDRICAL_SURFACE ( 'NONE', #11, 0.07874000000000000443 ) ;
#58 = DIRECTION ( 'NONE',  ( 1.224646799147353207E-16, 0.000000000000000000, 1.000000000000000000 ) ) ;
#59 = EDGE_CURVE ( 'NONE', #168, #208, #93, .T. ) ;
#60 =( CONVERSION_BASED_UNIT ( 'INCH', #268 ) LENGTH_UNIT ( ) NAMED_UNIT ( #183 ) );
#61 = CARTESIAN_POINT ( 'NONE',  ( 0.07866126000000010776, 0.000000000000000000, 0.7086609999999999854 ) ) ;
#62 = ORIENTED_EDGE ( 'NONE', *, *, #240, .F. ) ;
#63 = ORIENTED_EDGE ( 'NONE', *, *, #80, .F. ) ;
#64 = CARTESIAN_POINT ( 'NONE',  ( 0.000000000000000000, 0.000000000000000000, 1.968503999999999809 ) ) ;
#65 = AXIS2_PLACEMENT_3D ( 'NONE', #94, #138, #114 ) ;
#66 = ORIENTED_EDGE ( 'NONE', *, *, #80, .T. ) ;
#67 = ORIENTED_EDGE ( 'NONE', *, *, #240, .T. ) ;
#68 = ORIENTED_EDGE ( 'NONE', *, *, #269, .T. ) ;
#69 = ORIENTED_EDGE ( 'NONE', *, *, #193, .T. ) ;
#70 = ORIENTED_EDGE ( 'NONE', *, *, #59, .F. ) ;
#71 = MANIFOLD_SOLID_BREP ( 'Cut-Revolve1', #173 ) ;
#72 =( CONVERSION_BASED_UNIT ( 'INCH', #257 ) LENGTH_UNIT ( ) NAMED_UNIT ( #181 ) );
#73 = APPLICATION_CONTEXT ( 'automotive_design' ) ;
#74 = CARTESIAN_POINT ( 'NONE',  ( 0.06374000000000018540, 8.724383797125754882E-18, 1.968503999999999809 ) ) ;
#75 = ORIENTED_EDGE ( 'NONE', *, *, #16, .T. ) ;
#76 = DIRECTION ( 'NONE',  ( -0.000000000000000000, -0.000000000000000000, -1.000000000000000000 ) ) ;
#77 = CARTESIAN_POINT ( 'NONE',  ( 0.000000000000000000, 0.000000000000000000, 1.968503999999999809 ) ) ;
#78 = VERTEX_POINT ( 'NONE', #74 ) ;
#79 = DIRECTION ( 'NONE',  ( 1.000000000000000000, 0.000000000000000000, 0.000000000000000000 ) ) ;
#80 = EDGE_CURVE ( 'NONE', #296, #287, #1, .T. ) ;
#81 = AXIS2_PLACEMENT_3D ( 'NONE', #230, #23, #232 ) ;
#82 = CARTESIAN_POINT ( 'NONE',  ( -0.07866126000000001062, 0.000000000000000000, 9.633226027589773945E-18 ) ) ;
#83 = FILL_AREA_STYLE_COLOUR ( '', #260 ) ;
#84 = ADVANCED_FACE ( 'NONE', ( #214 ), #212, .T. ) ;
#85 = AXIS2_PLACEMENT_3D ( 'NONE', #145, #50, #160 ) ;
#86 = ORIENTED_EDGE ( 'NONE', *, *, #186, .F. ) ;
#87 = LENGTH_MEASURE_WITH_UNIT ( LENGTH_MEASURE( 0.02539999999999999897 ), #136 );
#88 =( GEOMETRIC_REPRESENTATION_CONTEXT ( 3 ) GLOBAL_UNCERTAINTY_ASSIGNED_CONTEXT ( ( #195 ) ) GLOBAL_UNIT_ASSIGNED_CONTEXT ( ( #72, #177, #48 ) ) REPRESENTATION_CONTEXT ( 'NONE', 'WORKASPACE' ) );
#89 = APPLICATION_PROTOCOL_DEFINITION ( 'draft international standard', 'automotive_design', 1998, #73 ) ;
#90 = CONICAL_SURFACE ( 'NONE', #295, 0.07866126000000002449, 0.1745329251994339192 ) ;
#91 = PRESENTATION_STYLE_ASSIGNMENT (( #278 ) ) ;
#92 = FILL_AREA_STYLE ('',( #95 ) ) ;
#93 = CIRCLE ( 'NONE', #4, 0.07866125999999999674 ) ;
#94 = CARTESIAN_POINT ( 'NONE',  ( 0.000000000000000000, 0.000000000000000000, 1.968503999999999809 ) ) ;
#95 = FILL_AREA_STYLE_COLOUR ( '', #117 ) ;
#96 = CARTESIAN_POINT ( 'NONE',  ( -0.07866125999999994123, 9.633226027589775486E-18, 0.7086609999999999854 ) ) ;
#97 = DIRECTION ( 'NONE',  ( -1.224646799147353207E-16, -0.000000000000000000, -1.000000000000000000 ) ) ;
#98 = DIRECTION ( 'NONE',  ( -1.000000000000000000, 0.000000000000000000, 0.000000000000000000 ) ) ;
#99 = LINE ( 'NONE', #216, #248 ) ;
#100 = LINE ( 'NONE', #243, #290 ) ;
#101 = APPLICATION_PROTOCOL_DEFINITION ( 'draft international standard', 'automotive_design', 1998, #123 ) ;
#102 = DIRECTION ( 'NONE',  ( -0.000000000000000000, -0.000000000000000000, -1.000000000000000000 ) ) ;
#103 = VECTOR ( 'NONE', #146, 39.37007874015748854 ) ;
#104 = ORIENTED_EDGE ( 'NONE', *, *, #175, .F. ) ;
#105 = AXIS2_PLACEMENT_3D ( 'NONE', #169, #58, #152 ) ;
#106 = DIRECTION ( 'NONE',  ( -0.000000000000000000, -0.000000000000000000, -1.000000000000000000 ) ) ;
#107 = AXIS2_PLACEMENT_3D ( 'NONE', #52, #203, #277 ) ;
#108 =( LENGTH_UNIT ( ) NAMED_UNIT ( * ) SI_UNIT ( $, .METRE. ) );
#109 = PRESENTATION_STYLE_ASSIGNMENT (( #133 ) ) ;
#110 = CARTESIAN_POINT ( 'NONE',  ( -0.07874000000000000443, 0.000000000000000000, 1.968503999999999809 ) ) ;
#111 = ORIENTED_EDGE ( 'NONE', *, *, #44, .T. ) ;
#112 = CARTESIAN_POINT ( 'NONE',  ( -0.06374000000000018540, 0.000000000000000000, 1.968503999999999809 ) ) ;
#113 = ORIENTED_EDGE ( 'NONE', *, *, #43, .T. ) ;
#114 = DIRECTION ( 'NONE',  ( 1.000000000000000000, 0.000000000000000000, 0.000000000000000000 ) ) ;
#115 = PRODUCT_DEFINITION_SHAPE ( 'NONE', 'NONE',  #298 ) ;
#116 = ORIENTED_EDGE ( 'NONE', *, *, #162, .T. ) ;
#117 = COLOUR_RGB ( '',0.7921568627450980005, 0.8196078431372548767, 0.9333333333333333481 ) ;
#118 = CARTESIAN_POINT ( 'NONE',  ( 0.07874000000000008770, 9.642868896486269294E-18, 0.7091075567304765404 ) ) ;
#119 = ORIENTED_EDGE ( 'NONE', *, *, #233, .T. ) ;
#120 = FACE_OUTER_BOUND ( 'NONE', #273, .T. ) ;
#121 = FACE_OUTER_BOUND ( 'NONE', #225, .T. ) ;
#122 = DIRECTION ( 'NONE',  ( 0.000000000000000000, 0.000000000000000000, 1.000000000000000000 ) ) ;
#123 = APPLICATION_CONTEXT ( 'automotive_design' ) ;
#124 = PLANE ( 'NONE',  #158 ) ;
#125 = CONICAL_SURFACE ( 'NONE', #105, 0.07866126000000002449, 0.1745329251994339192 ) ;
#126 = VERTEX_POINT ( 'NONE', #35 ) ;
#127 = DIRECTION ( 'NONE',  ( 0.000000000000000000, 0.000000000000000000, 1.000000000000000000 ) ) ;
#128 = ADVANCED_FACE ( 'NONE', ( #36 ), #55, .F. ) ;
#129 = EDGE_LOOP ( 'NONE', ( #63, #6, #211, #75 ) ) ;
#130 = SHAPE_DEFINITION_REPRESENTATION ( #115, #234 ) ;
#131 = LINE ( 'NONE', #222, #34 ) ;
#132 = ORIENTED_EDGE ( 'NONE', *, *, #186, .T. ) ;
#133 = SURFACE_STYLE_USAGE ( .BOTH. , #18 ) ;
#134 = PRODUCT_DEFINITION_CONTEXT ( 'detailed design', #123, 'design' ) ;
#135 = AXIS2_PLACEMENT_3D ( 'NONE', #149, #284, #241 ) ;
#136 =( LENGTH_UNIT ( ) NAMED_UNIT ( * ) SI_UNIT ( $, .METRE. ) );
#137 = AXIS2_PLACEMENT_3D ( 'NONE', #142, #255, #210 ) ;
#138 = DIRECTION ( 'NONE',  ( 0.000000000000000000, 0.000000000000000000, 1.000000000000000000 ) ) ;
#139 = EDGE_CURVE ( 'NONE', #296, #201, #258, .T. ) ;
#140 = ORIENTED_EDGE ( 'NONE', *, *, #233, .F. ) ;
#141 = ORIENTED_EDGE ( 'NONE', *, *, #33, .T. ) ;
#142 = CARTESIAN_POINT ( 'NONE',  ( 0.000000000000000000, 0.000000000000000000, 0.000000000000000000 ) ) ;
#143 = AXIS2_PLACEMENT_3D ( 'NONE', #10, #190, #215 ) ;
#144 = ADVANCED_FACE ( 'NONE', ( #121 ), #279, .T. ) ;
#145 = CARTESIAN_POINT ( 'NONE',  ( 0.000000000000000000, 0.000000000000000000, 1.968503999999999809 ) ) ;
#146 = DIRECTION ( 'NONE',  ( 0.7071067811865502373, 8.659560562354966138E-17, -0.7071067811865446862 ) ) ;
#147 = DIRECTION ( 'NONE',  ( 1.000000000000000000, 0.000000000000000000, -0.000000000000000000 ) ) ;
#148 = DIRECTION ( 'NONE',  ( -1.000000000000000000, 0.000000000000000000, 0.000000000000000000 ) ) ;
#149 = CARTESIAN_POINT ( 'NONE',  ( 8.678594253305624695E-17, 0.000000000000000000, 0.7086609999999999854 ) ) ;
#150 =( NAMED_UNIT ( * ) SI_UNIT ( $, .STERADIAN. ) SOLID_ANGLE_UNIT ( ) );
#151 = EDGE_CURVE ( 'NONE', #78, #253, #189, .T. ) ;
#152 = DIRECTION ( 'NONE',  ( 1.000000000000000000, 0.000000000000000000, 0.000000000000000000 ) ) ;
#153 = PRESENTATION_LAYER_ASSIGNMENT (  '', '', ( #185 ) ) ;
#154 = ORIENTED_EDGE ( 'NONE', *, *, #151, .F. ) ;
#155 = PRESENTATION_LAYER_ASSIGNMENT (  '', '', ( #285 ) ) ;
#156 = AXIS2_PLACEMENT_3D ( 'NONE', #235, #127, #147 ) ;
#157 = FACE_OUTER_BOUND ( 'NONE', #291, .T. ) ;
#158 = AXIS2_PLACEMENT_3D ( 'NONE', #77, #122, #265 ) ;
#159 = VECTOR ( 'NONE', #106, 39.37007874015748143 ) ;
#160 = DIRECTION ( 'NONE',  ( 1.000000000000000000, 0.000000000000000000, 0.000000000000000000 ) ) ;
#161 = DIRECTION ( 'NONE',  ( -1.000000000000000000, 0.000000000000000000, 0.000000000000000000 ) ) ;
#162 = EDGE_CURVE ( 'NONE', #296, #168, #281, .T. ) ;
#163 = AXIS2_PLACEMENT_3D ( 'NONE', #9, #187, #98 ) ;
#164 = DIRECTION ( 'NONE',  ( 0.000000000000000000, 0.000000000000000000, -1.000000000000000000 ) ) ;
#165 = ADVANCED_FACE ( 'NONE', ( #37 ), #57, .T. ) ;
#166 = LINE ( 'NONE', #171, #254 ) ;
#167 = CIRCLE ( 'NONE', #217, 0.07874000000000000443 ) ;
#168 = VERTEX_POINT ( 'NONE', #280 ) ;
#169 = CARTESIAN_POINT ( 'NONE',  ( 8.678594253305624695E-17, 0.000000000000000000, 0.7086609999999999854 ) ) ;
#170 = ADVANCED_FACE ( 'NONE', ( #286 ), #124, .T. ) ;
#171 = CARTESIAN_POINT ( 'NONE',  ( -0.06374000000000018540, 0.000000000000000000, 1.968503999999999809 ) ) ;
#172 = UNCERTAINTY_MEASURE_WITH_UNIT (LENGTH_MEASURE( 1.000000000000000082E-05 ), #198, 'distance_accuracy_value', 'NONE');
#173 = CLOSED_SHELL ( 'NONE', ( #51, #236, #20, #294, #165, #170, #144, #206, #84, #128 ) ) ;
#174 = CARTESIAN_POINT ( 'NONE',  ( 0.000000000000000000, 0.000000000000000000, 1.953504000000000129 ) ) ;
#175 = EDGE_CURVE ( 'NONE', #24, #126, #166, .T. ) ;
#176 = ORIENTED_EDGE ( 'NONE', *, *, #59, .T. ) ;
#177 =( NAMED_UNIT ( * ) PLANE_ANGLE_UNIT ( ) SI_UNIT ( $, .RADIAN. ) );
#178 = EDGE_LOOP ( 'NONE', ( #246, #113, #116, #49 ) ) ;
#179 = SURFACE_SIDE_STYLE ('',( #182 ) ) ;
#180 = ORIENTED_EDGE ( 'NONE', *, *, #269, .F. ) ;
#181 = DIMENSIONAL_EXPONENTS ( 1.000000000000000000, 0.000000000000000000, 0.000000000000000000, 0.000000000000000000, 0.000000000000000000, 0.000000000000000000, 0.000000000000000000 ) ;
#182 = SURFACE_STYLE_FILL_AREA ( #92 ) ;
#183 = DIMENSIONAL_EXPONENTS ( 1.000000000000000000, 0.000000000000000000, 0.000000000000000000, 0.000000000000000000, 0.000000000000000000, 0.000000000000000000, 0.000000000000000000 ) ;
#184 = CARTESIAN_POINT ( 'NONE',  ( 0.000000000000000000, 0.000000000000000000, 0.000000000000000000 ) ) ;
#185 = STYLED_ITEM ( 'NONE', ( #109 ), #234 ) ;
#186 = EDGE_CURVE ( 'NONE', #287, #25, #227, .T. ) ;
#187 = DIRECTION ( 'NONE',  ( 0.000000000000000000, 0.000000000000000000, -1.000000000000000000 ) ) ;
#188 = CARTESIAN_POINT ( 'NONE',  ( 0.06374000000000018540, 7.805898697765251255E-18, 1.968503999999999809 ) ) ;
#189 = LINE ( 'NONE', #188, #103 ) ;
#190 = DIRECTION ( 'NONE',  ( -1.224646799147353207E-16, -0.000000000000000000, -1.000000000000000000 ) ) ;
#191 = MECHANICAL_DESIGN_GEOMETRIC_PRESENTATION_REPRESENTATION (  '', ( #285 ), #88 ) ;
#192 = EDGE_CURVE ( 'NONE', #201, #25, #99, .T. ) ;
#193 = EDGE_CURVE ( 'NONE', #126, #253, #167, .T. ) ;
#194 = MECHANICAL_DESIGN_GEOMETRIC_PRESENTATION_REPRESENTATION (  '', ( #185 ), #207 ) ;
#195 = UNCERTAINTY_MEASURE_WITH_UNIT (LENGTH_MEASURE( 1.000000000000000082E-05 ), #72, 'distance_accuracy_value', 'NONE');
#196 = CYLINDRICAL_SURFACE ( 'NONE', #226, 0.07874000000000000443 ) ;
#197 = CIRCLE ( 'NONE', #107, 0.07866126000000002449 ) ;
#198 =( CONVERSION_BASED_UNIT ( 'INCH', #87 ) LENGTH_UNIT ( ) NAMED_UNIT ( #2 ) );
#199 = CARTESIAN_POINT ( 'NONE',  ( 0.07874000000000000443, 9.642868896486258509E-18, 1.953504000000000129 ) ) ;
#200 =( GEOMETRIC_REPRESENTATION_CONTEXT ( 3 ) GLOBAL_UNCERTAINTY_ASSIGNED_CONTEXT ( ( #172 ) ) GLOBAL_UNIT_ASSIGNED_CONTEXT ( ( #198, #288, #150 ) ) REPRESENTATION_CONTEXT ( 'NONE', 'WORKASPACE' ) );
#201 = VERTEX_POINT ( 'NONE', #61 ) ;
#202 = CONICAL_SURFACE ( 'NONE', #256, 0.06374000000000018540, 0.7853981633974522758 ) ;
#203 = DIRECTION ( 'NONE',  ( -1.224646799147353207E-16, -0.000000000000000000, -1.000000000000000000 ) ) ;
#204 = ORIENTED_EDGE ( 'NONE', *, *, #31, .F. ) ;
#205 = CARTESIAN_POINT ( 'NONE',  ( 1.179729942015078748E-33, 0.000000000000000000, 9.633226027589770864E-18 ) ) ;
#206 = ADVANCED_FACE ( 'NONE', ( #262 ), #125, .T. ) ;
#207 =( GEOMETRIC_REPRESENTATION_CONTEXT ( 3 ) GLOBAL_UNCERTAINTY_ASSIGNED_CONTEXT ( ( #271 ) ) GLOBAL_UNIT_ASSIGNED_CONTEXT ( ( #60, #219, #39 ) ) REPRESENTATION_CONTEXT ( 'NONE', 'WORKASPACE' ) );
#208 = VERTEX_POINT ( 'NONE', #12 ) ;
#209 = CARTESIAN_POINT ( 'NONE',  ( 1.179729942015078748E-33, 0.000000000000000000, 9.633226027589770864E-18 ) ) ;
#210 = DIRECTION ( 'NONE',  ( -1.000000000000000000, 0.000000000000000000, 1.224646799147353207E-16 ) ) ;
#211 = ORIENTED_EDGE ( 'NONE', *, *, #192, .T. ) ;
#212 = CYLINDRICAL_SURFACE ( 'NONE', #242, 0.07866126000000001062 ) ;
#213 = AXIS2_PLACEMENT_3D ( 'NONE', #205, #228, #45 ) ;
#214 = FACE_OUTER_BOUND ( 'NONE', #178, .T. ) ;
#215 = DIRECTION ( 'NONE',  ( 1.000000000000000000, 0.000000000000000000, 0.000000000000000000 ) ) ;
#216 = CARTESIAN_POINT ( 'NONE',  ( 0.07866126000000010776, 0.000000000000000000, 0.7086609999999999854 ) ) ;
#217 = AXIS2_PLACEMENT_3D ( 'NONE', #32, #164, #79 ) ;
#218 = ORIENTED_EDGE ( 'NONE', *, *, #193, .F. ) ;
#219 =( NAMED_UNIT ( * ) PLANE_ANGLE_UNIT ( ) SI_UNIT ( $, .RADIAN. ) );
#220 = DIRECTION ( 'NONE',  ( 0.000000000000000000, 0.000000000000000000, -1.000000000000000000 ) ) ;
#221 = EDGE_LOOP ( 'NONE', ( #15, #111 ) ) ;
#222 = CARTESIAN_POINT ( 'NONE',  ( 0.07866126000000001062, 9.633226027589773945E-18, -9.633226027589773945E-18 ) ) ;
#223 = ORIENTED_EDGE ( 'NONE', *, *, #16, .F. ) ;
#224 = CIRCLE ( 'NONE', #81, 0.07874000000000000443 ) ;
#225 = EDGE_LOOP ( 'NONE', ( #154, #204, #229, #180 ) ) ;
#226 = AXIS2_PLACEMENT_3D ( 'NONE', #64, #102, #40 ) ;
#227 = CIRCLE ( 'NONE', #143, 0.07874000000000000443 ) ;
#228 = DIRECTION ( 'NONE',  ( -1.224646799147353207E-16, -0.000000000000000000, -1.000000000000000000 ) ) ;
#229 = ORIENTED_EDGE ( 'NONE', *, *, #175, .T. ) ;
#230 = CARTESIAN_POINT ( 'NONE',  ( 8.684062996011783728E-17, 0.000000000000000000, 0.7091075567304765404 ) ) ;
#231 = ORIENTED_EDGE ( 'NONE', *, *, #151, .T. ) ;
#232 = DIRECTION ( 'NONE',  ( 1.000000000000000000, 0.000000000000000000, 0.000000000000000000 ) ) ;
#233 = EDGE_CURVE ( 'NONE', #253, #25, #100, .T. ) ;
#234 = ADVANCED_BREP_SHAPE_REPRESENTATION ( 'Micro_EMSM-040-2', ( #71, #270 ), #200 ) ;
#235 = CARTESIAN_POINT ( 'NONE',  ( 0.000000000000000000, 0.000000000000000000, 0.000000000000000000 ) ) ;
#236 = ADVANCED_FACE ( 'NONE', ( #120 ), #90, .T. ) ;
#237 = DIRECTION ( 'NONE',  ( -1.000000000000000000, 0.000000000000000000, 1.224646799147353207E-16 ) ) ;
#238 = ORIENTED_EDGE ( 'NONE', *, *, #44, .F. ) ;
#239 = DIRECTION ( 'NONE',  ( -0.7071067811865502373, 0.000000000000000000, -0.7071067811865446862 ) ) ;
#240 = EDGE_CURVE ( 'NONE', #126, #287, #19, .T. ) ;
#241 = DIRECTION ( 'NONE',  ( -1.000000000000000000, 0.000000000000000000, 0.000000000000000000 ) ) ;
#242 = AXIS2_PLACEMENT_3D ( 'NONE', #184, #97, #237 ) ;
#243 = CARTESIAN_POINT ( 'NONE',  ( 0.07874000000000000443, 9.642868896486258509E-18, 1.968503999999999809 ) ) ;
#244 = EDGE_LOOP ( 'NONE', ( #176, #141 ) ) ;
#245 = CARTESIAN_POINT ( 'NONE',  ( -0.07873999999999992117, 0.000000000000000000, 0.7091075567304765404 ) ) ;
#246 = ORIENTED_EDGE ( 'NONE', *, *, #297, .F. ) ;
#247 = DIRECTION ( 'NONE',  ( 1.000000000000000000, 0.000000000000000000, 0.000000000000000000 ) ) ;
#248 = VECTOR ( 'NONE', #267, 39.37007874015748143 ) ;
#249 = CIRCLE ( 'NONE', #85, 0.06374000000000018540 ) ;
#250 = DIRECTION ( 'NONE',  ( 1.000000000000000000, 0.000000000000000000, 0.000000000000000000 ) ) ;
#251 = VECTOR ( 'NONE', #54, 39.37007874015747433 ) ;
#252 = CARTESIAN_POINT ( 'NONE',  ( 0.000000000000000000, 0.000000000000000000, 1.968503999999999809 ) ) ;
#253 = VERTEX_POINT ( 'NONE', #199 ) ;
#254 = VECTOR ( 'NONE', #239, 39.37007874015748854 ) ;
#255 = DIRECTION ( 'NONE',  ( -1.224646799147353207E-16, -0.000000000000000000, -1.000000000000000000 ) ) ;
#256 = AXIS2_PLACEMENT_3D ( 'NONE', #252, #3, #161 ) ;
#257 = LENGTH_MEASURE_WITH_UNIT ( LENGTH_MEASURE( 0.02539999999999999897 ), #30 );
#258 = CIRCLE ( 'NONE', #135, 0.07866126000000002449 ) ;
#259 = FACE_OUTER_BOUND ( 'NONE', #275, .T. ) ;
#260 = COLOUR_RGB ( '',0.7921568627450980005, 0.8196078431372548767, 0.9333333333333333481 ) ;
#261 = DIRECTION ( 'NONE',  ( -0.000000000000000000, -0.000000000000000000, -1.000000000000000000 ) ) ;
#262 = FACE_OUTER_BOUND ( 'NONE', #129, .T. ) ;
#263 = CARTESIAN_POINT ( 'NONE',  ( 0.000000000000000000, 0.000000000000000000, 1.968503999999999809 ) ) ;
#264 = ORIENTED_EDGE ( 'NONE', *, *, #192, .F. ) ;
#265 = DIRECTION ( 'NONE',  ( 1.000000000000000000, 0.000000000000000000, -0.000000000000000000 ) ) ;
#266 = FILL_AREA_STYLE ('',( #83 ) ) ;
#267 = DIRECTION ( 'NONE',  ( 0.1736481776669314137, 0.000000000000000000, 0.9848077530122077983 ) ) ;
#268 = LENGTH_MEASURE_WITH_UNIT ( LENGTH_MEASURE( 0.02539999999999999897 ), #108 );
#269 = EDGE_CURVE ( 'NONE', #253, #126, #42, .T. ) ;
#270 = AXIS2_PLACEMENT_3D ( 'NONE', #293, #292, #247 ) ;
#271 = UNCERTAINTY_MEASURE_WITH_UNIT (LENGTH_MEASURE( 1.000000000000000082E-05 ), #60, 'distance_accuracy_value', 'NONE');
#272 = DIRECTION ( 'NONE',  ( 1.000000000000000000, 0.000000000000000000, 0.000000000000000000 ) ) ;
#273 = EDGE_LOOP ( 'NONE', ( #276, #66, #132, #264 ) ) ;
#274 = ORIENTED_EDGE ( 'NONE', *, *, #139, .T. ) ;
#275 = EDGE_LOOP ( 'NONE', ( #274, #46, #70, #26 ) ) ;
#276 = ORIENTED_EDGE ( 'NONE', *, *, #139, .F. ) ;
#277 = DIRECTION ( 'NONE',  ( -1.000000000000000000, 0.000000000000000000, 0.000000000000000000 ) ) ;
#278 = SURFACE_STYLE_USAGE ( .BOTH. , #179 ) ;
#279 = CONICAL_SURFACE ( 'NONE', #163, 0.06374000000000018540, 0.7853981633974522758 ) ;
#280 = CARTESIAN_POINT ( 'NONE',  ( -0.07866125999999999674, 0.000000000000000000, 1.926645205517954173E-17 ) ) ;
#281 = LINE ( 'NONE', #82, #56 ) ;
#282 = DIRECTION ( 'NONE',  ( -1.224646799147353207E-16, -0.000000000000000000, -1.000000000000000000 ) ) ;
#283 = EDGE_LOOP ( 'NONE', ( #140, #68, #67, #223 ) ) ;
#284 = DIRECTION ( 'NONE',  ( -1.224646799147353207E-16, -0.000000000000000000, -1.000000000000000000 ) ) ;
#285 = STYLED_ITEM ( 'NONE', ( #91 ), #71 ) ;
#286 = FACE_OUTER_BOUND ( 'NONE', #221, .T. ) ;
#287 = VERTEX_POINT ( 'NONE', #245 ) ;
#288 =( NAMED_UNIT ( * ) PLANE_ANGLE_UNIT ( ) SI_UNIT ( $, .RADIAN. ) );
#289 = CARTESIAN_POINT ( 'NONE',  ( -0.07866125999999994123, 9.638047462038017768E-18, 0.7086609999999999854 ) ) ;
#290 = VECTOR ( 'NONE', #261, 39.37007874015748143 ) ;
#291 = EDGE_LOOP ( 'NONE', ( #238, #231, #218, #104 ) ) ;
#292 = DIRECTION ( 'NONE',  ( 0.000000000000000000, 0.000000000000000000, 1.000000000000000000 ) ) ;
#293 = CARTESIAN_POINT ( 'NONE',  ( 0.000000000000000000, 0.000000000000000000, 0.000000000000000000 ) ) ;
#294 = ADVANCED_FACE ( 'NONE', ( #13 ), #196, .T. ) ;
#295 = AXIS2_PLACEMENT_3D ( 'NONE', #38, #8, #250 ) ;
#296 = VERTEX_POINT ( 'NONE', #289 ) ;
#297 = EDGE_CURVE ( 'NONE', #201, #208, #131, .T. ) ;
#298 = PRODUCT_DEFINITION ( 'UNKNOWN', '', #7, #134 ) ;
#299 = CYLINDRICAL_SURFACE ( 'NONE', #137, 0.07866126000000001062 ) ;
ENDSEC;
END-ISO-10303-21;
