ISO-10303-21;
HEADER;
FILE_DESCRIPTION (( 'STEP AP214' ),
    '1' );
FILE_NAME ('59615.STEP',
    '2023-07-24T15:50:28',
    ( '' ),
    ( '' ),
    'SwSTEP 2.0',
    'SolidWorks 2023',
    '' );
FILE_SCHEMA (( 'AUTOMOTIVE_DESIGN' ));
ENDSEC;

DATA;
#1 = PLANE ( 'NONE',  #267 ) ;
#2 = CARTESIAN_POINT ( 'NONE',  ( 0.000000000000000000, 30.00000000000000000, 0.000000000000000000 ) ) ;
#3 = CARTESIAN_POINT ( 'NONE',  ( -7.703719777548943412E-31, 30.00000000000000000, 0.000000000000000000 ) ) ;
#4 = SURFACE_STYLE_FILL_AREA ( #20 ) ;
#5 = LINE ( 'NONE', #226, #162 ) ;
#6 = FACE_OUTER_BOUND ( 'NONE', #12, .T. ) ;
#7 = MECHANICAL_DESIGN_GEOMETRIC_PRESENTATION_REPRESENTATION (  '', ( #140 ), #176 ) ;
#8 = FACE_OUTER_BOUND ( 'NONE', #37, .T. ) ;
#9 = ORIENTED_EDGE ( 'NONE', *, *, #258, .T. ) ;
#10 = MECHANICAL_DESIGN_GEOMETRIC_PRESENTATION_REPRESENTATION (  '', ( #30 ), #236 ) ;
#11 = ORIENTED_EDGE ( 'NONE', *, *, #91, .T. ) ;
#12 = EDGE_LOOP ( 'NONE', ( #102, #11, #190, #260 ) ) ;
#13 = LINE ( 'NONE', #196, #89 ) ;
#14 = CLOSED_SHELL ( 'NONE', ( #154, #185, #136, #269 ) ) ;
#15 = PRESENTATION_LAYER_ASSIGNMENT (  '', '', ( #144 ) ) ;
#16 = PRESENTATION_LAYER_ASSIGNMENT (  '', '', ( #30 ) ) ;
#17 = SURFACE_SIDE_STYLE ('',( #219 ) ) ;
#18 = ADVANCED_FACE ( 'NONE', ( #287 ), #1, .T. ) ;
#19 =( NAMED_UNIT ( * ) SI_UNIT ( $, .STERADIAN. ) SOLID_ANGLE_UNIT ( ) );
#20 = FILL_AREA_STYLE ('',( #160 ) ) ;
#21 = STYLED_ITEM ( 'NONE', ( #65 ), #83 ) ;
#22 = DIRECTION ( 'NONE',  ( 0.000000000000000000, 0.000000000000000000, -1.000000000000000000 ) ) ;
#23 = SURFACE_STYLE_FILL_AREA ( #174 ) ;
#24 = DIRECTION ( 'NONE',  ( -1.000000000000000000, 0.000000000000000000, 0.000000000000000000 ) ) ;
#25 = APPLICATION_CONTEXT ( 'automotive_design' ) ;
#26 = DIRECTION ( 'NONE',  ( 1.000000000000000000, -1.360718665719280903E-16, 0.000000000000000000 ) ) ;
#27 = AXIS2_PLACEMENT_3D ( 'NONE', #229, #186, #272 ) ;
#28 = MANIFOLD_SOLID_BREP ( 'Revolve - Tool Body (Straight Shanked)', #14 ) ;
#29 = FACE_OUTER_BOUND ( 'NONE', #211, .T. ) ;
#30 = STYLED_ITEM ( 'NONE', ( #251 ), #262 ) ;
#31 = VERTEX_POINT ( 'NONE', #158 ) ;
#32 = VERTEX_POINT ( 'NONE', #263 ) ;
#33 = APPLICATION_PROTOCOL_DEFINITION ( 'draft international standard', 'automotive_design', 1998, #25 ) ;
#34 = COLOUR_RGB ( '',1.000000000000000000, 0.000000000000000000, 0.000000000000000000 ) ;
#35 = AXIS2_PLACEMENT_3D ( 'NONE', #239, #175, #200 ) ;
#36 = EDGE_CURVE ( 'NONE', #57, #122, #66, .T. ) ;
#37 = EDGE_LOOP ( 'NONE', ( #101, #238, #189, #169 ) ) ;
#38 = FACE_OUTER_BOUND ( 'NONE', #210, .T. ) ;
#39 = SURFACE_SIDE_STYLE ('',( #4 ) ) ;
#40 = SURFACE_STYLE_FILL_AREA ( #264 ) ;
#41 =( GEOMETRIC_REPRESENTATION_CONTEXT ( 3 ) GLOBAL_UNCERTAINTY_ASSIGNED_CONTEXT ( ( #60 ) ) GLOBAL_UNIT_ASSIGNED_CONTEXT ( ( #87, #265, #86 ) ) REPRESENTATION_CONTEXT ( 'NONE', 'WORKASPACE' ) );
#42 =( GEOMETRIC_REPRESENTATION_CONTEXT ( 3 ) GLOBAL_UNCERTAINTY_ASSIGNED_CONTEXT ( ( #225 ) ) GLOBAL_UNIT_ASSIGNED_CONTEXT ( ( #44, #218, #192 ) ) REPRESENTATION_CONTEXT ( 'NONE', 'WORKASPACE' ) );
#43 = FILL_AREA_STYLE_COLOUR ( '', #104 ) ;
#44 =( LENGTH_UNIT ( ) NAMED_UNIT ( * ) SI_UNIT ( .MILLI., .METRE. ) );
#45 = DIRECTION ( 'NONE',  ( -0.000000000000000000, -1.000000000000000000, -0.000000000000000000 ) ) ;
#46 =( NAMED_UNIT ( * ) SI_UNIT ( $, .STERADIAN. ) SOLID_ANGLE_UNIT ( ) );
#47 = ADVANCED_FACE ( 'NONE', ( #240 ), #153, .T. ) ;
#48 =( GEOMETRIC_REPRESENTATION_CONTEXT ( 3 ) GLOBAL_UNCERTAINTY_ASSIGNED_CONTEXT ( ( #209 ) ) GLOBAL_UNIT_ASSIGNED_CONTEXT ( ( #207, #278, #105 ) ) REPRESENTATION_CONTEXT ( 'NONE', 'WORKASPACE' ) );
#49 = DIRECTION ( 'NONE',  ( 0.000000000000000000, 1.000000000000000000, 0.000000000000000000 ) ) ;
#50 = CARTESIAN_POINT ( 'NONE',  ( 6.123233995736762930E-15, 75.00000000000000000, 0.000000000000000000 ) ) ;
#51 = CIRCLE ( 'NONE', #214, 6.000000000000000000 ) ;
#52 = DIRECTION ( 'NONE',  ( -0.000000000000000000, -1.000000000000000000, -0.000000000000000000 ) ) ;
#53 = DIRECTION ( 'NONE',  ( 1.360718665719280903E-16, 1.000000000000000000, -0.000000000000000000 ) ) ;
#54 = EDGE_LOOP ( 'NONE', ( #107, #64, #61, #145 ) ) ;
#55 = AXIS2_PLACEMENT_3D ( 'NONE', #3, #288, #271 ) ;
#56 = COLOUR_RGB ( '',1.000000000000000000, 0.000000000000000000, 0.000000000000000000 ) ;
#57 = VERTEX_POINT ( 'NONE', #151 ) ;
#58 = ORIENTED_EDGE ( 'NONE', *, *, #121, .T. ) ;
#59 = APPLICATION_PROTOCOL_DEFINITION ( 'draft international standard', 'automotive_design', 1998, #281 ) ;
#60 = UNCERTAINTY_MEASURE_WITH_UNIT (LENGTH_MEASURE( 1.000000000000000082E-05 ), #87, 'distance_accuracy_value', 'NONE');
#61 = ORIENTED_EDGE ( 'NONE', *, *, #181, .T. ) ;
#62 = CIRCLE ( 'NONE', #222, 5.999999999999993783 ) ;
#63 = PRODUCT_DEFINITION_FORMATION_WITH_SPECIFIED_SOURCE ( 'ANY', '', #166, .NOT_KNOWN. ) ;
#64 = ORIENTED_EDGE ( 'NONE', *, *, #73, .T. ) ;
#65 = PRESENTATION_STYLE_ASSIGNMENT (( #69 ) ) ;
#66 = LINE ( 'NONE', #221, #242 ) ;
#67 = SURFACE_STYLE_USAGE ( .BOTH. , #17 ) ;
#68 = PRODUCT_DEFINITION_SHAPE ( 'NONE', 'NONE',  #213 ) ;
#69 = SURFACE_STYLE_USAGE ( .BOTH. , #270 ) ;
#70 = COLOUR_RGB ( '',1.000000000000000000, 0.000000000000000000, 0.000000000000000000 ) ;
#71 = FILL_AREA_STYLE ('',( #130 ) ) ;
#72 = PRESENTATION_STYLE_ASSIGNMENT (( #197 ) ) ;
#73 = EDGE_CURVE ( 'NONE', #57, #237, #51, .T. ) ;
#74 = CARTESIAN_POINT ( 'NONE',  ( -5.999999999999987566, 75.00000000000000000, 0.000000000000000000 ) ) ;
#75 = CIRCLE ( 'NONE', #118, 6.000000000000000000 ) ;
#76 = UNCERTAINTY_MEASURE_WITH_UNIT (LENGTH_MEASURE( 1.000000000000000082E-05 ), #244, 'distance_accuracy_value', 'NONE');
#77 = FILL_AREA_STYLE_COLOUR ( '', #70 ) ;
#78 = CYLINDRICAL_SURFACE ( 'NONE', #188, 5.999999999999996447 ) ;
#79 = PLANE ( 'NONE',  #193 ) ;
#80 =( GEOMETRIC_REPRESENTATION_CONTEXT ( 3 ) GLOBAL_UNCERTAINTY_ASSIGNED_CONTEXT ( ( #76 ) ) GLOBAL_UNIT_ASSIGNED_CONTEXT ( ( #244, #88, #46 ) ) REPRESENTATION_CONTEXT ( 'NONE', 'WORKASPACE' ) );
#81 = UNCERTAINTY_MEASURE_WITH_UNIT (LENGTH_MEASURE( 1.000000000000000082E-05 ), #135, 'distance_accuracy_value', 'NONE');
#82 = ORIENTED_EDGE ( 'NONE', *, *, #227, .T. ) ;
#83 = ADVANCED_FACE ( 'NONE', ( #38 ), #241, .T. ) ;
#84 = EDGE_LOOP ( 'NONE', ( #255, #125 ) ) ;
#85 = CIRCLE ( 'NONE', #55, 6.000000000000000000 ) ;
#86 =( NAMED_UNIT ( * ) SI_UNIT ( $, .STERADIAN. ) SOLID_ANGLE_UNIT ( ) );
#87 =( LENGTH_UNIT ( ) NAMED_UNIT ( * ) SI_UNIT ( .MILLI., .METRE. ) );
#88 =( NAMED_UNIT ( * ) PLANE_ANGLE_UNIT ( ) SI_UNIT ( $, .RADIAN. ) );
#89 = VECTOR ( 'NONE', #113, 1000.000000000000000 ) ;
#90 = FILL_AREA_STYLE_COLOUR ( '', #109 ) ;
#91 = EDGE_CURVE ( 'NONE', #129, #31, #13, .T. ) ;
#92 = DIRECTION ( 'NONE',  ( 0.000000000000000000, 0.000000000000000000, -1.000000000000000000 ) ) ;
#93 = DIRECTION ( 'NONE',  ( 1.360718665719280903E-16, 1.000000000000000000, -0.000000000000000000 ) ) ;
#94 = DIRECTION ( 'NONE',  ( 1.360718665719280903E-16, 1.000000000000000000, -0.000000000000000000 ) ) ;
#95 = AXIS2_PLACEMENT_3D ( 'NONE', #246, #45, #92 ) ;
#96 = DIRECTION ( 'NONE',  ( -1.000000000000000000, 1.360718665719280903E-16, 0.000000000000000000 ) ) ;
#97 = FACE_OUTER_BOUND ( 'NONE', #257, .T. ) ;
#98 = LINE ( 'NONE', #119, #141 ) ;
#99 =( GEOMETRIC_REPRESENTATION_CONTEXT ( 3 ) GLOBAL_UNCERTAINTY_ASSIGNED_CONTEXT ( ( #81 ) ) GLOBAL_UNIT_ASSIGNED_CONTEXT ( ( #135, #177, #19 ) ) REPRESENTATION_CONTEXT ( 'NONE', 'WORKASPACE' ) );
#100 = EDGE_CURVE ( 'NONE', #129, #216, #85, .T. ) ;
#101 = ORIENTED_EDGE ( 'NONE', *, *, #91, .F. ) ;
#102 = ORIENTED_EDGE ( 'NONE', *, *, #232, .T. ) ;
#103 = DIRECTION ( 'NONE',  ( 1.000000000000000000, 0.000000000000000000, 0.000000000000000000 ) ) ;
#104 = COLOUR_RGB ( '',1.000000000000000000, 0.000000000000000000, 0.000000000000000000 ) ;
#105 =( NAMED_UNIT ( * ) SI_UNIT ( $, .STERADIAN. ) SOLID_ANGLE_UNIT ( ) );
#106 = ORIENTED_EDGE ( 'NONE', *, *, #279, .T. ) ;
#107 = ORIENTED_EDGE ( 'NONE', *, *, #36, .F. ) ;
#108 = SURFACE_STYLE_FILL_AREA ( #71 ) ;
#109 = COLOUR_RGB ( '',0.7921568627450980005, 0.8196078431372548767, 0.9333333333333333481 ) ;
#110 = PRESENTATION_STYLE_ASSIGNMENT (( #67 ) ) ;
#111 = DIRECTION ( 'NONE',  ( 0.000000000000000000, 0.000000000000000000, -1.000000000000000000 ) ) ;
#112 = SURFACE_STYLE_USAGE ( .BOTH. , #39 ) ;
#113 = DIRECTION ( 'NONE',  ( 1.360718665719280903E-16, 1.000000000000000000, -0.000000000000000000 ) ) ;
#114 = DIRECTION ( 'NONE',  ( 1.360718665719280903E-16, 1.000000000000000000, -0.000000000000000000 ) ) ;
#115 =( LENGTH_UNIT ( ) NAMED_UNIT ( * ) SI_UNIT ( .MILLI., .METRE. ) );
#116 = CARTESIAN_POINT ( 'NONE',  ( 6.123233995736762930E-15, 75.00000000000000000, 0.000000000000000000 ) ) ;
#117 = PRESENTATION_LAYER_ASSIGNMENT (  '', '', ( #235 ) ) ;
#118 = AXIS2_PLACEMENT_3D ( 'NONE', #276, #52, #230 ) ;
#119 = CARTESIAN_POINT ( 'NONE',  ( -5.999999999999990230, 75.00000000000000000, 0.000000000000000000 ) ) ;
#120 = CARTESIAN_POINT ( 'NONE',  ( 0.000000000000000000, 30.00000000000000000, -6.000000000000000000 ) ) ;
#121 = EDGE_CURVE ( 'NONE', #32, #122, #274, .T. ) ;
#122 = VERTEX_POINT ( 'NONE', #284 ) ;
#123 = MANIFOLD_SOLID_BREP ( 'Revolve - Cutting Edge', #286 ) ;
#124 = CARTESIAN_POINT ( 'NONE',  ( 0.000000000000000000, 0.000000000000000000, 0.000000000000000000 ) ) ;
#125 = ORIENTED_EDGE ( 'NONE', *, *, #100, .F. ) ;
#126 = PRODUCT_CONTEXT ( 'NONE', #25, 'mechanical' ) ;
#127 = CIRCLE ( 'NONE', #146, 6.000000000000000000 ) ;
#128 = ORIENTED_EDGE ( 'NONE', *, *, #227, .F. ) ;
#129 = VERTEX_POINT ( 'NONE', #261 ) ;
#130 = FILL_AREA_STYLE_COLOUR ( '', #56 ) ;
#131 = FILL_AREA_STYLE ('',( #43 ) ) ;
#132 = PRESENTATION_LAYER_ASSIGNMENT (  '', '', ( #268 ) ) ;
#133 =( NAMED_UNIT ( * ) PLANE_ANGLE_UNIT ( ) SI_UNIT ( $, .RADIAN. ) );
#134 = DIRECTION ( 'NONE',  ( -0.000000000000000000, -1.000000000000000000, -0.000000000000000000 ) ) ;
#135 =( LENGTH_UNIT ( ) NAMED_UNIT ( * ) SI_UNIT ( .MILLI., .METRE. ) );
#136 = ADVANCED_FACE ( 'NONE', ( #8 ), #155, .T. ) ;
#137 =( NAMED_UNIT ( * ) PLANE_ANGLE_UNIT ( ) SI_UNIT ( $, .RADIAN. ) );
#138 = DIRECTION ( 'NONE',  ( -1.360718665719280903E-16, -1.000000000000000000, 0.000000000000000000 ) ) ;
#139 = CARTESIAN_POINT ( 'NONE',  ( 6.123233995736762930E-15, 75.00000000000000000, 0.000000000000000000 ) ) ;
#140 = STYLED_ITEM ( 'NONE', ( #110 ), #47 ) ;
#141 = VECTOR ( 'NONE', #93, 1000.000000000000000 ) ;
#142 = DIRECTION ( 'NONE',  ( -1.000000000000000000, 0.000000000000000000, 0.000000000000000000 ) ) ;
#143 = DIRECTION ( 'NONE',  ( -1.000000000000000000, 0.000000000000000000, 0.000000000000000000 ) ) ;
#144 = STYLED_ITEM ( 'NONE', ( #72 ), #28 ) ;
#145 = ORIENTED_EDGE ( 'NONE', *, *, #258, .F. ) ;
#146 = AXIS2_PLACEMENT_3D ( 'NONE', #180, #182, #142 ) ;
#147 = ORIENTED_EDGE ( 'NONE', *, *, #73, .F. ) ;
#148 = DIRECTION ( 'NONE',  ( 1.360718665719280903E-16, 1.000000000000000000, -0.000000000000000000 ) ) ;
#149 = CIRCLE ( 'NONE', #233, 5.999999999999993783 ) ;
#150 = ORIENTED_EDGE ( 'NONE', *, *, #181, .F. ) ;
#151 = CARTESIAN_POINT ( 'NONE',  ( 7.347880794884119736E-16, 30.00000000000000000, 6.000000000000000000 ) ) ;
#152 = DIRECTION ( 'NONE',  ( -0.000000000000000000, -1.000000000000000000, -0.000000000000000000 ) ) ;
#153 = CYLINDRICAL_SURFACE ( 'NONE', #35, 6.000000000000000000 ) ;
#154 = ADVANCED_FACE ( 'NONE', ( #6 ), #78, .T. ) ;
#155 = CYLINDRICAL_SURFACE ( 'NONE', #243, 5.999999999999996447 ) ;
#156 = AXIS2_PLACEMENT_3D ( 'NONE', #194, #159, #22 ) ;
#157 = PRESENTATION_STYLE_ASSIGNMENT (( #198 ) ) ;
#158 = CARTESIAN_POINT ( 'NONE',  ( 6.000000000000000000, 75.00000000000000000, 7.347880794884117764E-16 ) ) ;
#159 = DIRECTION ( 'NONE',  ( -0.000000000000000000, -1.000000000000000000, -0.000000000000000000 ) ) ;
#160 = FILL_AREA_STYLE_COLOUR ( '', #34 ) ;
#161 = FACE_OUTER_BOUND ( 'NONE', #84, .T. ) ;
#162 = VECTOR ( 'NONE', #184, 1000.000000000000000 ) ;
#163 = PRODUCT_RELATED_PRODUCT_CATEGORY ( 'part', '', ( #166 ) ) ;
#164 = FILL_AREA_STYLE ('',( #77 ) ) ;
#165 = CARTESIAN_POINT ( 'NONE',  ( 6.123233995736762930E-15, 75.00000000000000000, 0.000000000000000000 ) ) ;
#166 = PRODUCT ( '59615', '59615', '', ( #126 ) ) ;
#167 = SHAPE_DEFINITION_REPRESENTATION ( #68, #171 ) ;
#168 = PRESENTATION_LAYER_ASSIGNMENT (  '', '', ( #140 ) ) ;
#169 = ORIENTED_EDGE ( 'NONE', *, *, #285, .F. ) ;
#170 = ORIENTED_EDGE ( 'NONE', *, *, #36, .T. ) ;
#171 = ADVANCED_BREP_SHAPE_REPRESENTATION ( '59615', ( #123, #28, #256 ), #48 ) ;
#172 = EDGE_CURVE ( 'NONE', #216, #191, #98, .T. ) ;
#173 = FILL_AREA_STYLE_COLOUR ( '', #204 ) ;
#174 = FILL_AREA_STYLE ('',( #90 ) ) ;
#175 = DIRECTION ( 'NONE',  ( -0.000000000000000000, -1.000000000000000000, -0.000000000000000000 ) ) ;
#176 =( GEOMETRIC_REPRESENTATION_CONTEXT ( 3 ) GLOBAL_UNCERTAINTY_ASSIGNED_CONTEXT ( ( #212 ) ) GLOBAL_UNIT_ASSIGNED_CONTEXT ( ( #247, #133, #231 ) ) REPRESENTATION_CONTEXT ( 'NONE', 'WORKASPACE' ) );
#177 =( NAMED_UNIT ( * ) PLANE_ANGLE_UNIT ( ) SI_UNIT ( $, .RADIAN. ) );
#178 = SURFACE_SIDE_STYLE ('',( #40 ) ) ;
#179 = DIRECTION ( 'NONE',  ( 0.000000000000000000, -1.000000000000000000, -0.000000000000000000 ) ) ;
#180 = CARTESIAN_POINT ( 'NONE',  ( -7.703719777548943412E-31, 30.00000000000000000, 0.000000000000000000 ) ) ;
#181 = EDGE_CURVE ( 'NONE', #237, #32, #5, .T. ) ;
#182 = DIRECTION ( 'NONE',  ( 1.360718665719280903E-16, 1.000000000000000000, -0.000000000000000000 ) ) ;
#183 = AXIS2_PLACEMENT_3D ( 'NONE', #203, #114, #96 ) ;
#184 = DIRECTION ( 'NONE',  ( -0.000000000000000000, -1.000000000000000000, -0.000000000000000000 ) ) ;
#185 = ADVANCED_FACE ( 'NONE', ( #161 ), #252, .F. ) ;
#186 = DIRECTION ( 'NONE',  ( -0.000000000000000000, -1.000000000000000000, -0.000000000000000000 ) ) ;
#187 = DIRECTION ( 'NONE',  ( 1.360718665719280903E-16, 1.000000000000000000, -0.000000000000000000 ) ) ;
#188 = AXIS2_PLACEMENT_3D ( 'NONE', #139, #187, #143 ) ;
#189 = ORIENTED_EDGE ( 'NONE', *, *, #172, .T. ) ;
#190 = ORIENTED_EDGE ( 'NONE', *, *, #279, .F. ) ;
#191 = VERTEX_POINT ( 'NONE', #74 ) ;
#192 =( NAMED_UNIT ( * ) SI_UNIT ( $, .STERADIAN. ) SOLID_ANGLE_UNIT ( ) );
#193 = AXIS2_PLACEMENT_3D ( 'NONE', #228, #49, #201 ) ;
#194 = CARTESIAN_POINT ( 'NONE',  ( 0.000000000000000000, 0.000000000000000000, 0.000000000000000000 ) ) ;
#195 = PRESENTATION_STYLE_ASSIGNMENT (( #112 ) ) ;
#196 = CARTESIAN_POINT ( 'NONE',  ( 6.000000000000002665, 75.00000000000000000, 7.347880794884115792E-16 ) ) ;
#197 = SURFACE_STYLE_USAGE ( .BOTH. , #245 ) ;
#198 = SURFACE_STYLE_USAGE ( .BOTH. , #178 ) ;
#199 = MECHANICAL_DESIGN_GEOMETRIC_PRESENTATION_REPRESENTATION (  '', ( #235 ), #99 ) ;
#200 = DIRECTION ( 'NONE',  ( 0.000000000000000000, 0.000000000000000000, -1.000000000000000000 ) ) ;
#201 = DIRECTION ( 'NONE',  ( 0.000000000000000000, -0.000000000000000000, 1.000000000000000000 ) ) ;
#202 = DIRECTION ( 'NONE',  ( -1.000000000000000000, 0.000000000000000000, 0.000000000000000000 ) ) ;
#203 = CARTESIAN_POINT ( 'NONE',  ( 5.554665861710580935E-32, 30.00000000000000000, 0.000000000000000000 ) ) ;
#204 = COLOUR_RGB ( '',0.7921568627450980005, 0.8196078431372548767, 0.9333333333333333481 ) ;
#205 = PRODUCT_DEFINITION_CONTEXT ( 'detailed design', #281, 'design' ) ;
#206 = SURFACE_STYLE_USAGE ( .BOTH. , #248 ) ;
#207 =( LENGTH_UNIT ( ) NAMED_UNIT ( * ) SI_UNIT ( .MILLI., .METRE. ) );
#208 = MECHANICAL_DESIGN_GEOMETRIC_PRESENTATION_REPRESENTATION (  '', ( #21 ), #42 ) ;
#209 = UNCERTAINTY_MEASURE_WITH_UNIT (LENGTH_MEASURE( 1.000000000000000082E-05 ), #207, 'distance_accuracy_value', 'NONE');
#210 = EDGE_LOOP ( 'NONE', ( #82, #170, #280, #150 ) ) ;
#211 = EDGE_LOOP ( 'NONE', ( #128, #147 ) ) ;
#212 = UNCERTAINTY_MEASURE_WITH_UNIT (LENGTH_MEASURE( 1.000000000000000082E-05 ), #247, 'distance_accuracy_value', 'NONE');
#213 = PRODUCT_DEFINITION ( 'UNKNOWN', '', #63, #205 ) ;
#214 = AXIS2_PLACEMENT_3D ( 'NONE', #2, #134, #111 ) ;
#215 = DIRECTION ( 'NONE',  ( 0.000000000000000000, 0.000000000000000000, 1.000000000000000000 ) ) ;
#216 = VERTEX_POINT ( 'NONE', #275 ) ;
#217 = EDGE_LOOP ( 'NONE', ( #58, #9 ) ) ;
#218 =( NAMED_UNIT ( * ) PLANE_ANGLE_UNIT ( ) SI_UNIT ( $, .RADIAN. ) );
#219 = SURFACE_STYLE_FILL_AREA ( #131 ) ;
#220 = MECHANICAL_DESIGN_GEOMETRIC_PRESENTATION_REPRESENTATION (  '', ( #144 ), #41 ) ;
#221 = CARTESIAN_POINT ( 'NONE',  ( 7.347880794884119736E-16, 0.000000000000000000, 6.000000000000000000 ) ) ;
#222 = AXIS2_PLACEMENT_3D ( 'NONE', #50, #148, #259 ) ;
#223 = DIRECTION ( 'NONE',  ( 0.000000000000000000, 0.000000000000000000, -1.000000000000000000 ) ) ;
#224 = PLANE ( 'NONE',  #277 ) ;
#225 = UNCERTAINTY_MEASURE_WITH_UNIT (LENGTH_MEASURE( 1.000000000000000082E-05 ), #44, 'distance_accuracy_value', 'NONE');
#226 = CARTESIAN_POINT ( 'NONE',  ( 0.000000000000000000, 0.000000000000000000, -6.000000000000000000 ) ) ;
#227 = EDGE_CURVE ( 'NONE', #237, #57, #75, .T. ) ;
#228 = CARTESIAN_POINT ( 'NONE',  ( 0.000000000000000000, 30.00000000000000000, 0.000000000000000000 ) ) ;
#229 = CARTESIAN_POINT ( 'NONE',  ( 0.000000000000000000, 0.000000000000000000, 0.000000000000000000 ) ) ;
#230 = DIRECTION ( 'NONE',  ( 0.000000000000000000, 0.000000000000000000, -1.000000000000000000 ) ) ;
#231 =( NAMED_UNIT ( * ) SI_UNIT ( $, .STERADIAN. ) SOLID_ANGLE_UNIT ( ) );
#232 = EDGE_CURVE ( 'NONE', #216, #129, #127, .T. ) ;
#233 = AXIS2_PLACEMENT_3D ( 'NONE', #116, #53, #24 ) ;
#234 = UNCERTAINTY_MEASURE_WITH_UNIT (LENGTH_MEASURE( 1.000000000000000082E-05 ), #115, 'distance_accuracy_value', 'NONE');
#235 = STYLED_ITEM ( 'NONE', ( #195 ), #18 ) ;
#236 =( GEOMETRIC_REPRESENTATION_CONTEXT ( 3 ) GLOBAL_UNCERTAINTY_ASSIGNED_CONTEXT ( ( #234 ) ) GLOBAL_UNIT_ASSIGNED_CONTEXT ( ( #115, #137, #273 ) ) REPRESENTATION_CONTEXT ( 'NONE', 'WORKASPACE' ) );
#237 = VERTEX_POINT ( 'NONE', #120 ) ;
#238 = ORIENTED_EDGE ( 'NONE', *, *, #100, .T. ) ;
#239 = CARTESIAN_POINT ( 'NONE',  ( 0.000000000000000000, 0.000000000000000000, 0.000000000000000000 ) ) ;
#240 = FACE_OUTER_BOUND ( 'NONE', #54, .T. ) ;
#241 = CYLINDRICAL_SURFACE ( 'NONE', #156, 6.000000000000000000 ) ;
#242 = VECTOR ( 'NONE', #152, 1000.000000000000000 ) ;
#243 = AXIS2_PLACEMENT_3D ( 'NONE', #165, #94, #202 ) ;
#244 =( LENGTH_UNIT ( ) NAMED_UNIT ( * ) SI_UNIT ( .MILLI., .METRE. ) );
#245 = SURFACE_SIDE_STYLE ('',( #23 ) ) ;
#246 = CARTESIAN_POINT ( 'NONE',  ( 0.000000000000000000, 0.000000000000000000, 0.000000000000000000 ) ) ;
#247 =( LENGTH_UNIT ( ) NAMED_UNIT ( * ) SI_UNIT ( .MILLI., .METRE. ) );
#248 = SURFACE_SIDE_STYLE ('',( #250 ) ) ;
#249 = PRESENTATION_LAYER_ASSIGNMENT (  '', '', ( #21 ) ) ;
#250 = SURFACE_STYLE_FILL_AREA ( #164 ) ;
#251 = PRESENTATION_STYLE_ASSIGNMENT (( #206 ) ) ;
#252 = PLANE ( 'NONE',  #183 ) ;
#253 = MECHANICAL_DESIGN_GEOMETRIC_PRESENTATION_REPRESENTATION (  '', ( #268 ), #80 ) ;
#254 = CARTESIAN_POINT ( 'NONE',  ( 6.000000000000000000, 75.00000000000000000, 0.000000000000000000 ) ) ;
#255 = ORIENTED_EDGE ( 'NONE', *, *, #232, .F. ) ;
#256 = AXIS2_PLACEMENT_3D ( 'NONE', #124, #215, #103 ) ;
#257 = EDGE_LOOP ( 'NONE', ( #106, #283 ) ) ;
#258 = EDGE_CURVE ( 'NONE', #122, #32, #282, .T. ) ;
#259 = DIRECTION ( 'NONE',  ( -1.000000000000000000, 0.000000000000000000, 0.000000000000000000 ) ) ;
#260 = ORIENTED_EDGE ( 'NONE', *, *, #172, .F. ) ;
#261 = CARTESIAN_POINT ( 'NONE',  ( 6.000000000000000000, 30.00000000000000000, 7.347880794884117764E-16 ) ) ;
#262 = ADVANCED_FACE ( 'NONE', ( #29 ), #79, .T. ) ;
#263 = CARTESIAN_POINT ( 'NONE',  ( 0.000000000000000000, 0.000000000000000000, -6.000000000000000000 ) ) ;
#264 = FILL_AREA_STYLE ('',( #173 ) ) ;
#265 =( NAMED_UNIT ( * ) PLANE_ANGLE_UNIT ( ) SI_UNIT ( $, .RADIAN. ) );
#266 = CARTESIAN_POINT ( 'NONE',  ( 0.000000000000000000, 0.000000000000000000, 0.000000000000000000 ) ) ;
#267 = AXIS2_PLACEMENT_3D ( 'NONE', #266, #179, #223 ) ;
#268 = STYLED_ITEM ( 'NONE', ( #157 ), #123 ) ;
#269 = ADVANCED_FACE ( 'NONE', ( #97 ), #224, .F. ) ;
#270 = SURFACE_SIDE_STYLE ('',( #108 ) ) ;
#271 = DIRECTION ( 'NONE',  ( -1.000000000000000000, 0.000000000000000000, 0.000000000000000000 ) ) ;
#272 = DIRECTION ( 'NONE',  ( 0.000000000000000000, 0.000000000000000000, -1.000000000000000000 ) ) ;
#273 =( NAMED_UNIT ( * ) SI_UNIT ( $, .STERADIAN. ) SOLID_ANGLE_UNIT ( ) );
#274 = CIRCLE ( 'NONE', #95, 6.000000000000000000 ) ;
#275 = CARTESIAN_POINT ( 'NONE',  ( -6.000000000000000000, 30.00000000000000000, 0.000000000000000000 ) ) ;
#276 = CARTESIAN_POINT ( 'NONE',  ( 0.000000000000000000, 30.00000000000000000, 0.000000000000000000 ) ) ;
#277 = AXIS2_PLACEMENT_3D ( 'NONE', #254, #138, #26 ) ;
#278 =( NAMED_UNIT ( * ) PLANE_ANGLE_UNIT ( ) SI_UNIT ( $, .RADIAN. ) );
#279 = EDGE_CURVE ( 'NONE', #191, #31, #149, .T. ) ;
#280 = ORIENTED_EDGE ( 'NONE', *, *, #121, .F. ) ;
#281 = APPLICATION_CONTEXT ( 'automotive_design' ) ;
#282 = CIRCLE ( 'NONE', #27, 6.000000000000000000 ) ;
#283 = ORIENTED_EDGE ( 'NONE', *, *, #285, .T. ) ;
#284 = CARTESIAN_POINT ( 'NONE',  ( 7.347880794884119736E-16, 0.000000000000000000, 6.000000000000000000 ) ) ;
#285 = EDGE_CURVE ( 'NONE', #31, #191, #62, .T. ) ;
#286 = CLOSED_SHELL ( 'NONE', ( #83, #262, #47, #18 ) ) ;
#287 = FACE_OUTER_BOUND ( 'NONE', #217, .T. ) ;
#288 = DIRECTION ( 'NONE',  ( 1.360718665719280903E-16, 1.000000000000000000, -0.000000000000000000 ) ) ;
ENDSEC;
END-ISO-10303-21;
