ISO-10303-21;
HEADER;
FILE_DESCRIPTION (( 'STEP AP214' ),
    '1' );
FILE_NAME ('82468.STEP',
    '2023-06-30T22:44:49',
    ( '' ),
    ( '' ),
    'SwSTEP 2.0',
    'SolidWorks 2023',
    '' );
FILE_SCHEMA (( 'AUTOMOTIVE_DESIGN' ));
ENDSEC;

DATA;
#1 = LINE ( 'NONE', #68, #67 ) ;
#2 = AXIS2_PLACEMENT_3D ( 'NONE', #184, #284, #258 ) ;
#3 = CARTESIAN_POINT ( 'NONE',  ( -0.3749999999999999445, 0.3749999999999999445, 4.592425496802572986E-17 ) ) ;
#4 = SURFACE_STYLE_USAGE ( .BOTH. , #342 ) ;
#5 = EDGE_CURVE ( 'NONE', #249, #12, #134, .T. ) ;
#6 = ADVANCED_FACE ( 'NONE', ( #193 ), #149, .T. ) ;
#7 =( GEOMETRIC_REPRESENTATION_CONTEXT ( 3 ) GLOBAL_UNCERTAINTY_ASSIGNED_CONTEXT ( ( #151 ) ) GLOBAL_UNIT_ASSIGNED_CONTEXT ( ( #170, #298, #224 ) ) REPRESENTATION_CONTEXT ( 'NONE', 'WORKASPACE' ) );
#8 = CIRCLE ( 'NONE', #48, 0.3749999999999999445 ) ;
#9 = FILL_AREA_STYLE_COLOUR ( '', #110 ) ;
#10 = DIMENSIONAL_EXPONENTS ( 1.000000000000000000, 0.000000000000000000, 0.000000000000000000, 0.000000000000000000, 0.000000000000000000, 0.000000000000000000, 0.000000000000000000 ) ;
#11 = CARTESIAN_POINT ( 'NONE',  ( 0.000000000000000000, 0.3749999999999999445, 0.000000000000000000 ) ) ;
#12 = VERTEX_POINT ( 'NONE', #253 ) ;
#13 =( NAMED_UNIT ( * ) SI_UNIT ( $, .STERADIAN. ) SOLID_ANGLE_UNIT ( ) );
#14 = CARTESIAN_POINT ( 'NONE',  ( -4.592425496802573602E-17, 0.3749999999999999445, 0.000000000000000000 ) ) ;
#15 =( NAMED_UNIT ( * ) PLANE_ANGLE_UNIT ( ) SI_UNIT ( $, .RADIAN. ) );
#16 = ORIENTED_EDGE ( 'NONE', *, *, #348, .F. ) ;
#17 = ADVANCED_FACE ( 'NONE', ( #53 ), #171, .T. ) ;
#18 = CARTESIAN_POINT ( 'NONE',  ( -1.224646799147352961E-16, 5.000000000000000000, 0.000000000000000000 ) ) ;
#19 = CARTESIAN_POINT ( 'NONE',  ( 4.592425496802574219E-17, 0.3749999999999999445, 0.3749999999999999445 ) ) ;
#20 = PRESENTATION_LAYER_ASSIGNMENT (  '', '', ( #162 ) ) ;
#21 = ORIENTED_EDGE ( 'NONE', *, *, #59, .F. ) ;
#22 = DIRECTION ( 'NONE',  ( 0.000000000000000000, 0.000000000000000000, -1.000000000000000000 ) ) ;
#23 = SURFACE_STYLE_USAGE ( .BOTH. , #221 ) ;
#24 = DIRECTION ( 'NONE',  ( -0.000000000000000000, -1.000000000000000000, -0.000000000000000000 ) ) ;
#25 = DIRECTION ( 'NONE',  ( 0.000000000000000000, 0.000000000000000000, -1.000000000000000000 ) ) ;
#26 = VERTEX_POINT ( 'NONE', #19 ) ;
#27 = PRESENTATION_STYLE_ASSIGNMENT (( #64 ) ) ;
#28 = AXIS2_PLACEMENT_3D ( 'NONE', #18, #273, #90 ) ;
#29 = DIRECTION ( 'NONE',  ( 1.000000000000000000, 0.000000000000000000, 0.000000000000000000 ) ) ;
#30 =( NAMED_UNIT ( * ) SI_UNIT ( $, .STERADIAN. ) SOLID_ANGLE_UNIT ( ) );
#31 = DIRECTION ( 'NONE',  ( 1.000000000000000000, 0.000000000000000000, 0.000000000000000000 ) ) ;
#32 = EDGE_CURVE ( 'NONE', #144, #230, #201, .T. ) ;
#33 = DIRECTION ( 'NONE',  ( -0.000000000000000000, -1.000000000000000000, -0.000000000000000000 ) ) ;
#34 = DIRECTION ( 'NONE',  ( -1.764989530564993616E-16, 1.000000000000000000, -0.000000000000000000 ) ) ;
#35 = SURFACE_SIDE_STYLE ('',( #373 ) ) ;
#36 = FILL_AREA_STYLE ('',( #71 ) ) ;
#37 = AXIS2_PLACEMENT_3D ( 'NONE', #346, #100, #29 ) ;
#38 = CARTESIAN_POINT ( 'NONE',  ( 0.3749999999999999445, 0.3749999999999999445, 0.000000000000000000 ) ) ;
#39 = EDGE_CURVE ( 'NONE', #244, #12, #303, .T. ) ;
#40 = AXIS2_PLACEMENT_3D ( 'NONE', #96, #344, #256 ) ;
#41 = COLOUR_RGB ( '',1.000000000000000000, 0.000000000000000000, 0.000000000000000000 ) ;
#42 = DIRECTION ( 'NONE',  ( -1.764989530564993616E-16, 1.000000000000000000, -0.000000000000000000 ) ) ;
#43 = CYLINDRICAL_SURFACE ( 'NONE', #334, 0.3749999999999996114 ) ;
#44 = UNCERTAINTY_MEASURE_WITH_UNIT (LENGTH_MEASURE( 1.000000000000000082E-05 ), #355, 'distance_accuracy_value', 'NONE');
#45 = DIRECTION ( 'NONE',  ( 1.000000000000000000, 0.000000000000000000, 0.000000000000000000 ) ) ;
#46 = AXIS2_PLACEMENT_3D ( 'NONE', #62, #33, #259 ) ;
#47 = CARTESIAN_POINT ( 'NONE',  ( -4.592425496802573602E-17, 0.3749999999999999445, 0.000000000000000000 ) ) ;
#48 = AXIS2_PLACEMENT_3D ( 'NONE', #11, #305, #196 ) ;
#49 = ORIENTED_EDGE ( 'NONE', *, *, #32, .F. ) ;
#50 = CARTESIAN_POINT ( 'NONE',  ( 2.746579644623882674E-16, 2.750000000000000000, 0.000000000000000000 ) ) ;
#51 = DIRECTION ( 'NONE',  ( -0.000000000000000000, -1.000000000000000000, -0.000000000000000000 ) ) ;
#52 = SURFACE_STYLE_FILL_AREA ( #89 ) ;
#53 = FACE_OUTER_BOUND ( 'NONE', #252, .T. ) ;
#54 = MANIFOLD_SOLID_BREP ( 'Revolve - Tool Body (Straight Shanked)', #359 ) ;
#55 = LENGTH_MEASURE_WITH_UNIT ( LENGTH_MEASURE( 0.02539999999999999897 ), #195 );
#56 = CARTESIAN_POINT ( 'NONE',  ( 0.000000000000000000, 2.750000000000000000, 0.000000000000000000 ) ) ;
#57 = COLOUR_RGB ( '',1.000000000000000000, 0.000000000000000000, 0.000000000000000000 ) ;
#58 =( GEOMETRIC_REPRESENTATION_CONTEXT ( 3 ) GLOBAL_UNCERTAINTY_ASSIGNED_CONTEXT ( ( #269 ) ) GLOBAL_UNIT_ASSIGNED_CONTEXT ( ( #314, #15, #108 ) ) REPRESENTATION_CONTEXT ( 'NONE', 'WORKASPACE' ) );
#59 = EDGE_CURVE ( 'NONE', #118, #227, #104, .T. ) ;
#60 = ORIENTED_EDGE ( 'NONE', *, *, #350, .T. ) ;
#61 = CARTESIAN_POINT ( 'NONE',  ( 0.3749999999999996669, 2.750000000000000000, 4.592425496802572370E-17 ) ) ;
#62 = CARTESIAN_POINT ( 'NONE',  ( 0.000000000000000000, 0.3749999999999999445, 0.000000000000000000 ) ) ;
#63 = DIRECTION ( 'NONE',  ( 0.000000000000000000, 1.000000000000000000, 0.000000000000000000 ) ) ;
#64 = SURFACE_STYLE_USAGE ( .BOTH. , #145 ) ;
#65 = CARTESIAN_POINT ( 'NONE',  ( 0.000000000000000000, 0.3749999999999999445, -0.3749999999999999445 ) ) ;
#66 = AXIS2_PLACEMENT_3D ( 'NONE', #84, #275, #270 ) ;
#67 = VECTOR ( 'NONE', #42, 39.37007874015748143 ) ;
#68 = CARTESIAN_POINT ( 'NONE',  ( 0.3749999999999995004, 5.000000000000000000, 4.592425496802569905E-17 ) ) ;
#69 = ADVANCED_FACE ( 'NONE', ( #157 ), #98, .F. ) ;
#70 = LENGTH_MEASURE_WITH_UNIT ( LENGTH_MEASURE( 0.02539999999999999897 ), #132 );
#71 = FILL_AREA_STYLE_COLOUR ( '', #41 ) ;
#72 = MECHANICAL_DESIGN_GEOMETRIC_PRESENTATION_REPRESENTATION (  '', ( #317 ), #7 ) ;
#73 = STYLED_ITEM ( 'NONE', ( #27 ), #54 ) ;
#74 = CIRCLE ( 'NONE', #265, 0.3749999999999999445 ) ;
#75 = ORIENTED_EDGE ( 'NONE', *, *, #59, .T. ) ;
#76 = UNCERTAINTY_MEASURE_WITH_UNIT (LENGTH_MEASURE( 1.000000000000000082E-05 ), #133, 'distance_accuracy_value', 'NONE');
#77 = LENGTH_MEASURE_WITH_UNIT ( LENGTH_MEASURE( 0.02539999999999999897 ), #291 );
#78 = EDGE_LOOP ( 'NONE', ( #203, #115 ) ) ;
#79 =( GEOMETRIC_REPRESENTATION_CONTEXT ( 3 ) GLOBAL_UNCERTAINTY_ASSIGNED_CONTEXT ( ( #114 ) ) GLOBAL_UNIT_ASSIGNED_CONTEXT ( ( #109, #179, #274 ) ) REPRESENTATION_CONTEXT ( 'NONE', 'WORKASPACE' ) );
#80 = PRESENTATION_STYLE_ASSIGNMENT (( #23 ) ) ;
#81 = PLANE ( 'NONE',  #263 ) ;
#82 = ORIENTED_EDGE ( 'NONE', *, *, #199, .F. ) ;
#83 = DIRECTION ( 'NONE',  ( -1.000000000000000000, 0.000000000000000000, 0.000000000000000000 ) ) ;
#84 = CARTESIAN_POINT ( 'NONE',  ( -1.224646799147352961E-16, 5.000000000000000000, 0.000000000000000000 ) ) ;
#85 = CARTESIAN_POINT ( 'NONE',  ( 0.000000000000000000, 0.3749999999999999445, 0.000000000000000000 ) ) ;
#86 = DIRECTION ( 'NONE',  ( -1.764989530564993616E-16, 1.000000000000000000, -0.000000000000000000 ) ) ;
#87 = MECHANICAL_DESIGN_GEOMETRIC_PRESENTATION_REPRESENTATION (  '', ( #73 ), #262 ) ;
#88 = APPLICATION_CONTEXT ( 'automotive_design' ) ;
#89 = FILL_AREA_STYLE ('',( #200 ) ) ;
#90 = DIRECTION ( 'NONE',  ( -1.000000000000000000, 0.000000000000000000, 0.000000000000000000 ) ) ;
#91 = CARTESIAN_POINT ( 'NONE',  ( 0.000000000000000000, 0.000000000000000000, 0.000000000000000000 ) ) ;
#92 = DIRECTION ( 'NONE',  ( -1.000000000000000000, 0.000000000000000000, 0.000000000000000000 ) ) ;
#93 = DIRECTION ( 'NONE',  ( -1.000000000000000000, 0.000000000000000000, 0.000000000000000000 ) ) ;
#94 = CYLINDRICAL_SURFACE ( 'NONE', #2, 0.3749999999999996114 ) ;
#95 = VECTOR ( 'NONE', #86, 39.37007874015748143 ) ;
#96 = CARTESIAN_POINT ( 'NONE',  ( 0.3749999999999996669, 5.000000000000000000, 0.000000000000000000 ) ) ;
#97 =( NAMED_UNIT ( * ) PLANE_ANGLE_UNIT ( ) SI_UNIT ( $, .RADIAN. ) );
#98 = PLANE ( 'NONE',  #40 ) ;
#99 = DIRECTION ( 'NONE',  ( -1.000000000000000000, -1.764989530564993616E-16, 0.000000000000000000 ) ) ;
#100 = DIRECTION ( 'NONE',  ( 0.000000000000000000, 0.000000000000000000, 1.000000000000000000 ) ) ;
#101 = DIMENSIONAL_EXPONENTS ( 1.000000000000000000, 0.000000000000000000, 0.000000000000000000, 0.000000000000000000, 0.000000000000000000, 0.000000000000000000, 0.000000000000000000 ) ;
#102 = LINE ( 'NONE', #306, #246 ) ;
#103 = ORIENTED_EDGE ( 'NONE', *, *, #332, .T. ) ;
#104 = CIRCLE ( 'NONE', #46, 0.3749999999999999445 ) ;
#105 =( GEOMETRIC_REPRESENTATION_CONTEXT ( 3 ) GLOBAL_UNCERTAINTY_ASSIGNED_CONTEXT ( ( #76 ) ) GLOBAL_UNIT_ASSIGNED_CONTEXT ( ( #133, #97, #160 ) ) REPRESENTATION_CONTEXT ( 'NONE', 'WORKASPACE' ) );
#106 = SURFACE_STYLE_USAGE ( .BOTH. , #217 ) ;
#107 = EDGE_CURVE ( 'NONE', #144, #26, #371, .T. ) ;
#108 =( NAMED_UNIT ( * ) SI_UNIT ( $, .STERADIAN. ) SOLID_ANGLE_UNIT ( ) );
#109 =( CONVERSION_BASED_UNIT ( 'INCH', #222 ) LENGTH_UNIT ( ) NAMED_UNIT ( #234 ) );
#110 = COLOUR_RGB ( '',0.7921568627450980005, 0.8196078431372548767, 0.9333333333333333481 ) ;
#111 = AXIS2_PLACEMENT_3D ( 'NONE', #14, #139, #208 ) ;
#112 = ORIENTED_EDGE ( 'NONE', *, *, #189, .F. ) ;
#113 = PRESENTATION_STYLE_ASSIGNMENT (( #243 ) ) ;
#114 = UNCERTAINTY_MEASURE_WITH_UNIT (LENGTH_MEASURE( 1.000000000000000082E-05 ), #109, 'distance_accuracy_value', 'NONE');
#115 = ORIENTED_EDGE ( 'NONE', *, *, #5, .T. ) ;
#116 = FACE_OUTER_BOUND ( 'NONE', #122, .T. ) ;
#117 = PRODUCT_DEFINITION_SHAPE ( 'NONE', 'NONE',  #138 ) ;
#118 = VERTEX_POINT ( 'NONE', #65 ) ;
#119 = DIRECTION ( 'NONE',  ( 0.000000000000000000, 0.000000000000000000, -1.000000000000000000 ) ) ;
#120 = CARTESIAN_POINT ( 'NONE',  ( 0.000000000000000000, 0.000000000000000000, 0.000000000000000000 ) ) ;
#121 =( GEOMETRIC_REPRESENTATION_CONTEXT ( 3 ) GLOBAL_UNCERTAINTY_ASSIGNED_CONTEXT ( ( #370 ) ) GLOBAL_UNIT_ASSIGNED_CONTEXT ( ( #239, #316, #13 ) ) REPRESENTATION_CONTEXT ( 'NONE', 'WORKASPACE' ) );
#122 = EDGE_LOOP ( 'NONE', ( #364, #49 ) ) ;
#123 = FILL_AREA_STYLE_COLOUR ( '', #211 ) ;
#124 = PRESENTATION_STYLE_ASSIGNMENT (( #4 ) ) ;
#125 = APPLICATION_PROTOCOL_DEFINITION ( 'draft international standard', 'automotive_design', 1998, #285 ) ;
#126 = DIRECTION ( 'NONE',  ( -0.000000000000000000, -1.000000000000000000, -0.000000000000000000 ) ) ;
#127 =( NAMED_UNIT ( * ) PLANE_ANGLE_UNIT ( ) SI_UNIT ( $, .RADIAN. ) );
#128 = CARTESIAN_POINT ( 'NONE',  ( 4.592425496802572370E-17, 0.000000000000000000, 0.3749999999999998335 ) ) ;
#129 = EDGE_CURVE ( 'NONE', #227, #188, #299, .T. ) ;
#130 = CIRCLE ( 'NONE', #111, 0.3749999999999999445 ) ;
#131 = LENGTH_MEASURE_WITH_UNIT ( LENGTH_MEASURE( 0.02539999999999999897 ), #308 );
#132 =( LENGTH_UNIT ( ) NAMED_UNIT ( * ) SI_UNIT ( $, .METRE. ) );
#133 =( CONVERSION_BASED_UNIT ( 'INCH', #158 ) LENGTH_UNIT ( ) NAMED_UNIT ( #213 ) );
#134 = CIRCLE ( 'NONE', #66, 0.3749999999999998335 ) ;
#135 = AXIS2_PLACEMENT_3D ( 'NONE', #50, #267, #83 ) ;
#136 = PRESENTATION_LAYER_ASSIGNMENT (  '', '', ( #146 ) ) ;
#137 = DIRECTION ( 'NONE',  ( 0.000000000000000000, 0.000000000000000000, 1.000000000000000000 ) ) ;
#138 = PRODUCT_DEFINITION ( 'UNKNOWN', '', #352, #232 ) ;
#139 = DIRECTION ( 'NONE',  ( 1.224646799147353207E-16, -0.000000000000000000, 1.000000000000000000 ) ) ;
#140 = ORIENTED_EDGE ( 'NONE', *, *, #32, .T. ) ;
#141 = DIRECTION ( 'NONE',  ( -0.000000000000000000, -1.000000000000000000, -0.000000000000000000 ) ) ;
#142 = FILL_AREA_STYLE ('',( #329 ) ) ;
#143 = UNCERTAINTY_MEASURE_WITH_UNIT (LENGTH_MEASURE( 1.000000000000000082E-05 ), #231, 'distance_accuracy_value', 'NONE');
#144 = VERTEX_POINT ( 'NONE', #205 ) ;
#145 = SURFACE_SIDE_STYLE ('',( #176 ) ) ;
#146 = STYLED_ITEM ( 'NONE', ( #164 ), #180 ) ;
#147 = AXIS2_PLACEMENT_3D ( 'NONE', #236, #210, #99 ) ;
#148 = ORIENTED_EDGE ( 'NONE', *, *, #319, .F. ) ;
#149 = CYLINDRICAL_SURFACE ( 'NONE', #333, 0.3749999999999998335 ) ;
#150 = ORIENTED_EDGE ( 'NONE', *, *, #338, .F. ) ;
#151 = UNCERTAINTY_MEASURE_WITH_UNIT (LENGTH_MEASURE( 1.000000000000000082E-05 ), #170, 'distance_accuracy_value', 'NONE');
#152 = COLOUR_RGB ( '',1.000000000000000000, 0.000000000000000000, 0.000000000000000000 ) ;
#153 = PRODUCT_CONTEXT ( 'NONE', #88, 'mechanical' ) ;
#154 =( LENGTH_UNIT ( ) NAMED_UNIT ( * ) SI_UNIT ( $, .METRE. ) );
#155 = DIMENSIONAL_EXPONENTS ( 1.000000000000000000, 0.000000000000000000, 0.000000000000000000, 0.000000000000000000, 0.000000000000000000, 0.000000000000000000, 0.000000000000000000 ) ;
#156 = CARTESIAN_POINT ( 'NONE',  ( -4.592425496802573602E-17, 0.3749999999999999445, 0.000000000000000000 ) ) ;
#157 = FACE_OUTER_BOUND ( 'NONE', #78, .T. ) ;
#158 = LENGTH_MEASURE_WITH_UNIT ( LENGTH_MEASURE( 0.02539999999999999897 ), #154 );
#159 = CLOSED_SHELL ( 'NONE', ( #251, #17, #320, #6, #165 ) ) ;
#160 =( NAMED_UNIT ( * ) SI_UNIT ( $, .STERADIAN. ) SOLID_ANGLE_UNIT ( ) );
#161 = CARTESIAN_POINT ( 'NONE',  ( 2.746579644623882674E-16, 2.750000000000000000, 0.000000000000000000 ) ) ;
#162 = STYLED_ITEM ( 'NONE', ( #250 ), #17 ) ;
#163 = STYLED_ITEM ( 'NONE', ( #113 ), #320 ) ;
#164 = PRESENTATION_STYLE_ASSIGNMENT (( #106 ) ) ;
#165 = ADVANCED_FACE ( 'NONE', ( #235 ), #241, .T. ) ;
#166 = DIRECTION ( 'NONE',  ( -1.000000000000000000, 0.000000000000000000, 0.000000000000000000 ) ) ;
#167 = ORIENTED_EDGE ( 'NONE', *, *, #39, .T. ) ;
#168 = CARTESIAN_POINT ( 'NONE',  ( 0.000000000000000000, 2.750000000000000000, 0.000000000000000000 ) ) ;
#169 = ADVANCED_FACE ( 'NONE', ( #307 ), #43, .T. ) ;
#170 =( CONVERSION_BASED_UNIT ( 'INCH', #55 ) LENGTH_UNIT ( ) NAMED_UNIT ( #212 ) );
#171 = CYLINDRICAL_SURFACE ( 'NONE', #351, 0.3749999999999998335 ) ;
#172 = ORIENTED_EDGE ( 'NONE', *, *, #107, .T. ) ;
#173 = DIRECTION ( 'NONE',  ( -0.000000000000000000, -1.000000000000000000, -0.000000000000000000 ) ) ;
#174 = STYLED_ITEM ( 'NONE', ( #124 ), #251 ) ;
#175 = ORIENTED_EDGE ( 'NONE', *, *, #343, .F. ) ;
#176 = SURFACE_STYLE_FILL_AREA ( #204 ) ;
#177 = CARTESIAN_POINT ( 'NONE',  ( -2.296212748401286801E-17, 0.000000000000000000, 0.000000000000000000 ) ) ;
#178 = ORIENTED_EDGE ( 'NONE', *, *, #189, .T. ) ;
#179 =( NAMED_UNIT ( * ) PLANE_ANGLE_UNIT ( ) SI_UNIT ( $, .RADIAN. ) );
#180 = MANIFOLD_SOLID_BREP ( 'Revolve - Cutting Edge', #159 ) ;
#181 = DIRECTION ( 'NONE',  ( -0.000000000000000000, -1.000000000000000000, -0.000000000000000000 ) ) ;
#182 = SPHERICAL_SURFACE ( 'NONE', #229, 0.3749999999999999445 ) ;
#183 = CIRCLE ( 'NONE', #240, 0.3749999999999996669 ) ;
#184 = CARTESIAN_POINT ( 'NONE',  ( -1.224646799147353207E-16, 5.000000000000000000, 0.000000000000000000 ) ) ;
#185 = PLANE ( 'NONE',  #147 ) ;
#186 = CARTESIAN_POINT ( 'NONE',  ( -0.3749999999999991673, 2.750000000000000000, 0.000000000000000000 ) ) ;
#187 = MECHANICAL_DESIGN_GEOMETRIC_PRESENTATION_REPRESENTATION (  '', ( #174 ), #105 ) ;
#188 = VERTEX_POINT ( 'NONE', #177 ) ;
#189 = EDGE_CURVE ( 'NONE', #230, #118, #102, .T. ) ;
#190 = CARTESIAN_POINT ( 'NONE',  ( -1.224646799147353207E-16, 5.000000000000000000, 0.000000000000000000 ) ) ;
#191 = ORIENTED_EDGE ( 'NONE', *, *, #289, .F. ) ;
#192 = COLOUR_RGB ( '',1.000000000000000000, 0.000000000000000000, 0.000000000000000000 ) ;
#193 = FACE_OUTER_BOUND ( 'NONE', #323, .T. ) ;
#194 = SURFACE_STYLE_USAGE ( .BOTH. , #198 ) ;
#195 =( LENGTH_UNIT ( ) NAMED_UNIT ( * ) SI_UNIT ( $, .METRE. ) );
#196 = DIRECTION ( 'NONE',  ( 0.000000000000000000, 0.000000000000000000, -1.000000000000000000 ) ) ;
#197 = ORIENTED_EDGE ( 'NONE', *, *, #107, .F. ) ;
#198 = SURFACE_SIDE_STYLE ('',( #358 ) ) ;
#199 = EDGE_CURVE ( 'NONE', #330, #244, #290, .T. ) ;
#200 = FILL_AREA_STYLE_COLOUR ( '', #57 ) ;
#201 = CIRCLE ( 'NONE', #237, 0.3749999999999996669 ) ;
#202 = ADVANCED_FACE ( 'NONE', ( #309 ), #185, .F. ) ;
#203 = ORIENTED_EDGE ( 'NONE', *, *, #348, .T. ) ;
#204 = FILL_AREA_STYLE ('',( #123 ) ) ;
#205 = CARTESIAN_POINT ( 'NONE',  ( 4.592425496802571754E-17, 2.750000000000000000, 0.3749999999999996669 ) ) ;
#206 = MECHANICAL_DESIGN_GEOMETRIC_PRESENTATION_REPRESENTATION (  '', ( #162 ), #79 ) ;
#207 =( GEOMETRIC_REPRESENTATION_CONTEXT ( 3 ) GLOBAL_UNCERTAINTY_ASSIGNED_CONTEXT ( ( #143 ) ) GLOBAL_UNIT_ASSIGNED_CONTEXT ( ( #231, #127, #279 ) ) REPRESENTATION_CONTEXT ( 'NONE', 'WORKASPACE' ) );
#208 = DIRECTION ( 'NONE',  ( 1.000000000000000000, 0.000000000000000000, -1.224646799147353207E-16 ) ) ;
#209 = FILL_AREA_STYLE ('',( #257 ) ) ;
#210 = DIRECTION ( 'NONE',  ( -1.764989530564993616E-16, 1.000000000000000000, 0.000000000000000000 ) ) ;
#211 = COLOUR_RGB ( '',0.7921568627450980005, 0.8196078431372548767, 0.9333333333333333481 ) ;
#212 = DIMENSIONAL_EXPONENTS ( 1.000000000000000000, 0.000000000000000000, 0.000000000000000000, 0.000000000000000000, 0.000000000000000000, 0.000000000000000000, 0.000000000000000000 ) ;
#213 = DIMENSIONAL_EXPONENTS ( 1.000000000000000000, 0.000000000000000000, 0.000000000000000000, 0.000000000000000000, 0.000000000000000000, 0.000000000000000000, 0.000000000000000000 ) ;
#214 = ORIENTED_EDGE ( 'NONE', *, *, #5, .F. ) ;
#215 = PRESENTATION_LAYER_ASSIGNMENT (  '', '', ( #163 ) ) ;
#216 = ORIENTED_EDGE ( 'NONE', *, *, #343, .T. ) ;
#217 = SURFACE_SIDE_STYLE ('',( #315 ) ) ;
#218 =( LENGTH_UNIT ( ) NAMED_UNIT ( * ) SI_UNIT ( $, .METRE. ) );
#219 = AXIS2_PLACEMENT_3D ( 'NONE', #156, #310, #92 ) ;
#220 = PRODUCT_RELATED_PRODUCT_CATEGORY ( 'part', '', ( #345 ) ) ;
#221 = SURFACE_SIDE_STYLE ('',( #52 ) ) ;
#222 = LENGTH_MEASURE_WITH_UNIT ( LENGTH_MEASURE( 0.02539999999999999897 ), #226 );
#223 = EDGE_LOOP ( 'NONE', ( #272, #336, #16, #353 ) ) ;
#224 =( NAMED_UNIT ( * ) SI_UNIT ( $, .STERADIAN. ) SOLID_ANGLE_UNIT ( ) );
#225 = EDGE_LOOP ( 'NONE', ( #191, #268, #167, #214 ) ) ;
#226 =( LENGTH_UNIT ( ) NAMED_UNIT ( * ) SI_UNIT ( $, .METRE. ) );
#227 = VERTEX_POINT ( 'NONE', #38 ) ;
#228 = DIRECTION ( 'NONE',  ( 0.000000000000000000, 0.000000000000000000, -1.000000000000000000 ) ) ;
#229 = AXIS2_PLACEMENT_3D ( 'NONE', #283, #311, #31 ) ;
#230 = VERTEX_POINT ( 'NONE', #286 ) ;
#231 =( CONVERSION_BASED_UNIT ( 'INCH', #70 ) LENGTH_UNIT ( ) NAMED_UNIT ( #101 ) );
#232 = PRODUCT_DEFINITION_CONTEXT ( 'detailed design', #285, 'design' ) ;
#233 = SURFACE_STYLE_USAGE ( .BOTH. , #35 ) ;
#234 = DIMENSIONAL_EXPONENTS ( 1.000000000000000000, 0.000000000000000000, 0.000000000000000000, 0.000000000000000000, 0.000000000000000000, 0.000000000000000000, 0.000000000000000000 ) ;
#235 = FACE_OUTER_BOUND ( 'NONE', #296, .T. ) ;
#236 = CARTESIAN_POINT ( 'NONE',  ( 2.746579644623882181E-16, 2.750000000000000000, 0.000000000000000000 ) ) ;
#237 = AXIS2_PLACEMENT_3D ( 'NONE', #56, #51, #22 ) ;
#238 = COLOUR_RGB ( '',1.000000000000000000, 0.000000000000000000, 0.000000000000000000 ) ;
#239 =( CONVERSION_BASED_UNIT ( 'INCH', #131 ) LENGTH_UNIT ( ) NAMED_UNIT ( #288 ) );
#240 = AXIS2_PLACEMENT_3D ( 'NONE', #247, #24, #228 ) ;
#241 = SPHERICAL_SURFACE ( 'NONE', #313, 0.3749999999999999445 ) ;
#242 = PRESENTATION_LAYER_ASSIGNMENT (  '', '', ( #73 ) ) ;
#243 = SURFACE_STYLE_USAGE ( .BOTH. , #302 ) ;
#244 = VERTEX_POINT ( 'NONE', #186 ) ;
#245 = VECTOR ( 'NONE', #181, 39.37007874015748143 ) ;
#246 = VECTOR ( 'NONE', #126, 39.37007874015748143 ) ;
#247 = CARTESIAN_POINT ( 'NONE',  ( 0.000000000000000000, 2.750000000000000000, 0.000000000000000000 ) ) ;
#248 =( CONVERSION_BASED_UNIT ( 'INCH', #325 ) LENGTH_UNIT ( ) NAMED_UNIT ( #155 ) );
#249 = VERTEX_POINT ( 'NONE', #312 ) ;
#250 = PRESENTATION_STYLE_ASSIGNMENT (( #194 ) ) ;
#251 = ADVANCED_FACE ( 'NONE', ( #340 ), #182, .T. ) ;
#252 = EDGE_LOOP ( 'NONE', ( #103, #172, #175, #21, #112 ) ) ;
#253 = CARTESIAN_POINT ( 'NONE',  ( -0.3749999999999999445, 5.000000000000000000, 0.000000000000000000 ) ) ;
#254 = EDGE_LOOP ( 'NONE', ( #150, #82 ) ) ;
#255 =( LENGTH_UNIT ( ) NAMED_UNIT ( * ) SI_UNIT ( $, .METRE. ) );
#256 = DIRECTION ( 'NONE',  ( 1.000000000000000000, 1.764989530564993616E-16, 0.000000000000000000 ) ) ;
#257 = FILL_AREA_STYLE_COLOUR ( '', #152 ) ;
#258 = DIRECTION ( 'NONE',  ( -1.000000000000000000, 0.000000000000000000, 0.000000000000000000 ) ) ;
#259 = DIRECTION ( 'NONE',  ( 0.000000000000000000, 0.000000000000000000, -1.000000000000000000 ) ) ;
#260 = ADVANCED_FACE ( 'NONE', ( #372 ), #94, .T. ) ;
#261 = DIMENSIONAL_EXPONENTS ( 1.000000000000000000, 0.000000000000000000, 0.000000000000000000, 0.000000000000000000, 0.000000000000000000, 0.000000000000000000, 0.000000000000000000 ) ;
#262 =( GEOMETRIC_REPRESENTATION_CONTEXT ( 3 ) GLOBAL_UNCERTAINTY_ASSIGNED_CONTEXT ( ( #321 ) ) GLOBAL_UNIT_ASSIGNED_CONTEXT ( ( #248, #295, #30 ) ) REPRESENTATION_CONTEXT ( 'NONE', 'WORKASPACE' ) );
#263 = AXIS2_PLACEMENT_3D ( 'NONE', #168, #63, #362 ) ;
#264 = SURFACE_STYLE_FILL_AREA ( #36 ) ;
#265 = AXIS2_PLACEMENT_3D ( 'NONE', #85, #141, #119 ) ;
#266 = MECHANICAL_DESIGN_GEOMETRIC_PRESENTATION_REPRESENTATION (  '', ( #163 ), #282 ) ;
#267 = DIRECTION ( 'NONE',  ( -1.764989530564993616E-16, 1.000000000000000000, -0.000000000000000000 ) ) ;
#268 = ORIENTED_EDGE ( 'NONE', *, *, #199, .T. ) ;
#269 = UNCERTAINTY_MEASURE_WITH_UNIT (LENGTH_MEASURE( 1.000000000000000082E-05 ), #314, 'distance_accuracy_value', 'NONE');
#270 = DIRECTION ( 'NONE',  ( -1.000000000000000000, 0.000000000000000000, 0.000000000000000000 ) ) ;
#271 = CIRCLE ( 'NONE', #135, 0.3749999999999993894 ) ;
#272 = ORIENTED_EDGE ( 'NONE', *, *, #338, .T. ) ;
#273 = DIRECTION ( 'NONE',  ( -1.764989530564993616E-16, 1.000000000000000000, -0.000000000000000000 ) ) ;
#274 =( NAMED_UNIT ( * ) SI_UNIT ( $, .STERADIAN. ) SOLID_ANGLE_UNIT ( ) );
#275 = DIRECTION ( 'NONE',  ( -1.764989530564993616E-16, 1.000000000000000000, -0.000000000000000000 ) ) ;
#276 = FILL_AREA_STYLE ('',( #337 ) ) ;
#277 = ORIENTED_EDGE ( 'NONE', *, *, #129, .F. ) ;
#278 = ADVANCED_BREP_SHAPE_REPRESENTATION ( '82468', ( #180, #54, #37 ), #207 ) ;
#279 =( NAMED_UNIT ( * ) SI_UNIT ( $, .STERADIAN. ) SOLID_ANGLE_UNIT ( ) );
#280 = APPLICATION_PROTOCOL_DEFINITION ( 'draft international standard', 'automotive_design', 1998, #88 ) ;
#281 = PRESENTATION_STYLE_ASSIGNMENT (( #233 ) ) ;
#282 =( GEOMETRIC_REPRESENTATION_CONTEXT ( 3 ) GLOBAL_UNCERTAINTY_ASSIGNED_CONTEXT ( ( #44 ) ) GLOBAL_UNIT_ASSIGNED_CONTEXT ( ( #355, #324, #328 ) ) REPRESENTATION_CONTEXT ( 'NONE', 'WORKASPACE' ) );
#283 = CARTESIAN_POINT ( 'NONE',  ( -4.592425496802573602E-17, 0.3749999999999999445, 0.000000000000000000 ) ) ;
#284 = DIRECTION ( 'NONE',  ( -1.764989530564993616E-16, 1.000000000000000000, -0.000000000000000000 ) ) ;
#285 = APPLICATION_CONTEXT ( 'automotive_design' ) ;
#286 = CARTESIAN_POINT ( 'NONE',  ( 0.000000000000000000, 2.750000000000000000, -0.3749999999999996669 ) ) ;
#287 = MECHANICAL_DESIGN_GEOMETRIC_PRESENTATION_REPRESENTATION (  '', ( #292 ), #121 ) ;
#288 = DIMENSIONAL_EXPONENTS ( 1.000000000000000000, 0.000000000000000000, 0.000000000000000000, 0.000000000000000000, 0.000000000000000000, 0.000000000000000000, 0.000000000000000000 ) ;
#289 = EDGE_CURVE ( 'NONE', #330, #249, #1, .T. ) ;
#290 = CIRCLE ( 'NONE', #318, 0.3749999999999993894 ) ;
#291 =( LENGTH_UNIT ( ) NAMED_UNIT ( * ) SI_UNIT ( $, .METRE. ) );
#292 = STYLED_ITEM ( 'NONE', ( #281 ), #165 ) ;
#293 = ORIENTED_EDGE ( 'NONE', *, *, #129, .T. ) ;
#294 = LENGTH_MEASURE_WITH_UNIT ( LENGTH_MEASURE( 0.02539999999999999897 ), #218 );
#295 =( NAMED_UNIT ( * ) PLANE_ANGLE_UNIT ( ) SI_UNIT ( $, .RADIAN. ) );
#296 = EDGE_LOOP ( 'NONE', ( #366, #327, #75, #293 ) ) ;
#297 = CARTESIAN_POINT ( 'NONE',  ( 0.000000000000000000, 0.3749999999999999445, 0.000000000000000000 ) ) ;
#298 =( NAMED_UNIT ( * ) PLANE_ANGLE_UNIT ( ) SI_UNIT ( $, .RADIAN. ) );
#299 = CIRCLE ( 'NONE', #219, 0.3749999999999999445 ) ;
#300 = AXIS2_PLACEMENT_3D ( 'NONE', #297, #173, #357 ) ;
#301 = EDGE_LOOP ( 'NONE', ( #361, #60, #277, #216 ) ) ;
#302 = SURFACE_SIDE_STYLE ('',( #367 ) ) ;
#303 = LINE ( 'NONE', #331, #95 ) ;
#304 = ORIENTED_EDGE ( 'NONE', *, *, #326, .F. ) ;
#305 = DIRECTION ( 'NONE',  ( -0.000000000000000000, -1.000000000000000000, -0.000000000000000000 ) ) ;
#306 = CARTESIAN_POINT ( 'NONE',  ( 0.000000000000000000, 0.000000000000000000, -0.3749999999999998335 ) ) ;
#307 = FACE_OUTER_BOUND ( 'NONE', #225, .T. ) ;
#308 =( LENGTH_UNIT ( ) NAMED_UNIT ( * ) SI_UNIT ( $, .METRE. ) );
#309 = FACE_OUTER_BOUND ( 'NONE', #254, .T. ) ;
#310 = DIRECTION ( 'NONE',  ( 0.000000000000000000, 0.000000000000000000, -1.000000000000000000 ) ) ;
#311 = DIRECTION ( 'NONE',  ( 0.000000000000000000, 0.000000000000000000, 1.000000000000000000 ) ) ;
#312 = CARTESIAN_POINT ( 'NONE',  ( 0.3749999999999996669, 5.000000000000000000, 4.592425496802572370E-17 ) ) ;
#313 = AXIS2_PLACEMENT_3D ( 'NONE', #47, #137, #45 ) ;
#314 =( CONVERSION_BASED_UNIT ( 'INCH', #77 ) LENGTH_UNIT ( ) NAMED_UNIT ( #10 ) );
#315 = SURFACE_STYLE_FILL_AREA ( #349 ) ;
#316 =( NAMED_UNIT ( * ) PLANE_ANGLE_UNIT ( ) SI_UNIT ( $, .RADIAN. ) );
#317 = STYLED_ITEM ( 'NONE', ( #80 ), #6 ) ;
#318 = AXIS2_PLACEMENT_3D ( 'NONE', #161, #34, #93 ) ;
#319 = EDGE_CURVE ( 'NONE', #26, #356, #8, .T. ) ;
#320 = ADVANCED_FACE ( 'NONE', ( #116 ), #81, .T. ) ;
#321 = UNCERTAINTY_MEASURE_WITH_UNIT (LENGTH_MEASURE( 1.000000000000000082E-05 ), #248, 'distance_accuracy_value', 'NONE');
#322 = PRESENTATION_LAYER_ASSIGNMENT (  '', '', ( #317 ) ) ;
#323 = EDGE_LOOP ( 'NONE', ( #197, #140, #178, #304, #148 ) ) ;
#324 =( NAMED_UNIT ( * ) PLANE_ANGLE_UNIT ( ) SI_UNIT ( $, .RADIAN. ) );
#325 = LENGTH_MEASURE_WITH_UNIT ( LENGTH_MEASURE( 0.02539999999999999897 ), #255 );
#326 = EDGE_CURVE ( 'NONE', #356, #118, #74, .T. ) ;
#327 = ORIENTED_EDGE ( 'NONE', *, *, #326, .T. ) ;
#328 =( NAMED_UNIT ( * ) SI_UNIT ( $, .STERADIAN. ) SOLID_ANGLE_UNIT ( ) );
#329 = FILL_AREA_STYLE_COLOUR ( '', #192 ) ;
#330 = VERTEX_POINT ( 'NONE', #61 ) ;
#331 = CARTESIAN_POINT ( 'NONE',  ( -0.3749999999999997780, 5.000000000000000000, 0.000000000000000000 ) ) ;
#332 = EDGE_CURVE ( 'NONE', #230, #144, #183, .T. ) ;
#333 = AXIS2_PLACEMENT_3D ( 'NONE', #120, #369, #363 ) ;
#334 = AXIS2_PLACEMENT_3D ( 'NONE', #190, #354, #166 ) ;
#335 = CIRCLE ( 'NONE', #300, 0.3749999999999999445 ) ;
#336 = ORIENTED_EDGE ( 'NONE', *, *, #289, .T. ) ;
#337 = FILL_AREA_STYLE_COLOUR ( '', #238 ) ;
#338 = EDGE_CURVE ( 'NONE', #244, #330, #271, .T. ) ;
#339 = SHAPE_DEFINITION_REPRESENTATION ( #117, #278 ) ;
#340 = FACE_OUTER_BOUND ( 'NONE', #301, .T. ) ;
#341 = PRESENTATION_LAYER_ASSIGNMENT (  '', '', ( #174 ) ) ;
#342 = SURFACE_SIDE_STYLE ('',( #264 ) ) ;
#343 = EDGE_CURVE ( 'NONE', #227, #26, #335, .T. ) ;
#344 = DIRECTION ( 'NONE',  ( 1.764989530564993616E-16, -1.000000000000000000, 0.000000000000000000 ) ) ;
#345 = PRODUCT ( '82468', '82468', '', ( #153 ) ) ;
#346 = CARTESIAN_POINT ( 'NONE',  ( 0.000000000000000000, 0.000000000000000000, 0.000000000000000000 ) ) ;
#347 = PRESENTATION_LAYER_ASSIGNMENT (  '', '', ( #292 ) ) ;
#348 = EDGE_CURVE ( 'NONE', #12, #249, #360, .T. ) ;
#349 = FILL_AREA_STYLE ('',( #9 ) ) ;
#350 = EDGE_CURVE ( 'NONE', #356, #188, #130, .T. ) ;
#351 = AXIS2_PLACEMENT_3D ( 'NONE', #91, #365, #25 ) ;
#352 = PRODUCT_DEFINITION_FORMATION_WITH_SPECIFIED_SOURCE ( 'ANY', '', #345, .NOT_KNOWN. ) ;
#353 = ORIENTED_EDGE ( 'NONE', *, *, #39, .F. ) ;
#354 = DIRECTION ( 'NONE',  ( -1.764989530564993616E-16, 1.000000000000000000, -0.000000000000000000 ) ) ;
#355 =( CONVERSION_BASED_UNIT ( 'INCH', #294 ) LENGTH_UNIT ( ) NAMED_UNIT ( #261 ) );
#356 = VERTEX_POINT ( 'NONE', #3 ) ;
#357 = DIRECTION ( 'NONE',  ( 0.000000000000000000, 0.000000000000000000, -1.000000000000000000 ) ) ;
#358 = SURFACE_STYLE_FILL_AREA ( #142 ) ;
#359 = CLOSED_SHELL ( 'NONE', ( #260, #202, #169, #69 ) ) ;
#360 = CIRCLE ( 'NONE', #28, 0.3749999999999998335 ) ;
#361 = ORIENTED_EDGE ( 'NONE', *, *, #319, .T. ) ;
#362 = DIRECTION ( 'NONE',  ( 0.000000000000000000, -0.000000000000000000, 1.000000000000000000 ) ) ;
#363 = DIRECTION ( 'NONE',  ( 0.000000000000000000, 0.000000000000000000, -1.000000000000000000 ) ) ;
#364 = ORIENTED_EDGE ( 'NONE', *, *, #332, .F. ) ;
#365 = DIRECTION ( 'NONE',  ( -0.000000000000000000, -1.000000000000000000, -0.000000000000000000 ) ) ;
#366 = ORIENTED_EDGE ( 'NONE', *, *, #350, .F. ) ;
#367 = SURFACE_STYLE_FILL_AREA ( #276 ) ;
#368 = MECHANICAL_DESIGN_GEOMETRIC_PRESENTATION_REPRESENTATION (  '', ( #146 ), #58 ) ;
#369 = DIRECTION ( 'NONE',  ( -0.000000000000000000, -1.000000000000000000, -0.000000000000000000 ) ) ;
#370 = UNCERTAINTY_MEASURE_WITH_UNIT (LENGTH_MEASURE( 1.000000000000000082E-05 ), #239, 'distance_accuracy_value', 'NONE');
#371 = LINE ( 'NONE', #128, #245 ) ;
#372 = FACE_OUTER_BOUND ( 'NONE', #223, .T. ) ;
#373 = SURFACE_STYLE_FILL_AREA ( #209 ) ;
ENDSEC;
END-ISO-10303-21;
