ISO-10303-21;
HEADER;
FILE_DESCRIPTION (( 'STEP AP214' ),
    '1' );
FILE_NAME ('23050.STEP',
    '2023-06-22T16:30:28',
    ( '' ),
    ( '' ),
    'SwSTEP 2.0',
    'SolidWorks 2023',
    '' );
FILE_SCHEMA (( 'AUTOMOTIVE_DESIGN' ));
ENDSEC;

DATA;
#1 = STYLED_ITEM ( 'NONE', ( #60 ), #278 ) ;
#2 = ADVANCED_FACE ( 'NONE', ( #167 ), #239, .T. ) ;
#3 = FILL_AREA_STYLE_COLOUR ( '', #97 ) ;
#4 = ORIENTED_EDGE ( 'NONE', *, *, #20, .T. ) ;
#5 = FILL_AREA_STYLE_COLOUR ( '', #207 ) ;
#6 = PLANE ( 'NONE',  #198 ) ;
#7 = DIRECTION ( 'NONE',  ( 1.000000000000000000, 3.160378836509298460E-17, 0.000000000000000000 ) ) ;
#8 = CARTESIAN_POINT ( 'NONE',  ( 0.000000000000000000, 0.000000000000000000, -0.09374999999999998612 ) ) ;
#9 = CARTESIAN_POINT ( 'NONE',  ( -6.123233995736766036E-17, 2.500000000000000000, 0.000000000000000000 ) ) ;
#10 = CIRCLE ( 'NONE', #252, 0.09375000000000001388 ) ;
#11 =( GEOMETRIC_REPRESENTATION_CONTEXT ( 3 ) GLOBAL_UNCERTAINTY_ASSIGNED_CONTEXT ( ( #48 ) ) GLOBAL_UNIT_ASSIGNED_CONTEXT ( ( #70, #160, #118 ) ) REPRESENTATION_CONTEXT ( 'NONE', 'WORKASPACE' ) );
#12 = SHAPE_DEFINITION_REPRESENTATION ( #306, #299 ) ;
#13 = FILL_AREA_STYLE ('',( #66 ) ) ;
#14 = CARTESIAN_POINT ( 'NONE',  ( 1.148106374200643555E-17, 0.000000000000000000, 0.09375000000000001388 ) ) ;
#15 = STYLED_ITEM ( 'NONE', ( #248 ), #114 ) ;
#16 = MECHANICAL_DESIGN_GEOMETRIC_PRESENTATION_REPRESENTATION (  '', ( #227 ), #191 ) ;
#17 = EDGE_CURVE ( 'NONE', #255, #47, #300, .T. ) ;
#18 = FACE_OUTER_BOUND ( 'NONE', #195, .T. ) ;
#19 = CLOSED_SHELL ( 'NONE', ( #145, #114, #247, #301 ) ) ;
#20 = EDGE_CURVE ( 'NONE', #214, #262, #74, .T. ) ;
#21 = DIRECTION ( 'NONE',  ( 0.000000000000000000, 0.000000000000000000, -1.000000000000000000 ) ) ;
#22 = MECHANICAL_DESIGN_GEOMETRIC_PRESENTATION_REPRESENTATION (  '', ( #15 ), #204 ) ;
#23 = SURFACE_STYLE_USAGE ( .BOTH. , #186 ) ;
#24 = ORIENTED_EDGE ( 'NONE', *, *, #292, .F. ) ;
#25 = ORIENTED_EDGE ( 'NONE', *, *, #165, .T. ) ;
#26 = SURFACE_STYLE_FILL_AREA ( #85 ) ;
#27 = DIRECTION ( 'NONE',  ( -0.000000000000000000, -1.000000000000000000, -0.000000000000000000 ) ) ;
#28 = VERTEX_POINT ( 'NONE', #237 ) ;
#29 =( NAMED_UNIT ( * ) PLANE_ANGLE_UNIT ( ) SI_UNIT ( $, .RADIAN. ) );
#30 = STYLED_ITEM ( 'NONE', ( #242 ), #145 ) ;
#31 = UNCERTAINTY_MEASURE_WITH_UNIT (LENGTH_MEASURE( 1.000000000000000082E-05 ), #93, 'distance_accuracy_value', 'NONE');
#32 =( CONVERSION_BASED_UNIT ( 'INCH', #221 ) LENGTH_UNIT ( ) NAMED_UNIT ( #250 ) );
#33 = PLANE ( 'NONE',  #57 ) ;
#34 = PRODUCT_CONTEXT ( 'NONE', #218, 'mechanical' ) ;
#35 = DIRECTION ( 'NONE',  ( -3.160378836509298460E-17, 1.000000000000000000, -0.000000000000000000 ) ) ;
#36 = CARTESIAN_POINT ( 'NONE',  ( -6.123233995736766036E-17, 2.500000000000000000, 0.000000000000000000 ) ) ;
#37 = DIRECTION ( 'NONE',  ( -0.000000000000000000, -1.000000000000000000, -0.000000000000000000 ) ) ;
#38 = PRESENTATION_LAYER_ASSIGNMENT (  '', '', ( #15 ) ) ;
#39 = FACE_OUTER_BOUND ( 'NONE', #162, .T. ) ;
#40 = DIRECTION ( 'NONE',  ( -1.000000000000000000, 0.000000000000000000, 0.000000000000000000 ) ) ;
#41 = PRODUCT_DEFINITION ( 'UNKNOWN', '', #258, #277 ) ;
#42 = CIRCLE ( 'NONE', #87, 0.09374999999999998612 ) ;
#43 = DIRECTION ( 'NONE',  ( -3.160378836509298460E-17, 1.000000000000000000, -0.000000000000000000 ) ) ;
#44 = DIMENSIONAL_EXPONENTS ( 1.000000000000000000, 0.000000000000000000, 0.000000000000000000, 0.000000000000000000, 0.000000000000000000, 0.000000000000000000, 0.000000000000000000 ) ;
#45 = DIRECTION ( 'NONE',  ( -1.000000000000000000, 0.000000000000000000, 0.000000000000000000 ) ) ;
#46 = AXIS2_PLACEMENT_3D ( 'NONE', #78, #280, #283 ) ;
#47 = VERTEX_POINT ( 'NONE', #259 ) ;
#48 = UNCERTAINTY_MEASURE_WITH_UNIT (LENGTH_MEASURE( 1.000000000000000082E-05 ), #70, 'distance_accuracy_value', 'NONE');
#49 = ADVANCED_FACE ( 'NONE', ( #216 ), #33, .F. ) ;
#50 = DIMENSIONAL_EXPONENTS ( 1.000000000000000000, 0.000000000000000000, 0.000000000000000000, 0.000000000000000000, 0.000000000000000000, 0.000000000000000000, 0.000000000000000000 ) ;
#51 = CARTESIAN_POINT ( 'NONE',  ( 0.000000000000000000, 0.000000000000000000, 0.000000000000000000 ) ) ;
#52 = AXIS2_PLACEMENT_3D ( 'NONE', #9, #35, #101 ) ;
#53 = LINE ( 'NONE', #142, #154 ) ;
#54 = ADVANCED_FACE ( 'NONE', ( #107 ), #196, .F. ) ;
#55 = EDGE_LOOP ( 'NONE', ( #117, #220, #234, #76 ) ) ;
#56 = ORIENTED_EDGE ( 'NONE', *, *, #188, .T. ) ;
#57 = AXIS2_PLACEMENT_3D ( 'NONE', #126, #125, #7 ) ;
#58 =( NAMED_UNIT ( * ) SI_UNIT ( $, .STERADIAN. ) SOLID_ANGLE_UNIT ( ) );
#59 = EDGE_LOOP ( 'NONE', ( #94, #99, #146, #24 ) ) ;
#60 = PRESENTATION_STYLE_ASSIGNMENT (( #240 ) ) ;
#61 = CARTESIAN_POINT ( 'NONE',  ( 0.000000000000000000, 0.5625000000000000000, 0.000000000000000000 ) ) ;
#62 = FILL_AREA_STYLE ('',( #5 ) ) ;
#63 = CYLINDRICAL_SURFACE ( 'NONE', #231, 0.09374999999999998612 ) ;
#64 = SURFACE_STYLE_FILL_AREA ( #199 ) ;
#65 = DIRECTION ( 'NONE',  ( -3.160378836509298460E-17, 1.000000000000000000, -0.000000000000000000 ) ) ;
#66 = FILL_AREA_STYLE_COLOUR ( '', #272 ) ;
#67 = MECHANICAL_DESIGN_GEOMETRIC_PRESENTATION_REPRESENTATION (  '', ( #137 ), #264 ) ;
#68 = CIRCLE ( 'NONE', #303, 0.09375000000000005551 ) ;
#69 = PRODUCT_RELATED_PRODUCT_CATEGORY ( 'part', '', ( #71 ) ) ;
#70 =( CONVERSION_BASED_UNIT ( 'INCH', #185 ) LENGTH_UNIT ( ) NAMED_UNIT ( #230 ) );
#71 = PRODUCT ( '23050', '23050', '', ( #34 ) ) ;
#72 = ORIENTED_EDGE ( 'NONE', *, *, #102, .T. ) ;
#73 = DIRECTION ( 'NONE',  ( -3.160378836509298460E-17, 1.000000000000000000, -0.000000000000000000 ) ) ;
#74 = CIRCLE ( 'NONE', #46, 0.09374999999999998612 ) ;
#75 = MECHANICAL_DESIGN_GEOMETRIC_PRESENTATION_REPRESENTATION (  '', ( #1 ), #115 ) ;
#76 = ORIENTED_EDGE ( 'NONE', *, *, #251, .F. ) ;
#77 = FACE_OUTER_BOUND ( 'NONE', #59, .T. ) ;
#78 = CARTESIAN_POINT ( 'NONE',  ( 0.000000000000000000, 0.5625000000000001110, 0.000000000000000000 ) ) ;
#79 =( CONVERSION_BASED_UNIT ( 'INCH', #197 ) LENGTH_UNIT ( ) NAMED_UNIT ( #206 ) );
#80 = EDGE_LOOP ( 'NONE', ( #72, #84 ) ) ;
#81 = EDGE_CURVE ( 'NONE', #262, #214, #134, .T. ) ;
#82 = PRESENTATION_LAYER_ASSIGNMENT (  '', '', ( #30 ) ) ;
#83 = MANIFOLD_SOLID_BREP ( 'Revolve - Tool Body (Straight Shanked)', #177 ) ;
#84 = ORIENTED_EDGE ( 'NONE', *, *, #251, .T. ) ;
#85 = FILL_AREA_STYLE ('',( #143 ) ) ;
#86 = DIRECTION ( 'NONE',  ( -3.160378836509298460E-17, 1.000000000000000000, 0.000000000000000000 ) ) ;
#87 = AXIS2_PLACEMENT_3D ( 'NONE', #105, #27, #192 ) ;
#88 = AXIS2_PLACEMENT_3D ( 'NONE', #261, #305, #21 ) ;
#89 = FACE_OUTER_BOUND ( 'NONE', #253, .T. ) ;
#90 = DIRECTION ( 'NONE',  ( 0.000000000000000000, 0.000000000000000000, -1.000000000000000000 ) ) ;
#91 = UNCERTAINTY_MEASURE_WITH_UNIT (LENGTH_MEASURE( 1.000000000000000082E-05 ), #268, 'distance_accuracy_value', 'NONE');
#92 = CARTESIAN_POINT ( 'NONE',  ( -0.09375000000000012490, 2.500000000000000000, 0.000000000000000000 ) ) ;
#93 =( CONVERSION_BASED_UNIT ( 'INCH', #124 ) LENGTH_UNIT ( ) NAMED_UNIT ( #50 ) );
#94 = ORIENTED_EDGE ( 'NONE', *, *, #17, .T. ) ;
#95 = DIRECTION ( 'NONE',  ( -0.000000000000000000, -1.000000000000000000, -0.000000000000000000 ) ) ;
#96 = DIRECTION ( 'NONE',  ( -3.160378836509298460E-17, 1.000000000000000000, -0.000000000000000000 ) ) ;
#97 = COLOUR_RGB ( '',1.000000000000000000, 0.000000000000000000, 0.000000000000000000 ) ;
#98 =( LENGTH_UNIT ( ) NAMED_UNIT ( * ) SI_UNIT ( $, .METRE. ) );
#99 = ORIENTED_EDGE ( 'NONE', *, *, #183, .T. ) ;
#100 = CARTESIAN_POINT ( 'NONE',  ( -6.123233995736766036E-17, 2.500000000000000000, 0.000000000000000000 ) ) ;
#101 = DIRECTION ( 'NONE',  ( -1.000000000000000000, 0.000000000000000000, 0.000000000000000000 ) ) ;
#102 = EDGE_CURVE ( 'NONE', #307, #144, #68, .T. ) ;
#103 = DIRECTION ( 'NONE',  ( -0.000000000000000000, -1.000000000000000000, -0.000000000000000000 ) ) ;
#104 = CARTESIAN_POINT ( 'NONE',  ( 0.000000000000000000, 0.000000000000000000, 0.000000000000000000 ) ) ;
#105 = CARTESIAN_POINT ( 'NONE',  ( 0.000000000000000000, 0.5625000000000000000, 0.000000000000000000 ) ) ;
#106 = FILL_AREA_STYLE_COLOUR ( '', #296 ) ;
#107 = FACE_OUTER_BOUND ( 'NONE', #148, .T. ) ;
#108 = CARTESIAN_POINT ( 'NONE',  ( -6.123233995736766036E-17, 2.500000000000000000, 0.000000000000000000 ) ) ;
#109 =( LENGTH_UNIT ( ) NAMED_UNIT ( * ) SI_UNIT ( $, .METRE. ) );
#110 = EDGE_CURVE ( 'NONE', #28, #209, #10, .T. ) ;
#111 = FILL_AREA_STYLE_COLOUR ( '', #226 ) ;
#112 =( GEOMETRIC_REPRESENTATION_CONTEXT ( 3 ) GLOBAL_UNCERTAINTY_ASSIGNED_CONTEXT ( ( #302 ) ) GLOBAL_UNIT_ASSIGNED_CONTEXT ( ( #151, #245, #113 ) ) REPRESENTATION_CONTEXT ( 'NONE', 'WORKASPACE' ) );
#113 =( NAMED_UNIT ( * ) SI_UNIT ( $, .STERADIAN. ) SOLID_ANGLE_UNIT ( ) );
#114 = ADVANCED_FACE ( 'NONE', ( #39 ), #6, .T. ) ;
#115 =( GEOMETRIC_REPRESENTATION_CONTEXT ( 3 ) GLOBAL_UNCERTAINTY_ASSIGNED_CONTEXT ( ( #136 ) ) GLOBAL_UNIT_ASSIGNED_CONTEXT ( ( #79, #29, #193 ) ) REPRESENTATION_CONTEXT ( 'NONE', 'WORKASPACE' ) );
#116 = AXIS2_PLACEMENT_3D ( 'NONE', #104, #246, #265 ) ;
#117 = ORIENTED_EDGE ( 'NONE', *, *, #188, .F. ) ;
#118 =( NAMED_UNIT ( * ) SI_UNIT ( $, .STERADIAN. ) SOLID_ANGLE_UNIT ( ) );
#119 = ORIENTED_EDGE ( 'NONE', *, *, #263, .F. ) ;
#120 = CARTESIAN_POINT ( 'NONE',  ( 0.000000000000000000, 0.5625000000000000000, -0.09374999999999998612 ) ) ;
#121 = UNCERTAINTY_MEASURE_WITH_UNIT (LENGTH_MEASURE( 1.000000000000000082E-05 ), #32, 'distance_accuracy_value', 'NONE');
#122 = EDGE_LOOP ( 'NONE', ( #4, #56, #309, #119 ) ) ;
#123 = CIRCLE ( 'NONE', #116, 0.09375000000000001388 ) ;
#124 = LENGTH_MEASURE_WITH_UNIT ( LENGTH_MEASURE( 0.02539999999999999897 ), #201 );
#125 = DIRECTION ( 'NONE',  ( 3.160378836509298460E-17, -1.000000000000000000, 0.000000000000000000 ) ) ;
#126 = CARTESIAN_POINT ( 'NONE',  ( 0.09374999999999998612, 2.500000000000000000, 0.000000000000000000 ) ) ;
#127 = FILL_AREA_STYLE ('',( #106 ) ) ;
#128 = LINE ( 'NONE', #223, #202 ) ;
#129 = AXIS2_PLACEMENT_3D ( 'NONE', #51, #243, #284 ) ;
#130 = CARTESIAN_POINT ( 'NONE',  ( 0.000000000000000000, 0.000000000000000000, 0.000000000000000000 ) ) ;
#131 = CARTESIAN_POINT ( 'NONE',  ( 1.148106374200643401E-17, 0.000000000000000000, 0.09374999999999998612 ) ) ;
#132 =( NAMED_UNIT ( * ) SI_UNIT ( $, .STERADIAN. ) SOLID_ANGLE_UNIT ( ) );
#133 =( NAMED_UNIT ( * ) SI_UNIT ( $, .STERADIAN. ) SOLID_ANGLE_UNIT ( ) );
#134 = CIRCLE ( 'NONE', #156, 0.09374999999999998612 ) ;
#135 = CARTESIAN_POINT ( 'NONE',  ( 0.000000000000000000, 0.000000000000000000, 0.000000000000000000 ) ) ;
#136 = UNCERTAINTY_MEASURE_WITH_UNIT (LENGTH_MEASURE( 1.000000000000000082E-05 ), #79, 'distance_accuracy_value', 'NONE');
#137 = STYLED_ITEM ( 'NONE', ( #290 ), #247 ) ;
#138 = EDGE_CURVE ( 'NONE', #47, #255, #42, .T. ) ;
#139 = AXIS2_PLACEMENT_3D ( 'NONE', #36, #65, #40 ) ;
#140 = APPLICATION_CONTEXT ( 'automotive_design' ) ;
#141 = ORIENTED_EDGE ( 'NONE', *, *, #20, .F. ) ;
#142 = CARTESIAN_POINT ( 'NONE',  ( -0.09375000000000009714, 2.500000000000000000, 0.000000000000000000 ) ) ;
#143 = FILL_AREA_STYLE_COLOUR ( '', #176 ) ;
#144 = VERTEX_POINT ( 'NONE', #282 ) ;
#145 = ADVANCED_FACE ( 'NONE', ( #77 ), #63, .T. ) ;
#146 = ORIENTED_EDGE ( 'NONE', *, *, #110, .F. ) ;
#147 = CIRCLE ( 'NONE', #266, 0.09375000000000005551 ) ;
#148 = EDGE_LOOP ( 'NONE', ( #141, #285 ) ) ;
#149 = CYLINDRICAL_SURFACE ( 'NONE', #139, 0.09375000000000002776 ) ;
#150 = PRESENTATION_STYLE_ASSIGNMENT (( #180 ) ) ;
#151 =( CONVERSION_BASED_UNIT ( 'INCH', #174 ) LENGTH_UNIT ( ) NAMED_UNIT ( #44 ) );
#152 = DIRECTION ( 'NONE',  ( -0.000000000000000000, -1.000000000000000000, -0.000000000000000000 ) ) ;
#153 = SURFACE_STYLE_USAGE ( .BOTH. , #179 ) ;
#154 = VECTOR ( 'NONE', #96, 39.37007874015748143 ) ;
#155 = SURFACE_STYLE_USAGE ( .BOTH. , #200 ) ;
#156 = AXIS2_PLACEMENT_3D ( 'NONE', #293, #269, #297 ) ;
#157 = PRESENTATION_LAYER_ASSIGNMENT (  '', '', ( #227 ) ) ;
#158 = PRESENTATION_LAYER_ASSIGNMENT (  '', '', ( #1 ) ) ;
#159 = DIMENSIONAL_EXPONENTS ( 1.000000000000000000, 0.000000000000000000, 0.000000000000000000, 0.000000000000000000, 0.000000000000000000, 0.000000000000000000, 0.000000000000000000 ) ;
#160 =( NAMED_UNIT ( * ) PLANE_ANGLE_UNIT ( ) SI_UNIT ( $, .RADIAN. ) );
#161 = MECHANICAL_DESIGN_GEOMETRIC_PRESENTATION_REPRESENTATION (  '', ( #212 ), #112 ) ;
#162 = EDGE_LOOP ( 'NONE', ( #275, #164 ) ) ;
#163 = DIRECTION ( 'NONE',  ( 0.000000000000000000, 0.000000000000000000, -1.000000000000000000 ) ) ;
#164 = ORIENTED_EDGE ( 'NONE', *, *, #138, .F. ) ;
#165 = EDGE_CURVE ( 'NONE', #209, #28, #123, .T. ) ;
#166 =( LENGTH_UNIT ( ) NAMED_UNIT ( * ) SI_UNIT ( $, .METRE. ) );
#167 = FACE_OUTER_BOUND ( 'NONE', #55, .T. ) ;
#168 = CARTESIAN_POINT ( 'NONE',  ( 0.000000000000000000, 0.5625000000000000000, 0.000000000000000000 ) ) ;
#169 = DIRECTION ( 'NONE',  ( 0.000000000000000000, 0.000000000000000000, -1.000000000000000000 ) ) ;
#170 =( NAMED_UNIT ( * ) PLANE_ANGLE_UNIT ( ) SI_UNIT ( $, .RADIAN. ) );
#171 = ADVANCED_FACE ( 'NONE', ( #295 ), #149, .T. ) ;
#172 = CARTESIAN_POINT ( 'NONE',  ( 4.681872370432437241E-35, 0.5625000000000000000, 0.000000000000000000 ) ) ;
#173 =( CONVERSION_BASED_UNIT ( 'INCH', #291 ) LENGTH_UNIT ( ) NAMED_UNIT ( #159 ) );
#174 = LENGTH_MEASURE_WITH_UNIT ( LENGTH_MEASURE( 0.02539999999999999897 ), #175 );
#175 =( LENGTH_UNIT ( ) NAMED_UNIT ( * ) SI_UNIT ( $, .METRE. ) );
#176 = COLOUR_RGB ( '',0.7921568627450980005, 0.8196078431372548767, 0.9333333333333333481 ) ;
#177 = CLOSED_SHELL ( 'NONE', ( #171, #54, #2, #49 ) ) ;
#178 = DIRECTION ( 'NONE',  ( -1.000000000000000000, -3.160378836509298460E-17, 0.000000000000000000 ) ) ;
#179 = SURFACE_SIDE_STYLE ('',( #225 ) ) ;
#180 = SURFACE_STYLE_USAGE ( .BOTH. , #267 ) ;
#181 = VECTOR ( 'NONE', #103, 39.37007874015748143 ) ;
#182 = AXIS2_PLACEMENT_3D ( 'NONE', #304, #308, #163 ) ;
#183 = EDGE_CURVE ( 'NONE', #47, #209, #241, .T. ) ;
#184 = DIMENSIONAL_EXPONENTS ( 1.000000000000000000, 0.000000000000000000, 0.000000000000000000, 0.000000000000000000, 0.000000000000000000, 0.000000000000000000, 0.000000000000000000 ) ;
#185 = LENGTH_MEASURE_WITH_UNIT ( LENGTH_MEASURE( 0.02539999999999999897 ), #208 );
#186 = SURFACE_SIDE_STYLE ('',( #233 ) ) ;
#187 = ORIENTED_EDGE ( 'NONE', *, *, #110, .T. ) ;
#188 = EDGE_CURVE ( 'NONE', #262, #144, #128, .T. ) ;
#189 = VECTOR ( 'NONE', #37, 39.37007874015748143 ) ;
#190 = SURFACE_SIDE_STYLE ('',( #213 ) ) ;
#191 =( GEOMETRIC_REPRESENTATION_CONTEXT ( 3 ) GLOBAL_UNCERTAINTY_ASSIGNED_CONTEXT ( ( #121 ) ) GLOBAL_UNIT_ASSIGNED_CONTEXT ( ( #32, #194, #58 ) ) REPRESENTATION_CONTEXT ( 'NONE', 'WORKASPACE' ) );
#192 = DIRECTION ( 'NONE',  ( 0.000000000000000000, 0.000000000000000000, -1.000000000000000000 ) ) ;
#193 =( NAMED_UNIT ( * ) SI_UNIT ( $, .STERADIAN. ) SOLID_ANGLE_UNIT ( ) );
#194 =( NAMED_UNIT ( * ) PLANE_ANGLE_UNIT ( ) SI_UNIT ( $, .RADIAN. ) );
#195 = EDGE_LOOP ( 'NONE', ( #210, #236, #288, #232 ) ) ;
#196 = PLANE ( 'NONE',  #286 ) ;
#197 = LENGTH_MEASURE_WITH_UNIT ( LENGTH_MEASURE( 0.02539999999999999897 ), #166 );
#198 = AXIS2_PLACEMENT_3D ( 'NONE', #168, #256, #238 ) ;
#199 = FILL_AREA_STYLE ('',( #111 ) ) ;
#200 = SURFACE_SIDE_STYLE ('',( #64 ) ) ;
#201 =( LENGTH_UNIT ( ) NAMED_UNIT ( * ) SI_UNIT ( $, .METRE. ) );
#202 = VECTOR ( 'NONE', #224, 39.37007874015748143 ) ;
#203 = DIRECTION ( 'NONE',  ( -1.000000000000000000, 0.000000000000000000, 0.000000000000000000 ) ) ;
#204 =( GEOMETRIC_REPRESENTATION_CONTEXT ( 3 ) GLOBAL_UNCERTAINTY_ASSIGNED_CONTEXT ( ( #31 ) ) GLOBAL_UNIT_ASSIGNED_CONTEXT ( ( #93, #211, #254 ) ) REPRESENTATION_CONTEXT ( 'NONE', 'WORKASPACE' ) );
#205 = APPLICATION_PROTOCOL_DEFINITION ( 'draft international standard', 'automotive_design', 1998, #218 ) ;
#206 = DIMENSIONAL_EXPONENTS ( 1.000000000000000000, 0.000000000000000000, 0.000000000000000000, 0.000000000000000000, 0.000000000000000000, 0.000000000000000000, 0.000000000000000000 ) ;
#207 = COLOUR_RGB ( '',1.000000000000000000, 0.000000000000000000, 0.000000000000000000 ) ;
#208 =( LENGTH_UNIT ( ) NAMED_UNIT ( * ) SI_UNIT ( $, .METRE. ) );
#209 = VERTEX_POINT ( 'NONE', #14 ) ;
#210 = ORIENTED_EDGE ( 'NONE', *, *, #183, .F. ) ;
#211 =( NAMED_UNIT ( * ) PLANE_ANGLE_UNIT ( ) SI_UNIT ( $, .RADIAN. ) );
#212 = STYLED_ITEM ( 'NONE', ( #150 ), #83 ) ;
#213 = SURFACE_STYLE_FILL_AREA ( #127 ) ;
#214 = VERTEX_POINT ( 'NONE', #273 ) ;
#215 = APPLICATION_PROTOCOL_DEFINITION ( 'draft international standard', 'automotive_design', 1998, #140 ) ;
#216 = FACE_OUTER_BOUND ( 'NONE', #80, .T. ) ;
#217 = LINE ( 'NONE', #8, #181 ) ;
#218 = APPLICATION_CONTEXT ( 'automotive_design' ) ;
#219 = PLANE ( 'NONE',  #88 ) ;
#220 = ORIENTED_EDGE ( 'NONE', *, *, #81, .T. ) ;
#221 = LENGTH_MEASURE_WITH_UNIT ( LENGTH_MEASURE( 0.02539999999999999897 ), #98 );
#222 = PRESENTATION_LAYER_ASSIGNMENT (  '', '', ( #137 ) ) ;
#223 = CARTESIAN_POINT ( 'NONE',  ( 0.09374999999999995837, 2.500000000000000000, 1.148106374200644017E-17 ) ) ;
#224 = DIRECTION ( 'NONE',  ( -3.160378836509298460E-17, 1.000000000000000000, -0.000000000000000000 ) ) ;
#225 = SURFACE_STYLE_FILL_AREA ( #62 ) ;
#226 = COLOUR_RGB ( '',1.000000000000000000, 0.000000000000000000, 0.000000000000000000 ) ;
#227 = STYLED_ITEM ( 'NONE', ( #279 ), #301 ) ;
#228 = CARTESIAN_POINT ( 'NONE',  ( 0.09374999999999998612, 0.5625000000000001110, 1.148106374200644171E-17 ) ) ;
#229 = CYLINDRICAL_SURFACE ( 'NONE', #182, 0.09374999999999998612 ) ;
#230 = DIMENSIONAL_EXPONENTS ( 1.000000000000000000, 0.000000000000000000, 0.000000000000000000, 0.000000000000000000, 0.000000000000000000, 0.000000000000000000, 0.000000000000000000 ) ;
#231 = AXIS2_PLACEMENT_3D ( 'NONE', #130, #152, #294 ) ;
#232 = ORIENTED_EDGE ( 'NONE', *, *, #165, .F. ) ;
#233 = SURFACE_STYLE_FILL_AREA ( #274 ) ;
#234 = ORIENTED_EDGE ( 'NONE', *, *, #263, .T. ) ;
#235 = UNCERTAINTY_MEASURE_WITH_UNIT (LENGTH_MEASURE( 1.000000000000000082E-05 ), #173, 'distance_accuracy_value', 'NONE');
#236 = ORIENTED_EDGE ( 'NONE', *, *, #138, .T. ) ;
#237 = CARTESIAN_POINT ( 'NONE',  ( 0.000000000000000000, 0.000000000000000000, -0.09375000000000001388 ) ) ;
#238 = DIRECTION ( 'NONE',  ( 0.000000000000000000, -0.000000000000000000, 1.000000000000000000 ) ) ;
#239 = CYLINDRICAL_SURFACE ( 'NONE', #52, 0.09375000000000002776 ) ;
#240 = SURFACE_STYLE_USAGE ( .BOTH. , #281 ) ;
#241 = LINE ( 'NONE', #131, #189 ) ;
#242 = PRESENTATION_STYLE_ASSIGNMENT (( #153 ) ) ;
#243 = DIRECTION ( 'NONE',  ( 0.000000000000000000, 0.000000000000000000, 1.000000000000000000 ) ) ;
#244 = PRESENTATION_LAYER_ASSIGNMENT (  '', '', ( #212 ) ) ;
#245 =( NAMED_UNIT ( * ) PLANE_ANGLE_UNIT ( ) SI_UNIT ( $, .RADIAN. ) );
#246 = DIRECTION ( 'NONE',  ( -0.000000000000000000, -1.000000000000000000, -0.000000000000000000 ) ) ;
#247 = ADVANCED_FACE ( 'NONE', ( #18 ), #229, .T. ) ;
#248 = PRESENTATION_STYLE_ASSIGNMENT (( #155 ) ) ;
#249 = MECHANICAL_DESIGN_GEOMETRIC_PRESENTATION_REPRESENTATION (  '', ( #30 ), #271 ) ;
#250 = DIMENSIONAL_EXPONENTS ( 1.000000000000000000, 0.000000000000000000, 0.000000000000000000, 0.000000000000000000, 0.000000000000000000, 0.000000000000000000, 0.000000000000000000 ) ;
#251 = EDGE_CURVE ( 'NONE', #144, #307, #147, .T. ) ;
#252 = AXIS2_PLACEMENT_3D ( 'NONE', #135, #298, #90 ) ;
#253 = EDGE_LOOP ( 'NONE', ( #187, #25 ) ) ;
#254 =( NAMED_UNIT ( * ) SI_UNIT ( $, .STERADIAN. ) SOLID_ANGLE_UNIT ( ) );
#255 = VERTEX_POINT ( 'NONE', #120 ) ;
#256 = DIRECTION ( 'NONE',  ( 0.000000000000000000, 1.000000000000000000, 0.000000000000000000 ) ) ;
#257 = AXIS2_PLACEMENT_3D ( 'NONE', #61, #95, #169 ) ;
#258 = PRODUCT_DEFINITION_FORMATION_WITH_SPECIFIED_SOURCE ( 'ANY', '', #71, .NOT_KNOWN. ) ;
#259 = CARTESIAN_POINT ( 'NONE',  ( 1.148106374200643401E-17, 0.5625000000000000000, 0.09374999999999998612 ) ) ;
#260 =( LENGTH_UNIT ( ) NAMED_UNIT ( * ) SI_UNIT ( $, .METRE. ) );
#261 = CARTESIAN_POINT ( 'NONE',  ( 0.000000000000000000, 0.000000000000000000, 0.000000000000000000 ) ) ;
#262 = VERTEX_POINT ( 'NONE', #228 ) ;
#263 = EDGE_CURVE ( 'NONE', #214, #307, #53, .T. ) ;
#264 =( GEOMETRIC_REPRESENTATION_CONTEXT ( 3 ) GLOBAL_UNCERTAINTY_ASSIGNED_CONTEXT ( ( #235 ) ) GLOBAL_UNIT_ASSIGNED_CONTEXT ( ( #173, #276, #132 ) ) REPRESENTATION_CONTEXT ( 'NONE', 'WORKASPACE' ) );
#265 = DIRECTION ( 'NONE',  ( 0.000000000000000000, 0.000000000000000000, -1.000000000000000000 ) ) ;
#266 = AXIS2_PLACEMENT_3D ( 'NONE', #100, #73, #45 ) ;
#267 = SURFACE_SIDE_STYLE ('',( #270 ) ) ;
#268 =( CONVERSION_BASED_UNIT ( 'INCH', #289 ) LENGTH_UNIT ( ) NAMED_UNIT ( #184 ) );
#269 = DIRECTION ( 'NONE',  ( -3.160378836509298460E-17, 1.000000000000000000, -0.000000000000000000 ) ) ;
#270 = SURFACE_STYLE_FILL_AREA ( #13 ) ;
#271 =( GEOMETRIC_REPRESENTATION_CONTEXT ( 3 ) GLOBAL_UNCERTAINTY_ASSIGNED_CONTEXT ( ( #91 ) ) GLOBAL_UNIT_ASSIGNED_CONTEXT ( ( #268, #170, #133 ) ) REPRESENTATION_CONTEXT ( 'NONE', 'WORKASPACE' ) );
#272 = COLOUR_RGB ( '',0.7921568627450980005, 0.8196078431372548767, 0.9333333333333333481 ) ;
#273 = CARTESIAN_POINT ( 'NONE',  ( -0.09374999999999998612, 0.5625000000000001110, 0.000000000000000000 ) ) ;
#274 = FILL_AREA_STYLE ('',( #3 ) ) ;
#275 = ORIENTED_EDGE ( 'NONE', *, *, #17, .F. ) ;
#276 =( NAMED_UNIT ( * ) PLANE_ANGLE_UNIT ( ) SI_UNIT ( $, .RADIAN. ) );
#277 = PRODUCT_DEFINITION_CONTEXT ( 'detailed design', #140, 'design' ) ;
#278 = MANIFOLD_SOLID_BREP ( 'Revolve - Cutting Edge', #19 ) ;
#279 = PRESENTATION_STYLE_ASSIGNMENT (( #287 ) ) ;
#280 = DIRECTION ( 'NONE',  ( -3.160378836509298460E-17, 1.000000000000000000, -0.000000000000000000 ) ) ;
#281 = SURFACE_SIDE_STYLE ('',( #26 ) ) ;
#282 = CARTESIAN_POINT ( 'NONE',  ( 0.09374999999999998612, 2.500000000000000000, 1.148106374200644171E-17 ) ) ;
#283 = DIRECTION ( 'NONE',  ( -1.000000000000000000, 0.000000000000000000, 0.000000000000000000 ) ) ;
#284 = DIRECTION ( 'NONE',  ( 1.000000000000000000, 0.000000000000000000, 0.000000000000000000 ) ) ;
#285 = ORIENTED_EDGE ( 'NONE', *, *, #81, .F. ) ;
#286 = AXIS2_PLACEMENT_3D ( 'NONE', #172, #86, #178 ) ;
#287 = SURFACE_STYLE_USAGE ( .BOTH. , #190 ) ;
#288 = ORIENTED_EDGE ( 'NONE', *, *, #292, .T. ) ;
#289 = LENGTH_MEASURE_WITH_UNIT ( LENGTH_MEASURE( 0.02539999999999999897 ), #109 );
#290 = PRESENTATION_STYLE_ASSIGNMENT (( #23 ) ) ;
#291 = LENGTH_MEASURE_WITH_UNIT ( LENGTH_MEASURE( 0.02539999999999999897 ), #260 );
#292 = EDGE_CURVE ( 'NONE', #255, #28, #217, .T. ) ;
#293 = CARTESIAN_POINT ( 'NONE',  ( 0.000000000000000000, 0.5625000000000001110, 0.000000000000000000 ) ) ;
#294 = DIRECTION ( 'NONE',  ( 0.000000000000000000, 0.000000000000000000, -1.000000000000000000 ) ) ;
#295 = FACE_OUTER_BOUND ( 'NONE', #122, .T. ) ;
#296 = COLOUR_RGB ( '',1.000000000000000000, 0.000000000000000000, 0.000000000000000000 ) ;
#297 = DIRECTION ( 'NONE',  ( -1.000000000000000000, 0.000000000000000000, 0.000000000000000000 ) ) ;
#298 = DIRECTION ( 'NONE',  ( -0.000000000000000000, -1.000000000000000000, -0.000000000000000000 ) ) ;
#299 = ADVANCED_BREP_SHAPE_REPRESENTATION ( '23050', ( #278, #83, #129 ), #11 ) ;
#300 = CIRCLE ( 'NONE', #257, 0.09374999999999998612 ) ;
#301 = ADVANCED_FACE ( 'NONE', ( #89 ), #219, .T. ) ;
#302 = UNCERTAINTY_MEASURE_WITH_UNIT (LENGTH_MEASURE( 1.000000000000000082E-05 ), #151, 'distance_accuracy_value', 'NONE');
#303 = AXIS2_PLACEMENT_3D ( 'NONE', #108, #43, #203 ) ;
#304 = CARTESIAN_POINT ( 'NONE',  ( 0.000000000000000000, 0.000000000000000000, 0.000000000000000000 ) ) ;
#305 = DIRECTION ( 'NONE',  ( 0.000000000000000000, -1.000000000000000000, -0.000000000000000000 ) ) ;
#306 = PRODUCT_DEFINITION_SHAPE ( 'NONE', 'NONE',  #41 ) ;
#307 = VERTEX_POINT ( 'NONE', #92 ) ;
#308 = DIRECTION ( 'NONE',  ( -0.000000000000000000, -1.000000000000000000, -0.000000000000000000 ) ) ;
#309 = ORIENTED_EDGE ( 'NONE', *, *, #102, .F. ) ;
ENDSEC;
END-ISO-10303-21;
