ISO-10303-21;
HEADER;
FILE_DESCRIPTION (( 'STEP AP214' ),
    '1' );
FILE_NAME ('59666.STEP',
    '2023-07-24T15:21:31',
    ( '' ),
    ( '' ),
    'SwSTEP 2.0',
    'SolidWorks 2023',
    '' );
FILE_SCHEMA (( 'AUTOMOTIVE_DESIGN' ));
ENDSEC;

DATA;
#1 = AXIS2_PLACEMENT_3D ( 'NONE', #208, #162, #352 ) ;
#2 = DIRECTION ( 'NONE',  ( -1.000000000000000000, 0.000000000000000000, 0.000000000000000000 ) ) ;
#3 = ORIENTED_EDGE ( 'NONE', *, *, #370, .T. ) ;
#4 = FILL_AREA_STYLE_COLOUR ( '', #263 ) ;
#5 = VERTEX_POINT ( 'NONE', #230 ) ;
#6 = UNCERTAINTY_MEASURE_WITH_UNIT (LENGTH_MEASURE( 1.000000000000000082E-05 ), #214, 'distance_accuracy_value', 'NONE');
#7 = EDGE_CURVE ( 'NONE', #206, #142, #148, .T. ) ;
#8 = SURFACE_SIDE_STYLE ('',( #228 ) ) ;
#9 = DIRECTION ( 'NONE',  ( 0.000000000000000000, 0.000000000000000000, -1.000000000000000000 ) ) ;
#10 = CARTESIAN_POINT ( 'NONE',  ( 0.000000000000000000, 0.000000000000000000, 0.000000000000000000 ) ) ;
#11 = COLOUR_RGB ( '',0.7921568627450980005, 0.8196078431372548767, 0.9333333333333333481 ) ;
#12 = EDGE_CURVE ( 'NONE', #279, #197, #128, .T. ) ;
#13 =( LENGTH_UNIT ( ) NAMED_UNIT ( * ) SI_UNIT ( .MILLI., .METRE. ) );
#14 = PRESENTATION_LAYER_ASSIGNMENT (  '', '', ( #101 ) ) ;
#15 =( GEOMETRIC_REPRESENTATION_CONTEXT ( 3 ) GLOBAL_UNCERTAINTY_ASSIGNED_CONTEXT ( ( #294 ) ) GLOBAL_UNIT_ASSIGNED_CONTEXT ( ( #340, #88, #305 ) ) REPRESENTATION_CONTEXT ( 'NONE', 'WORKASPACE' ) );
#16 = DIRECTION ( 'NONE',  ( -1.000000000000000000, 0.000000000000000000, 0.000000000000000000 ) ) ;
#17 = PRESENTATION_LAYER_ASSIGNMENT (  '', '', ( #346 ) ) ;
#18 =( NAMED_UNIT ( * ) PLANE_ANGLE_UNIT ( ) SI_UNIT ( $, .RADIAN. ) );
#19 = DIRECTION ( 'NONE',  ( 0.000000000000000000, 0.000000000000000000, -1.000000000000000000 ) ) ;
#20 =( LENGTH_UNIT ( ) NAMED_UNIT ( * ) SI_UNIT ( .MILLI., .METRE. ) );
#21 = CARTESIAN_POINT ( 'NONE',  ( 0.000000000000000000, 0.000000000000000000, 0.000000000000000000 ) ) ;
#22 =( LENGTH_UNIT ( ) NAMED_UNIT ( * ) SI_UNIT ( .MILLI., .METRE. ) );
#23 = ORIENTED_EDGE ( 'NONE', *, *, #133, .F. ) ;
#24 = DIRECTION ( 'NONE',  ( -1.236440607496819135E-16, 1.000000000000000000, -0.000000000000000000 ) ) ;
#25 = PRESENTATION_STYLE_ASSIGNMENT (( #47 ) ) ;
#26 = CARTESIAN_POINT ( 'NONE',  ( 0.000000000000000000, 0.5000000000000000000, 0.000000000000000000 ) ) ;
#27 = ORIENTED_EDGE ( 'NONE', *, *, #215, .T. ) ;
#28 = SURFACE_STYLE_USAGE ( .BOTH. , #49 ) ;
#29 =( LENGTH_UNIT ( ) NAMED_UNIT ( * ) SI_UNIT ( .MILLI., .METRE. ) );
#30 = AXIS2_PLACEMENT_3D ( 'NONE', #140, #220, #172 ) ;
#31 = AXIS2_PLACEMENT_3D ( 'NONE', #284, #356, #198 ) ;
#32 = ORIENTED_EDGE ( 'NONE', *, *, #360, .F. ) ;
#33 = ORIENTED_EDGE ( 'NONE', *, *, #66, .T. ) ;
#34 = CARTESIAN_POINT ( 'NONE',  ( 1.224646799147353256E-15, 0.000000000000000000, 10.00000000000000000 ) ) ;
#35 = PLANE ( 'NONE',  #41 ) ;
#36 = PRESENTATION_LAYER_ASSIGNMENT (  '', '', ( #210 ) ) ;
#37 = DIRECTION ( 'NONE',  ( -1.000000000000000000, 0.000000000000000000, 0.000000000000000000 ) ) ;
#38 = UNCERTAINTY_MEASURE_WITH_UNIT (LENGTH_MEASURE( 1.000000000000000082E-05 ), #13, 'distance_accuracy_value', 'NONE');
#39 = CARTESIAN_POINT ( 'NONE',  ( 6.071532165918824830E-15, 40.00000000000000000, 0.000000000000000000 ) ) ;
#40 = EDGE_CURVE ( 'NONE', #279, #143, #130, .T. ) ;
#41 = AXIS2_PLACEMENT_3D ( 'NONE', #39, #135, #298 ) ;
#42 = FACE_OUTER_BOUND ( 'NONE', #115, .T. ) ;
#43 = DIRECTION ( 'NONE',  ( 0.000000000000000000, 0.000000000000000000, -1.000000000000000000 ) ) ;
#44 =( GEOMETRIC_REPRESENTATION_CONTEXT ( 3 ) GLOBAL_UNCERTAINTY_ASSIGNED_CONTEXT ( ( #38 ) ) GLOBAL_UNIT_ASSIGNED_CONTEXT ( ( #13, #343, #191 ) ) REPRESENTATION_CONTEXT ( 'NONE', 'WORKASPACE' ) );
#45 = SURFACE_SIDE_STYLE ('',( #219 ) ) ;
#46 = ORIENTED_EDGE ( 'NONE', *, *, #7, .T. ) ;
#47 = SURFACE_STYLE_USAGE ( .BOTH. , #201 ) ;
#48 = ORIENTED_EDGE ( 'NONE', *, *, #176, .F. ) ;
#49 = SURFACE_SIDE_STYLE ('',( #253 ) ) ;
#50 = CARTESIAN_POINT ( 'NONE',  ( 0.000000000000000000, 40.00000000000000000, -10.00000000000000000 ) ) ;
#51 = STYLED_ITEM ( 'NONE', ( #336 ), #93 ) ;
#52 = PLANE ( 'NONE',  #112 ) ;
#53 = AXIS2_PLACEMENT_3D ( 'NONE', #165, #145, #114 ) ;
#54 = AXIS2_PLACEMENT_3D ( 'NONE', #207, #177, #205 ) ;
#55 = APPLICATION_PROTOCOL_DEFINITION ( 'draft international standard', 'automotive_design', 1998, #359 ) ;
#56 = ADVANCED_BREP_SHAPE_REPRESENTATION ( '59666', ( #189, #188, #54 ), #168 ) ;
#57 = DIRECTION ( 'NONE',  ( -0.000000000000000000, -1.000000000000000000, -0.000000000000000000 ) ) ;
#58 = DIRECTION ( 'NONE',  ( 0.000000000000000000, 0.000000000000000000, -1.000000000000000000 ) ) ;
#59 = COLOUR_RGB ( '',1.000000000000000000, 0.000000000000000000, 0.000000000000000000 ) ;
#60 = AXIS2_PLACEMENT_3D ( 'NONE', #89, #171, #84 ) ;
#61 = SURFACE_STYLE_USAGE ( .BOTH. , #8 ) ;
#62 = CARTESIAN_POINT ( 'NONE',  ( 0.000000000000000000, 40.00000000000000000, 0.000000000000000000 ) ) ;
#63 =( NAMED_UNIT ( * ) PLANE_ANGLE_UNIT ( ) SI_UNIT ( $, .RADIAN. ) );
#64 =( GEOMETRIC_REPRESENTATION_CONTEXT ( 3 ) GLOBAL_UNCERTAINTY_ASSIGNED_CONTEXT ( ( #151 ) ) GLOBAL_UNIT_ASSIGNED_CONTEXT ( ( #229, #270, #99 ) ) REPRESENTATION_CONTEXT ( 'NONE', 'WORKASPACE' ) );
#65 = DIRECTION ( 'NONE',  ( 0.000000000000000000, 1.000000000000000000, 0.000000000000000000 ) ) ;
#66 = EDGE_CURVE ( 'NONE', #197, #70, #87, .T. ) ;
#67 = CIRCLE ( 'NONE', #354, 10.00000000000000000 ) ;
#68 = DIRECTION ( 'NONE',  ( -1.000000000000000000, 0.000000000000000000, 0.000000000000000000 ) ) ;
#69 = APPLICATION_CONTEXT ( 'automotive_design' ) ;
#70 = VERTEX_POINT ( 'NONE', #302 ) ;
#71 = PRESENTATION_STYLE_ASSIGNMENT (( #28 ) ) ;
#72 = DIRECTION ( 'NONE',  ( 0.000000000000000000, 0.000000000000000000, -1.000000000000000000 ) ) ;
#73 = FILL_AREA_STYLE ('',( #269 ) ) ;
#74 = AXIS2_PLACEMENT_3D ( 'NONE', #94, #213, #324 ) ;
#75 = FILL_AREA_STYLE_COLOUR ( '', #11 ) ;
#76 = AXIS2_PLACEMENT_3D ( 'NONE', #138, #107, #43 ) ;
#77 = COLOUR_RGB ( '',1.000000000000000000, 0.000000000000000000, 0.000000000000000000 ) ;
#78 = SURFACE_STYLE_USAGE ( .BOTH. , #245 ) ;
#79 = ORIENTED_EDGE ( 'NONE', *, *, #360, .T. ) ;
#80 = FACE_OUTER_BOUND ( 'NONE', #121, .T. ) ;
#81 = SURFACE_STYLE_USAGE ( .BOTH. , #45 ) ;
#82 = ORIENTED_EDGE ( 'NONE', *, *, #7, .F. ) ;
#83 =( NAMED_UNIT ( * ) SI_UNIT ( $, .STERADIAN. ) SOLID_ANGLE_UNIT ( ) );
#84 = DIRECTION ( 'NONE',  ( -1.224646799147353454E-16, 0.000000000000000000, -1.000000000000000000 ) ) ;
#85 = PRESENTATION_LAYER_ASSIGNMENT (  '', '', ( #339 ) ) ;
#86 = AXIS2_PLACEMENT_3D ( 'NONE', #180, #24, #281 ) ;
#87 = LINE ( 'NONE', #34, #153 ) ;
#88 =( NAMED_UNIT ( * ) PLANE_ANGLE_UNIT ( ) SI_UNIT ( $, .RADIAN. ) );
#89 = CARTESIAN_POINT ( 'NONE',  ( 1.163414459189985485E-15, 0.5000000000000000000, 9.500000000000000000 ) ) ;
#90 = FILL_AREA_STYLE ('',( #319 ) ) ;
#91 =( NAMED_UNIT ( * ) PLANE_ANGLE_UNIT ( ) SI_UNIT ( $, .RADIAN. ) );
#92 = FACE_OUTER_BOUND ( 'NONE', #175, .T. ) ;
#93 = ADVANCED_FACE ( 'NONE', ( #42 ), #161, .T. ) ;
#94 = CARTESIAN_POINT ( 'NONE',  ( 0.000000000000000000, 0.000000000000000000, 0.000000000000000000 ) ) ;
#95 =( NAMED_UNIT ( * ) SI_UNIT ( $, .STERADIAN. ) SOLID_ANGLE_UNIT ( ) );
#96 = CARTESIAN_POINT ( 'NONE',  ( 1.224646799147353256E-15, 40.00000000000000000, 10.00000000000000000 ) ) ;
#97 = DIRECTION ( 'NONE',  ( 0.000000000000000000, -0.000000000000000000, 1.000000000000000000 ) ) ;
#98 = MECHANICAL_DESIGN_GEOMETRIC_PRESENTATION_REPRESENTATION (  '', ( #346 ), #44 ) ;
#99 =( NAMED_UNIT ( * ) SI_UNIT ( $, .STERADIAN. ) SOLID_ANGLE_UNIT ( ) );
#100 = AXIS2_PLACEMENT_3D ( 'NONE', #62, #57, #9 ) ;
#101 = STYLED_ITEM ( 'NONE', ( #126 ), #196 ) ;
#102 = PRESENTATION_LAYER_ASSIGNMENT (  '', '', ( #184 ) ) ;
#103 = CARTESIAN_POINT ( 'NONE',  ( 0.000000000000000000, 0.000000000000000000, 0.000000000000000000 ) ) ;
#104 = CARTESIAN_POINT ( 'NONE',  ( 0.000000000000000000, 0.000000000000000000, -9.500000000000000000 ) ) ;
#105 = EDGE_LOOP ( 'NONE', ( #203, #242, #166, #224 ) ) ;
#106 = DIRECTION ( 'NONE',  ( -0.000000000000000000, -1.000000000000000000, -0.000000000000000000 ) ) ;
#107 = DIRECTION ( 'NONE',  ( 0.000000000000000000, -1.000000000000000000, -0.000000000000000000 ) ) ;
#108 = ORIENTED_EDGE ( 'NONE', *, *, #152, .F. ) ;
#109 = ADVANCED_FACE ( 'NONE', ( #216 ), #329, .T. ) ;
#110 = CARTESIAN_POINT ( 'NONE',  ( -1.347111479062090180E-15, 100.0000000000000000, 0.000000000000000000 ) ) ;
#111 = ORIENTED_EDGE ( 'NONE', *, *, #116, .F. ) ;
#112 = AXIS2_PLACEMENT_3D ( 'NONE', #351, #65, #97 ) ;
#113 = VECTOR ( 'NONE', #309, 1000.000000000000000 ) ;
#114 = DIRECTION ( 'NONE',  ( 0.000000000000000000, 0.000000000000000000, -1.000000000000000000 ) ) ;
#115 = EDGE_LOOP ( 'NONE', ( #257, #46 ) ) ;
#116 = EDGE_CURVE ( 'NONE', #335, #117, #357, .T. ) ;
#117 = VERTEX_POINT ( 'NONE', #141 ) ;
#118 = CARTESIAN_POINT ( 'NONE',  ( 9.999999999999996447, 100.0000000000000000, 1.224646799147353059E-15 ) ) ;
#119 = CLOSED_SHELL ( 'NONE', ( #327, #190, #109, #232 ) ) ;
#120 = CIRCLE ( 'NONE', #30, 10.00000000000000000 ) ;
#121 = EDGE_LOOP ( 'NONE', ( #316, #330 ) ) ;
#122 = DIRECTION ( 'NONE',  ( -1.236440607496819135E-16, 1.000000000000000000, -0.000000000000000000 ) ) ;
#123 =( LENGTH_UNIT ( ) NAMED_UNIT ( * ) SI_UNIT ( .MILLI., .METRE. ) );
#124 = ORIENTED_EDGE ( 'NONE', *, *, #133, .T. ) ;
#125 = UNCERTAINTY_MEASURE_WITH_UNIT (LENGTH_MEASURE( 1.000000000000000082E-05 ), #20, 'distance_accuracy_value', 'NONE');
#126 = PRESENTATION_STYLE_ASSIGNMENT (( #157 ) ) ;
#127 = DIRECTION ( 'NONE',  ( -0.000000000000000000, -1.000000000000000000, -0.000000000000000000 ) ) ;
#128 = CIRCLE ( 'NONE', #100, 10.00000000000000000 ) ;
#129 = AXIS2_PLACEMENT_3D ( 'NONE', #278, #303, #16 ) ;
#130 = LINE ( 'NONE', #366, #328 ) ;
#131 = AXIS2_PLACEMENT_3D ( 'NONE', #325, #367, #37 ) ;
#132 = FILL_AREA_STYLE ('',( #186 ) ) ;
#133 = EDGE_CURVE ( 'NONE', #335, #5, #267, .T. ) ;
#134 = PRESENTATION_STYLE_ASSIGNMENT (( #353 ) ) ;
#135 = DIRECTION ( 'NONE',  ( -1.236440607496819135E-16, 1.000000000000000000, 0.000000000000000000 ) ) ;
#136 = DIRECTION ( 'NONE',  ( -0.000000000000000000, -1.000000000000000000, -0.000000000000000000 ) ) ;
#137 = AXIS2_PLACEMENT_3D ( 'NONE', #10, #127, #58 ) ;
#138 = CARTESIAN_POINT ( 'NONE',  ( 0.000000000000000000, 0.000000000000000000, 0.000000000000000000 ) ) ;
#139 = EDGE_LOOP ( 'NONE', ( #217, #218 ) ) ;
#140 = CARTESIAN_POINT ( 'NONE',  ( 0.000000000000000000, 40.00000000000000000, 0.000000000000000000 ) ) ;
#141 = CARTESIAN_POINT ( 'NONE',  ( -10.00000000000000533, 100.0000000000000000, 0.000000000000000000 ) ) ;
#142 = VERTEX_POINT ( 'NONE', #104 ) ;
#143 = VERTEX_POINT ( 'NONE', #334 ) ;
#144 = CARTESIAN_POINT ( 'NONE',  ( -9.999999999999987566, 40.00000000000000000, 0.000000000000000000 ) ) ;
#145 = DIRECTION ( 'NONE',  ( -0.000000000000000000, -1.000000000000000000, -0.000000000000000000 ) ) ;
#146 = ORIENTED_EDGE ( 'NONE', *, *, #315, .F. ) ;
#147 = ADVANCED_FACE ( 'NONE', ( #306 ), #233, .T. ) ;
#148 = CIRCLE ( 'NONE', #74, 9.500000000000000000 ) ;
#149 = APPLICATION_PROTOCOL_DEFINITION ( 'draft international standard', 'automotive_design', 1998, #69 ) ;
#150 = FILL_AREA_STYLE_COLOUR ( '', #59 ) ;
#151 = UNCERTAINTY_MEASURE_WITH_UNIT (LENGTH_MEASURE( 1.000000000000000082E-05 ), #229, 'distance_accuracy_value', 'NONE');
#152 = EDGE_CURVE ( 'NONE', #70, #143, #67, .T. ) ;
#153 = VECTOR ( 'NONE', #136, 1000.000000000000000 ) ;
#154 = MECHANICAL_DESIGN_GEOMETRIC_PRESENTATION_REPRESENTATION (  '', ( #339 ), #266 ) ;
#155 = ORIENTED_EDGE ( 'NONE', *, *, #66, .F. ) ;
#156 = SURFACE_SIDE_STYLE ('',( #227 ) ) ;
#157 = SURFACE_STYLE_USAGE ( .BOTH. , #261 ) ;
#158 = CIRCLE ( 'NONE', #1, 0.5000000000000004441 ) ;
#159 = AXIS2_PLACEMENT_3D ( 'NONE', #209, #169, #250 ) ;
#160 = CYLINDRICAL_SURFACE ( 'NONE', #254, 10.00000000000000000 ) ;
#161 = PLANE ( 'NONE',  #76 ) ;
#162 = DIRECTION ( 'NONE',  ( -1.000000000000000000, 0.000000000000000000, 0.000000000000000000 ) ) ;
#163 = ADVANCED_FACE ( 'NONE', ( #225 ), #52, .T. ) ;
#164 = PRODUCT_DEFINITION_SHAPE ( 'NONE', 'NONE',  #320 ) ;
#165 = CARTESIAN_POINT ( 'NONE',  ( 0.000000000000000000, 0.5000000000000000000, 0.000000000000000000 ) ) ;
#166 = ORIENTED_EDGE ( 'NONE', *, *, #116, .T. ) ;
#167 =( LENGTH_UNIT ( ) NAMED_UNIT ( * ) SI_UNIT ( .MILLI., .METRE. ) );
#168 =( GEOMETRIC_REPRESENTATION_CONTEXT ( 3 ) GLOBAL_UNCERTAINTY_ASSIGNED_CONTEXT ( ( #125 ) ) GLOBAL_UNIT_ASSIGNED_CONTEXT ( ( #20, #368, #333 ) ) REPRESENTATION_CONTEXT ( 'NONE', 'WORKASPACE' ) );
#169 = DIRECTION ( 'NONE',  ( -0.000000000000000000, -1.000000000000000000, -0.000000000000000000 ) ) ;
#170 = EDGE_LOOP ( 'NONE', ( #23, #146 ) ) ;
#171 = DIRECTION ( 'NONE',  ( 1.000000000000000000, 0.000000000000000000, -1.224646799147353207E-16 ) ) ;
#172 = DIRECTION ( 'NONE',  ( 0.000000000000000000, 0.000000000000000000, -1.000000000000000000 ) ) ;
#173 = FACE_OUTER_BOUND ( 'NONE', #308, .T. ) ;
#174 = DIRECTION ( 'NONE',  ( -1.236440607496819135E-16, 1.000000000000000000, -0.000000000000000000 ) ) ;
#175 = EDGE_LOOP ( 'NONE', ( #79, #246, #251, #48 ) ) ;
#176 = EDGE_CURVE ( 'NONE', #143, #142, #158, .T. ) ;
#177 = DIRECTION ( 'NONE',  ( 0.000000000000000000, 0.000000000000000000, 1.000000000000000000 ) ) ;
#178 =( GEOMETRIC_REPRESENTATION_CONTEXT ( 3 ) GLOBAL_UNCERTAINTY_ASSIGNED_CONTEXT ( ( #192 ) ) GLOBAL_UNIT_ASSIGNED_CONTEXT ( ( #29, #238, #332 ) ) REPRESENTATION_CONTEXT ( 'NONE', 'WORKASPACE' ) );
#179 = CARTESIAN_POINT ( 'NONE',  ( 0.000000000000000000, 0.5000000000000000000, 0.000000000000000000 ) ) ;
#180 = CARTESIAN_POINT ( 'NONE',  ( -1.347111479062090180E-15, 100.0000000000000000, 0.000000000000000000 ) ) ;
#181 = CARTESIAN_POINT ( 'NONE',  ( -1.347111479062089982E-15, 100.0000000000000000, 0.000000000000000000 ) ) ;
#182 = ORIENTED_EDGE ( 'NONE', *, *, #40, .F. ) ;
#183 = CIRCLE ( 'NONE', #322, 9.500000000000000000 ) ;
#184 = STYLED_ITEM ( 'NONE', ( #348 ), #274 ) ;
#185 = EDGE_CURVE ( 'NONE', #142, #206, #183, .T. ) ;
#186 = FILL_AREA_STYLE_COLOUR ( '', #347 ) ;
#187 = FACE_OUTER_BOUND ( 'NONE', #170, .T. ) ;
#188 = MANIFOLD_SOLID_BREP ( 'Revolve - Tool Body (Straight Shanked)', #119 ) ;
#189 = MANIFOLD_SOLID_BREP ( 'Revolve - Cutting Edge', #300 ) ;
#190 = ADVANCED_FACE ( 'NONE', ( #187 ), #35, .F. ) ;
#191 =( NAMED_UNIT ( * ) SI_UNIT ( $, .STERADIAN. ) SOLID_ANGLE_UNIT ( ) );
#192 = UNCERTAINTY_MEASURE_WITH_UNIT (LENGTH_MEASURE( 1.000000000000000082E-05 ), #29, 'distance_accuracy_value', 'NONE');
#193 = SURFACE_SIDE_STYLE ('',( #236 ) ) ;
#194 =( GEOMETRIC_REPRESENTATION_CONTEXT ( 3 ) GLOBAL_UNCERTAINTY_ASSIGNED_CONTEXT ( ( #342 ) ) GLOBAL_UNIT_ASSIGNED_CONTEXT ( ( #167, #364, #83 ) ) REPRESENTATION_CONTEXT ( 'NONE', 'WORKASPACE' ) );
#195 = DIRECTION ( 'NONE',  ( -1.236440607496819135E-16, 1.000000000000000000, -0.000000000000000000 ) ) ;
#196 = ADVANCED_FACE ( 'NONE', ( #92 ), #271, .T. ) ;
#197 = VERTEX_POINT ( 'NONE', #96 ) ;
#198 = DIRECTION ( 'NONE',  ( 1.000000000000000000, 1.236440607496819135E-16, 0.000000000000000000 ) ) ;
#199 = VECTOR ( 'NONE', #195, 1000.000000000000000 ) ;
#200 = CYLINDRICAL_SURFACE ( 'NONE', #86, 9.999999999999998224 ) ;
#201 = SURFACE_SIDE_STYLE ('',( #313 ) ) ;
#202 = CARTESIAN_POINT ( 'NONE',  ( -10.00000000000000000, 100.0000000000000000, 0.000000000000000000 ) ) ;
#203 = ORIENTED_EDGE ( 'NONE', *, *, #370, .F. ) ;
#204 = FACE_OUTER_BOUND ( 'NONE', #311, .T. ) ;
#205 = DIRECTION ( 'NONE',  ( 1.000000000000000000, 0.000000000000000000, 0.000000000000000000 ) ) ;
#206 = VERTEX_POINT ( 'NONE', #272 ) ;
#207 = CARTESIAN_POINT ( 'NONE',  ( 0.000000000000000000, 0.000000000000000000, 0.000000000000000000 ) ) ;
#208 = CARTESIAN_POINT ( 'NONE',  ( 0.000000000000000000, 0.5000000000000000000, -9.500000000000000000 ) ) ;
#209 = CARTESIAN_POINT ( 'NONE',  ( 0.000000000000000000, 0.5000000000000000000, 0.000000000000000000 ) ) ;
#210 = STYLED_ITEM ( 'NONE', ( #355 ), #147 ) ;
#211 = STYLED_ITEM ( 'NONE', ( #71 ), #235 ) ;
#212 =( GEOMETRIC_REPRESENTATION_CONTEXT ( 3 ) GLOBAL_UNCERTAINTY_ASSIGNED_CONTEXT ( ( #231 ) ) GLOBAL_UNIT_ASSIGNED_CONTEXT ( ( #123, #91, #95 ) ) REPRESENTATION_CONTEXT ( 'NONE', 'WORKASPACE' ) );
#213 = DIRECTION ( 'NONE',  ( -0.000000000000000000, -1.000000000000000000, -0.000000000000000000 ) ) ;
#214 =( LENGTH_UNIT ( ) NAMED_UNIT ( * ) SI_UNIT ( .MILLI., .METRE. ) );
#215 = EDGE_CURVE ( 'NONE', #197, #279, #120, .T. ) ;
#216 = FACE_OUTER_BOUND ( 'NONE', #105, .T. ) ;
#217 = ORIENTED_EDGE ( 'NONE', *, *, #12, .F. ) ;
#218 = ORIENTED_EDGE ( 'NONE', *, *, #215, .F. ) ;
#219 = SURFACE_STYLE_FILL_AREA ( #239 ) ;
#220 = DIRECTION ( 'NONE',  ( -0.000000000000000000, -1.000000000000000000, -0.000000000000000000 ) ) ;
#221 =( GEOMETRIC_REPRESENTATION_CONTEXT ( 3 ) GLOBAL_UNCERTAINTY_ASSIGNED_CONTEXT ( ( #259 ) ) GLOBAL_UNIT_ASSIGNED_CONTEXT ( ( #22, #18, #275 ) ) REPRESENTATION_CONTEXT ( 'NONE', 'WORKASPACE' ) );
#222 = CIRCLE ( 'NONE', #60, 0.5000000000000004441 ) ;
#223 = SURFACE_STYLE_FILL_AREA ( #73 ) ;
#224 = ORIENTED_EDGE ( 'NONE', *, *, #258, .F. ) ;
#225 = FACE_OUTER_BOUND ( 'NONE', #139, .T. ) ;
#226 = COLOUR_RGB ( '',1.000000000000000000, 0.000000000000000000, 0.000000000000000000 ) ;
#227 = SURFACE_STYLE_FILL_AREA ( #132 ) ;
#228 = SURFACE_STYLE_FILL_AREA ( #90 ) ;
#229 =( LENGTH_UNIT ( ) NAMED_UNIT ( * ) SI_UNIT ( .MILLI., .METRE. ) );
#230 = CARTESIAN_POINT ( 'NONE',  ( 10.00000000000000178, 40.00000000000000000, 1.224646799147353651E-15 ) ) ;
#231 = UNCERTAINTY_MEASURE_WITH_UNIT (LENGTH_MEASURE( 1.000000000000000082E-05 ), #123, 'distance_accuracy_value', 'NONE');
#232 = ADVANCED_FACE ( 'NONE', ( #80 ), #244, .F. ) ;
#233 = TOROIDAL_SURFACE ( 'NONE', #53, 9.500000000000000000, 0.5000000000000002220 ) ;
#234 = MECHANICAL_DESIGN_GEOMETRIC_PRESENTATION_REPRESENTATION (  '', ( #210 ), #221 ) ;
#235 = ADVANCED_FACE ( 'NONE', ( #204 ), #331, .T. ) ;
#236 = SURFACE_STYLE_FILL_AREA ( #288 ) ;
#237 = EDGE_CURVE ( 'NONE', #117, #295, #264, .T. ) ;
#238 =( NAMED_UNIT ( * ) PLANE_ANGLE_UNIT ( ) SI_UNIT ( $, .RADIAN. ) );
#239 = FILL_AREA_STYLE ('',( #310 ) ) ;
#240 = MECHANICAL_DESIGN_GEOMETRIC_PRESENTATION_REPRESENTATION (  '', ( #51 ), #178 ) ;
#241 = COLOUR_RGB ( '',1.000000000000000000, 0.000000000000000000, 0.000000000000000000 ) ;
#242 = ORIENTED_EDGE ( 'NONE', *, *, #315, .T. ) ;
#243 = AXIS2_PLACEMENT_3D ( 'NONE', #181, #122, #2 ) ;
#244 = PLANE ( 'NONE',  #31 ) ;
#245 = SURFACE_SIDE_STYLE ('',( #223 ) ) ;
#246 = ORIENTED_EDGE ( 'NONE', *, *, #299, .T. ) ;
#247 = CARTESIAN_POINT ( 'NONE',  ( 10.00000000000000355, 100.0000000000000000, 1.224646799147353651E-15 ) ) ;
#248 = FILL_AREA_STYLE ('',( #75 ) ) ;
#249 = EDGE_LOOP ( 'NONE', ( #304, #33, #32, #182 ) ) ;
#250 = DIRECTION ( 'NONE',  ( 0.000000000000000000, 0.000000000000000000, -1.000000000000000000 ) ) ;
#251 = ORIENTED_EDGE ( 'NONE', *, *, #185, .F. ) ;
#252 = MECHANICAL_DESIGN_GEOMETRIC_PRESENTATION_REPRESENTATION (  '', ( #101 ), #64 ) ;
#253 = SURFACE_STYLE_FILL_AREA ( #312 ) ;
#254 = AXIS2_PLACEMENT_3D ( 'NONE', #103, #106, #365 ) ;
#255 = MECHANICAL_DESIGN_GEOMETRIC_PRESENTATION_REPRESENTATION (  '', ( #326 ), #212 ) ;
#256 = FILL_AREA_STYLE ('',( #4 ) ) ;
#257 = ORIENTED_EDGE ( 'NONE', *, *, #185, .T. ) ;
#258 = EDGE_CURVE ( 'NONE', #295, #117, #350, .T. ) ;
#259 = UNCERTAINTY_MEASURE_WITH_UNIT (LENGTH_MEASURE( 1.000000000000000082E-05 ), #22, 'distance_accuracy_value', 'NONE');
#260 = ORIENTED_EDGE ( 'NONE', *, *, #237, .F. ) ;
#261 = SURFACE_SIDE_STYLE ('',( #297 ) ) ;
#262 = PRESENTATION_LAYER_ASSIGNMENT (  '', '', ( #51 ) ) ;
#263 = COLOUR_RGB ( '',1.000000000000000000, 0.000000000000000000, 0.000000000000000000 ) ;
#264 = CIRCLE ( 'NONE', #243, 10.00000000000000355 ) ;
#265 =( NAMED_UNIT ( * ) SI_UNIT ( $, .STERADIAN. ) SOLID_ANGLE_UNIT ( ) );
#266 =( GEOMETRIC_REPRESENTATION_CONTEXT ( 3 ) GLOBAL_UNCERTAINTY_ASSIGNED_CONTEXT ( ( #6 ) ) GLOBAL_UNIT_ASSIGNED_CONTEXT ( ( #214, #63, #265 ) ) REPRESENTATION_CONTEXT ( 'NONE', 'WORKASPACE' ) );
#267 = CIRCLE ( 'NONE', #129, 9.999999999999994671 ) ;
#268 = CIRCLE ( 'NONE', #301, 9.999999999999994671 ) ;
#269 = FILL_AREA_STYLE_COLOUR ( '', #226 ) ;
#270 =( NAMED_UNIT ( * ) PLANE_ANGLE_UNIT ( ) SI_UNIT ( $, .RADIAN. ) );
#271 = TOROIDAL_SURFACE ( 'NONE', #318, 9.500000000000000000, 0.5000000000000002220 ) ;
#272 = CARTESIAN_POINT ( 'NONE',  ( 1.194030629168669469E-15, 0.000000000000000000, 9.500000000000000000 ) ) ;
#273 = DIRECTION ( 'NONE',  ( -1.000000000000000000, 0.000000000000000000, 0.000000000000000000 ) ) ;
#274 = ADVANCED_FACE ( 'NONE', ( #296 ), #160, .T. ) ;
#275 =( NAMED_UNIT ( * ) SI_UNIT ( $, .STERADIAN. ) SOLID_ANGLE_UNIT ( ) );
#276 = ORIENTED_EDGE ( 'NONE', *, *, #176, .T. ) ;
#277 = DIRECTION ( 'NONE',  ( -1.236440607496819135E-16, 1.000000000000000000, -0.000000000000000000 ) ) ;
#278 = CARTESIAN_POINT ( 'NONE',  ( 6.071532165918824830E-15, 40.00000000000000000, 0.000000000000000000 ) ) ;
#279 = VERTEX_POINT ( 'NONE', #50 ) ;
#280 = FILL_AREA_STYLE_COLOUR ( '', #77 ) ;
#281 = DIRECTION ( 'NONE',  ( -1.000000000000000000, 0.000000000000000000, 0.000000000000000000 ) ) ;
#282 = DIRECTION ( 'NONE',  ( 0.000000000000000000, 0.000000000000000000, -1.000000000000000000 ) ) ;
#283 = PRESENTATION_LAYER_ASSIGNMENT (  '', '', ( #326 ) ) ;
#284 = CARTESIAN_POINT ( 'NONE',  ( 10.00000000000000178, 100.0000000000000000, 0.000000000000000000 ) ) ;
#285 = MECHANICAL_DESIGN_GEOMETRIC_PRESENTATION_REPRESENTATION (  '', ( #211 ), #194 ) ;
#286 = PRODUCT_DEFINITION_CONTEXT ( 'detailed design', #69, 'design' ) ;
#287 = PRODUCT_CONTEXT ( 'NONE', #359, 'mechanical' ) ;
#288 = FILL_AREA_STYLE ('',( #150 ) ) ;
#289 = ORIENTED_EDGE ( 'NONE', *, *, #152, .T. ) ;
#290 = LINE ( 'NONE', #118, #113 ) ;
#291 = COLOUR_RGB ( '',0.7921568627450980005, 0.8196078431372548767, 0.9333333333333333481 ) ;
#292 = MECHANICAL_DESIGN_GEOMETRIC_PRESENTATION_REPRESENTATION (  '', ( #184 ), #15 ) ;
#293 = ORIENTED_EDGE ( 'NONE', *, *, #40, .T. ) ;
#294 = UNCERTAINTY_MEASURE_WITH_UNIT (LENGTH_MEASURE( 1.000000000000000082E-05 ), #340, 'distance_accuracy_value', 'NONE');
#295 = VERTEX_POINT ( 'NONE', #247 ) ;
#296 = FACE_OUTER_BOUND ( 'NONE', #249, .T. ) ;
#297 = SURFACE_STYLE_FILL_AREA ( #256 ) ;
#298 = DIRECTION ( 'NONE',  ( -1.000000000000000000, -1.236440607496819135E-16, 0.000000000000000000 ) ) ;
#299 = EDGE_CURVE ( 'NONE', #70, #206, #222, .T. ) ;
#300 = CLOSED_SHELL ( 'NONE', ( #274, #196, #93, #147, #235, #163 ) ) ;
#301 = AXIS2_PLACEMENT_3D ( 'NONE', #358, #277, #273 ) ;
#302 = CARTESIAN_POINT ( 'NONE',  ( 1.224646799147353256E-15, 0.5000000000000000000, 10.00000000000000000 ) ) ;
#303 = DIRECTION ( 'NONE',  ( -1.236440607496819135E-16, 1.000000000000000000, -0.000000000000000000 ) ) ;
#304 = ORIENTED_EDGE ( 'NONE', *, *, #12, .T. ) ;
#305 =( NAMED_UNIT ( * ) SI_UNIT ( $, .STERADIAN. ) SOLID_ANGLE_UNIT ( ) );
#306 = FACE_OUTER_BOUND ( 'NONE', #321, .T. ) ;
#307 = AXIS2_PLACEMENT_3D ( 'NONE', #110, #174, #68 ) ;
#308 = EDGE_LOOP ( 'NONE', ( #124, #3, #260, #111 ) ) ;
#309 = DIRECTION ( 'NONE',  ( -1.236440607496819135E-16, 1.000000000000000000, -0.000000000000000000 ) ) ;
#310 = FILL_AREA_STYLE_COLOUR ( '', #241 ) ;
#311 = EDGE_LOOP ( 'NONE', ( #155, #27, #293, #108 ) ) ;
#312 = FILL_AREA_STYLE ('',( #280 ) ) ;
#313 = SURFACE_STYLE_FILL_AREA ( #248 ) ;
#314 = DIRECTION ( 'NONE',  ( -0.000000000000000000, -1.000000000000000000, -0.000000000000000000 ) ) ;
#315 = EDGE_CURVE ( 'NONE', #5, #335, #268, .T. ) ;
#316 = ORIENTED_EDGE ( 'NONE', *, *, #237, .T. ) ;
#317 = PRODUCT_RELATED_PRODUCT_CATEGORY ( 'part', '', ( #344 ) ) ;
#318 = AXIS2_PLACEMENT_3D ( 'NONE', #179, #361, #19 ) ;
#319 = FILL_AREA_STYLE_COLOUR ( '', #291 ) ;
#320 = PRODUCT_DEFINITION ( 'UNKNOWN', '', #362, #286 ) ;
#321 = EDGE_LOOP ( 'NONE', ( #363, #289, #276, #82 ) ) ;
#322 = AXIS2_PLACEMENT_3D ( 'NONE', #21, #369, #72 ) ;
#323 = PRESENTATION_LAYER_ASSIGNMENT (  '', '', ( #211 ) ) ;
#324 = DIRECTION ( 'NONE',  ( 0.000000000000000000, 0.000000000000000000, -1.000000000000000000 ) ) ;
#325 = CARTESIAN_POINT ( 'NONE',  ( -1.347111479062089982E-15, 100.0000000000000000, 0.000000000000000000 ) ) ;
#326 = STYLED_ITEM ( 'NONE', ( #25 ), #188 ) ;
#327 = ADVANCED_FACE ( 'NONE', ( #173 ), #200, .T. ) ;
#328 = VECTOR ( 'NONE', #338, 1000.000000000000000 ) ;
#329 = CYLINDRICAL_SURFACE ( 'NONE', #307, 9.999999999999998224 ) ;
#330 = ORIENTED_EDGE ( 'NONE', *, *, #258, .T. ) ;
#331 = CYLINDRICAL_SURFACE ( 'NONE', #137, 10.00000000000000000 ) ;
#332 =( NAMED_UNIT ( * ) SI_UNIT ( $, .STERADIAN. ) SOLID_ANGLE_UNIT ( ) );
#333 =( NAMED_UNIT ( * ) SI_UNIT ( $, .STERADIAN. ) SOLID_ANGLE_UNIT ( ) );
#334 = CARTESIAN_POINT ( 'NONE',  ( 0.000000000000000000, 0.5000000000000000000, -10.00000000000000000 ) ) ;
#335 = VERTEX_POINT ( 'NONE', #144 ) ;
#336 = PRESENTATION_STYLE_ASSIGNMENT (( #78 ) ) ;
#337 = SHAPE_DEFINITION_REPRESENTATION ( #164, #56 ) ;
#338 = DIRECTION ( 'NONE',  ( -0.000000000000000000, -1.000000000000000000, -0.000000000000000000 ) ) ;
#339 = STYLED_ITEM ( 'NONE', ( #134 ), #163 ) ;
#340 =( LENGTH_UNIT ( ) NAMED_UNIT ( * ) SI_UNIT ( .MILLI., .METRE. ) );
#341 = CIRCLE ( 'NONE', #159, 10.00000000000000000 ) ;
#342 = UNCERTAINTY_MEASURE_WITH_UNIT (LENGTH_MEASURE( 1.000000000000000082E-05 ), #167, 'distance_accuracy_value', 'NONE');
#343 =( NAMED_UNIT ( * ) PLANE_ANGLE_UNIT ( ) SI_UNIT ( $, .RADIAN. ) );
#344 = PRODUCT ( '59666', '59666', '', ( #287 ) ) ;
#345 = SURFACE_STYLE_USAGE ( .BOTH. , #156 ) ;
#346 = STYLED_ITEM ( 'NONE', ( #349 ), #189 ) ;
#347 = COLOUR_RGB ( '',1.000000000000000000, 0.000000000000000000, 0.000000000000000000 ) ;
#348 = PRESENTATION_STYLE_ASSIGNMENT (( #345 ) ) ;
#349 = PRESENTATION_STYLE_ASSIGNMENT (( #61 ) ) ;
#350 = CIRCLE ( 'NONE', #131, 10.00000000000000355 ) ;
#351 = CARTESIAN_POINT ( 'NONE',  ( 0.000000000000000000, 40.00000000000000000, 0.000000000000000000 ) ) ;
#352 = DIRECTION ( 'NONE',  ( 0.000000000000000000, 0.000000000000000000, 1.000000000000000000 ) ) ;
#353 = SURFACE_STYLE_USAGE ( .BOTH. , #193 ) ;
#354 = AXIS2_PLACEMENT_3D ( 'NONE', #26, #314, #282 ) ;
#355 = PRESENTATION_STYLE_ASSIGNMENT (( #81 ) ) ;
#356 = DIRECTION ( 'NONE',  ( 1.236440607496819135E-16, -1.000000000000000000, 0.000000000000000000 ) ) ;
#357 = LINE ( 'NONE', #202, #199 ) ;
#358 = CARTESIAN_POINT ( 'NONE',  ( 6.071532165918824830E-15, 40.00000000000000000, 0.000000000000000000 ) ) ;
#359 = APPLICATION_CONTEXT ( 'automotive_design' ) ;
#360 = EDGE_CURVE ( 'NONE', #143, #70, #341, .T. ) ;
#361 = DIRECTION ( 'NONE',  ( -0.000000000000000000, -1.000000000000000000, -0.000000000000000000 ) ) ;
#362 = PRODUCT_DEFINITION_FORMATION_WITH_SPECIFIED_SOURCE ( 'ANY', '', #344, .NOT_KNOWN. ) ;
#363 = ORIENTED_EDGE ( 'NONE', *, *, #299, .F. ) ;
#364 =( NAMED_UNIT ( * ) PLANE_ANGLE_UNIT ( ) SI_UNIT ( $, .RADIAN. ) );
#365 = DIRECTION ( 'NONE',  ( 0.000000000000000000, 0.000000000000000000, -1.000000000000000000 ) ) ;
#366 = CARTESIAN_POINT ( 'NONE',  ( 0.000000000000000000, 0.000000000000000000, -10.00000000000000000 ) ) ;
#367 = DIRECTION ( 'NONE',  ( -1.236440607496819135E-16, 1.000000000000000000, -0.000000000000000000 ) ) ;
#368 =( NAMED_UNIT ( * ) PLANE_ANGLE_UNIT ( ) SI_UNIT ( $, .RADIAN. ) );
#369 = DIRECTION ( 'NONE',  ( -0.000000000000000000, -1.000000000000000000, -0.000000000000000000 ) ) ;
#370 = EDGE_CURVE ( 'NONE', #5, #295, #290, .T. ) ;
ENDSEC;
END-ISO-10303-21;
