ISO-10303-21;
HEADER;
FILE_DESCRIPTION (( 'STEP AP214' ),
    '1' );
FILE_NAME ('24662.STEP',
    '2023-06-22T17:25:31',
    ( '' ),
    ( '' ),
    'SwSTEP 2.0',
    'SolidWorks 2023',
    '' );
FILE_SCHEMA (( 'AUTOMOTIVE_DESIGN' ));
ENDSEC;

DATA;
#1 = MECHANICAL_DESIGN_GEOMETRIC_PRESENTATION_REPRESENTATION (  '', ( #71 ), #305 ) ;
#2 = SURFACE_STYLE_USAGE ( .BOTH. , #27 ) ;
#3 = PRODUCT_RELATED_PRODUCT_CATEGORY ( 'part', '', ( #25 ) ) ;
#4 = AXIS2_PLACEMENT_3D ( 'NONE', #281, #58, #262 ) ;
#5 = MANIFOLD_SOLID_BREP ( 'Revolve - Tool Body (Straight Shanked)', #214 ) ;
#6 =( LENGTH_UNIT ( ) NAMED_UNIT ( * ) SI_UNIT ( $, .METRE. ) );
#7 = DIRECTION ( 'NONE',  ( -7.347880794884116531E-17, 1.000000000000000000, -0.000000000000000000 ) ) ;
#8 = PRESENTATION_LAYER_ASSIGNMENT (  '', '', ( #200 ) ) ;
#9 = SURFACE_STYLE_FILL_AREA ( #232 ) ;
#10 = LENGTH_MEASURE_WITH_UNIT ( LENGTH_MEASURE( 0.02539999999999999897 ), #6 );
#11 =( LENGTH_UNIT ( ) NAMED_UNIT ( * ) SI_UNIT ( $, .METRE. ) );
#12 = AXIS2_PLACEMENT_3D ( 'NONE', #166, #60, #42 ) ;
#13 = AXIS2_PLACEMENT_3D ( 'NONE', #306, #115, #176 ) ;
#14 = LINE ( 'NONE', #301, #133 ) ;
#15 = PRODUCT_DEFINITION_CONTEXT ( 'detailed design', #212, 'design' ) ;
#16 =( CONVERSION_BASED_UNIT ( 'INCH', #167 ) LENGTH_UNIT ( ) NAMED_UNIT ( #121 ) );
#17 =( GEOMETRIC_REPRESENTATION_CONTEXT ( 3 ) GLOBAL_UNCERTAINTY_ASSIGNED_CONTEXT ( ( #239 ) ) GLOBAL_UNIT_ASSIGNED_CONTEXT ( ( #129, #109, #61 ) ) REPRESENTATION_CONTEXT ( 'NONE', 'WORKASPACE' ) );
#18 = CYLINDRICAL_SURFACE ( 'NONE', #124, 0.6250000000000000000 ) ;
#19 = FILL_AREA_STYLE ('',( #223 ) ) ;
#20 = COLOUR_RGB ( '',0.7921568627450980005, 0.8196078431372548767, 0.9333333333333333481 ) ;
#21 = DIRECTION ( 'NONE',  ( -1.000000000000000000, 0.000000000000000000, 0.000000000000000000 ) ) ;
#22 = EDGE_LOOP ( 'NONE', ( #210, #257 ) ) ;
#23 = FILL_AREA_STYLE_COLOUR ( '', #291 ) ;
#24 = AXIS2_PLACEMENT_3D ( 'NONE', #201, #196, #116 ) ;
#25 = PRODUCT ( '24662', '24662', '', ( #136 ) ) ;
#26 = EDGE_LOOP ( 'NONE', ( #117, #203, #48, #51 ) ) ;
#27 = SURFACE_SIDE_STYLE ('',( #197 ) ) ;
#28 = CIRCLE ( 'NONE', #82, 0.6250000000000000000 ) ;
#29 = DIRECTION ( 'NONE',  ( 0.000000000000000000, 0.000000000000000000, -1.000000000000000000 ) ) ;
#30 = CARTESIAN_POINT ( 'NONE',  ( 0.000000000000000000, 5.000000000000000000, 0.000000000000000000 ) ) ;
#31 = ORIENTED_EDGE ( 'NONE', *, *, #292, .T. ) ;
#32 =( NAMED_UNIT ( * ) PLANE_ANGLE_UNIT ( ) SI_UNIT ( $, .RADIAN. ) );
#33 = CIRCLE ( 'NONE', #13, 0.6250000000000000000 ) ;
#34 = ORIENTED_EDGE ( 'NONE', *, *, #137, .T. ) ;
#35 = PRESENTATION_STYLE_ASSIGNMENT (( #240 ) ) ;
#36 = ORIENTED_EDGE ( 'NONE', *, *, #290, .T. ) ;
#37 = CARTESIAN_POINT ( 'NONE',  ( 7.654042494670957853E-17, 0.000000000000000000, 0.6250000000000000000 ) ) ;
#38 = EDGE_CURVE ( 'NONE', #101, #150, #52, .T. ) ;
#39 = DIRECTION ( 'NONE',  ( 1.000000000000000000, 0.000000000000000000, 0.000000000000000000 ) ) ;
#40 = SURFACE_STYLE_USAGE ( .BOTH. , #211 ) ;
#41 = MECHANICAL_DESIGN_GEOMETRIC_PRESENTATION_REPRESENTATION (  '', ( #215 ), #68 ) ;
#42 = DIRECTION ( 'NONE',  ( 0.000000000000000000, 0.000000000000000000, -1.000000000000000000 ) ) ;
#43 = EDGE_CURVE ( 'NONE', #295, #55, #149, .T. ) ;
#44 = DIRECTION ( 'NONE',  ( 7.347880794884116531E-17, -1.000000000000000000, 0.000000000000000000 ) ) ;
#45 = DIRECTION ( 'NONE',  ( -1.000000000000000000, 0.000000000000000000, 0.000000000000000000 ) ) ;
#46 = ADVANCED_FACE ( 'NONE', ( #54 ), #153, .T. ) ;
#47 = SURFACE_STYLE_FILL_AREA ( #273 ) ;
#48 = ORIENTED_EDGE ( 'NONE', *, *, #222, .F. ) ;
#49 = DIMENSIONAL_EXPONENTS ( 1.000000000000000000, 0.000000000000000000, 0.000000000000000000, 0.000000000000000000, 0.000000000000000000, 0.000000000000000000, 0.000000000000000000 ) ;
#50 = VECTOR ( 'NONE', #80, 39.37007874015748143 ) ;
#51 = ORIENTED_EDGE ( 'NONE', *, *, #292, .F. ) ;
#52 = LINE ( 'NONE', #151, #244 ) ;
#53 =( CONVERSION_BASED_UNIT ( 'INCH', #245 ) LENGTH_UNIT ( ) NAMED_UNIT ( #49 ) );
#54 = FACE_OUTER_BOUND ( 'NONE', #26, .T. ) ;
#55 = VERTEX_POINT ( 'NONE', #62 ) ;
#56 = VERTEX_POINT ( 'NONE', #284 ) ;
#57 =( NAMED_UNIT ( * ) PLANE_ANGLE_UNIT ( ) SI_UNIT ( $, .RADIAN. ) );
#58 = DIRECTION ( 'NONE',  ( -7.347880794884116531E-17, 1.000000000000000000, 0.000000000000000000 ) ) ;
#59 =( LENGTH_UNIT ( ) NAMED_UNIT ( * ) SI_UNIT ( $, .METRE. ) );
#60 = DIRECTION ( 'NONE',  ( -0.000000000000000000, -1.000000000000000000, -0.000000000000000000 ) ) ;
#61 =( NAMED_UNIT ( * ) SI_UNIT ( $, .STERADIAN. ) SOLID_ANGLE_UNIT ( ) );
#62 = CARTESIAN_POINT ( 'NONE',  ( 7.654042494670957853E-17, 5.000000000000000000, 0.6250000000000000000 ) ) ;
#63 =( NAMED_UNIT ( * ) SI_UNIT ( $, .STERADIAN. ) SOLID_ANGLE_UNIT ( ) );
#64 =( GEOMETRIC_REPRESENTATION_CONTEXT ( 3 ) GLOBAL_UNCERTAINTY_ASSIGNED_CONTEXT ( ( #250 ) ) GLOBAL_UNIT_ASSIGNED_CONTEXT ( ( #16, #269, #63 ) ) REPRESENTATION_CONTEXT ( 'NONE', 'WORKASPACE' ) );
#65 = DIRECTION ( 'NONE',  ( -1.000000000000000000, 0.000000000000000000, 0.000000000000000000 ) ) ;
#66 = CARTESIAN_POINT ( 'NONE',  ( 0.000000000000000000, 5.000000000000000000, 0.000000000000000000 ) ) ;
#67 = ORIENTED_EDGE ( 'NONE', *, *, #122, .T. ) ;
#68 =( GEOMETRIC_REPRESENTATION_CONTEXT ( 3 ) GLOBAL_UNCERTAINTY_ASSIGNED_CONTEXT ( ( #114 ) ) GLOBAL_UNIT_ASSIGNED_CONTEXT ( ( #304, #285, #188 ) ) REPRESENTATION_CONTEXT ( 'NONE', 'WORKASPACE' ) );
#69 = ADVANCED_FACE ( 'NONE', ( #300 ), #190, .T. ) ;
#70 = FILL_AREA_STYLE ('',( #234 ) ) ;
#71 = STYLED_ITEM ( 'NONE', ( #118 ), #236 ) ;
#72 = ORIENTED_EDGE ( 'NONE', *, *, #256, .F. ) ;
#73 = EDGE_CURVE ( 'NONE', #55, #96, #14, .T. ) ;
#74 = LENGTH_MEASURE_WITH_UNIT ( LENGTH_MEASURE( 0.02539999999999999897 ), #213 );
#75 =( CONVERSION_BASED_UNIT ( 'INCH', #10 ) LENGTH_UNIT ( ) NAMED_UNIT ( #198 ) );
#76 = LENGTH_MEASURE_WITH_UNIT ( LENGTH_MEASURE( 0.02539999999999999897 ), #154 );
#77 = CIRCLE ( 'NONE', #303, 0.6250000000000000000 ) ;
#78 = EDGE_LOOP ( 'NONE', ( #123, #275 ) ) ;
#79 = PLANE ( 'NONE',  #4 ) ;
#80 = DIRECTION ( 'NONE',  ( -0.000000000000000000, -1.000000000000000000, -0.000000000000000000 ) ) ;
#81 = CYLINDRICAL_SURFACE ( 'NONE', #278, 0.6250000000000000000 ) ;
#82 = AXIS2_PLACEMENT_3D ( 'NONE', #30, #189, #299 ) ;
#83 = CARTESIAN_POINT ( 'NONE',  ( 0.000000000000000000, 0.000000000000000000, -0.6250000000000000000 ) ) ;
#84 = AXIS2_PLACEMENT_3D ( 'NONE', #261, #206, #233 ) ;
#85 = PRODUCT_DEFINITION ( 'UNKNOWN', '', #95, #15 ) ;
#86 = ADVANCED_BREP_SHAPE_REPRESENTATION ( '24662', ( #102, #5, #119 ), #17 ) ;
#87 = FACE_OUTER_BOUND ( 'NONE', #229, .T. ) ;
#88 =( LENGTH_UNIT ( ) NAMED_UNIT ( * ) SI_UNIT ( $, .METRE. ) );
#89 = CARTESIAN_POINT ( 'NONE',  ( -1.836970198721029194E-16, 7.500000000000000000, 0.000000000000000000 ) ) ;
#90 = AXIS2_PLACEMENT_3D ( 'NONE', #280, #237, #255 ) ;
#91 = FACE_OUTER_BOUND ( 'NONE', #227, .T. ) ;
#92 = COLOUR_RGB ( '',1.000000000000000000, 0.000000000000000000, 0.000000000000000000 ) ;
#93 = DIMENSIONAL_EXPONENTS ( 1.000000000000000000, 0.000000000000000000, 0.000000000000000000, 0.000000000000000000, 0.000000000000000000, 0.000000000000000000, 0.000000000000000000 ) ;
#94 = ADVANCED_FACE ( 'NONE', ( #243 ), #79, .F. ) ;
#95 = PRODUCT_DEFINITION_FORMATION_WITH_SPECIFIED_SOURCE ( 'ANY', '', #25, .NOT_KNOWN. ) ;
#96 = VERTEX_POINT ( 'NONE', #37 ) ;
#97 =( NAMED_UNIT ( * ) SI_UNIT ( $, .STERADIAN. ) SOLID_ANGLE_UNIT ( ) );
#98 = PLANE ( 'NONE',  #297 ) ;
#99 = ADVANCED_FACE ( 'NONE', ( #134 ), #81, .T. ) ;
#100 = DIRECTION ( 'NONE',  ( -7.347880794884116531E-17, 1.000000000000000000, -0.000000000000000000 ) ) ;
#101 = VERTEX_POINT ( 'NONE', #204 ) ;
#102 = MANIFOLD_SOLID_BREP ( 'Revolve - Cutting Edge', #162 ) ;
#103 = COLOUR_RGB ( '',1.000000000000000000, 0.000000000000000000, 0.000000000000000000 ) ;
#104 = SURFACE_STYLE_FILL_AREA ( #138 ) ;
#105 = LINE ( 'NONE', #83, #50 ) ;
#106 = CARTESIAN_POINT ( 'NONE',  ( -1.836970198721029194E-16, 7.500000000000000000, 0.000000000000000000 ) ) ;
#107 = DIRECTION ( 'NONE',  ( 0.000000000000000000, 0.000000000000000000, -1.000000000000000000 ) ) ;
#108 = CARTESIAN_POINT ( 'NONE',  ( 0.000000000000000000, 5.000000000000000000, 0.000000000000000000 ) ) ;
#109 =( NAMED_UNIT ( * ) PLANE_ANGLE_UNIT ( ) SI_UNIT ( $, .RADIAN. ) );
#110 = DIRECTION ( 'NONE',  ( 0.000000000000000000, -0.000000000000000000, 1.000000000000000000 ) ) ;
#111 = PRESENTATION_LAYER_ASSIGNMENT (  '', '', ( #226 ) ) ;
#112 = ADVANCED_FACE ( 'NONE', ( #91 ), #18, .T. ) ;
#113 = DIRECTION ( 'NONE',  ( -7.347880794884116531E-17, 1.000000000000000000, -0.000000000000000000 ) ) ;
#114 = UNCERTAINTY_MEASURE_WITH_UNIT (LENGTH_MEASURE( 1.000000000000000082E-05 ), #304, 'distance_accuracy_value', 'NONE');
#115 = DIRECTION ( 'NONE',  ( -0.000000000000000000, -1.000000000000000000, -0.000000000000000000 ) ) ;
#116 = DIRECTION ( 'NONE',  ( -1.000000000000000000, 0.000000000000000000, 0.000000000000000000 ) ) ;
#117 = ORIENTED_EDGE ( 'NONE', *, *, #43, .T. ) ;
#118 = PRESENTATION_STYLE_ASSIGNMENT (( #248 ) ) ;
#119 = AXIS2_PLACEMENT_3D ( 'NONE', #163, #165, #39 ) ;
#120 = PRESENTATION_LAYER_ASSIGNMENT (  '', '', ( #215 ) ) ;
#121 = DIMENSIONAL_EXPONENTS ( 1.000000000000000000, 0.000000000000000000, 0.000000000000000000, 0.000000000000000000, 0.000000000000000000, 0.000000000000000000, 0.000000000000000000 ) ;
#122 = EDGE_CURVE ( 'NONE', #56, #150, #168, .T. ) ;
#123 = ORIENTED_EDGE ( 'NONE', *, *, #290, .F. ) ;
#124 = AXIS2_PLACEMENT_3D ( 'NONE', #89, #247, #21 ) ;
#125 = FILL_AREA_STYLE_COLOUR ( '', #103 ) ;
#126 = CYLINDRICAL_SURFACE ( 'NONE', #84, 0.6250000000000000000 ) ;
#127 = APPLICATION_CONTEXT ( 'automotive_design' ) ;
#128 = ORIENTED_EDGE ( 'NONE', *, *, #222, .T. ) ;
#129 =( CONVERSION_BASED_UNIT ( 'INCH', #76 ) LENGTH_UNIT ( ) NAMED_UNIT ( #193 ) );
#130 = SURFACE_SIDE_STYLE ('',( #183 ) ) ;
#131 = UNCERTAINTY_MEASURE_WITH_UNIT (LENGTH_MEASURE( 1.000000000000000082E-05 ), #235, 'distance_accuracy_value', 'NONE');
#132 = FILL_AREA_STYLE_COLOUR ( '', #194 ) ;
#133 = VECTOR ( 'NONE', #140, 39.37007874015748143 ) ;
#134 = FACE_OUTER_BOUND ( 'NONE', #259, .T. ) ;
#135 = SURFACE_SIDE_STYLE ('',( #161 ) ) ;
#136 = PRODUCT_CONTEXT ( 'NONE', #127, 'mechanical' ) ;
#137 = EDGE_CURVE ( 'NONE', #205, #101, #77, .T. ) ;
#138 = FILL_AREA_STYLE ('',( #241 ) ) ;
#139 = PRESENTATION_STYLE_ASSIGNMENT (( #40 ) ) ;
#140 = DIRECTION ( 'NONE',  ( -0.000000000000000000, -1.000000000000000000, -0.000000000000000000 ) ) ;
#141 = EDGE_CURVE ( 'NONE', #150, #56, #174, .T. ) ;
#142 = PRESENTATION_STYLE_ASSIGNMENT (( #2 ) ) ;
#143 = PRESENTATION_LAYER_ASSIGNMENT (  '', '', ( #225 ) ) ;
#144 = ORIENTED_EDGE ( 'NONE', *, *, #141, .T. ) ;
#145 = SURFACE_SIDE_STYLE ('',( #47 ) ) ;
#146 = ORIENTED_EDGE ( 'NONE', *, *, #195, .T. ) ;
#147 =( GEOMETRIC_REPRESENTATION_CONTEXT ( 3 ) GLOBAL_UNCERTAINTY_ASSIGNED_CONTEXT ( ( #131 ) ) GLOBAL_UNIT_ASSIGNED_CONTEXT ( ( #235, #57, #279 ) ) REPRESENTATION_CONTEXT ( 'NONE', 'WORKASPACE' ) );
#148 =( NAMED_UNIT ( * ) SI_UNIT ( $, .STERADIAN. ) SOLID_ANGLE_UNIT ( ) );
#149 = CIRCLE ( 'NONE', #251, 0.6250000000000000000 ) ;
#150 = VERTEX_POINT ( 'NONE', #287 ) ;
#151 = CARTESIAN_POINT ( 'NONE',  ( -0.6250000000000001110, 7.500000000000000000, 0.000000000000000000 ) ) ;
#152 =( NAMED_UNIT ( * ) SI_UNIT ( $, .STERADIAN. ) SOLID_ANGLE_UNIT ( ) );
#153 = CYLINDRICAL_SURFACE ( 'NONE', #12, 0.6250000000000000000 ) ;
#154 =( LENGTH_UNIT ( ) NAMED_UNIT ( * ) SI_UNIT ( $, .METRE. ) );
#155 = MECHANICAL_DESIGN_GEOMETRIC_PRESENTATION_REPRESENTATION (  '', ( #307 ), #221 ) ;
#156 = EDGE_LOOP ( 'NONE', ( #144, #67 ) ) ;
#157 = ADVANCED_FACE ( 'NONE', ( #172 ), #98, .F. ) ;
#158 = ORIENTED_EDGE ( 'NONE', *, *, #122, .F. ) ;
#159 = DIRECTION ( 'NONE',  ( 0.000000000000000000, -1.000000000000000000, -0.000000000000000000 ) ) ;
#160 = SURFACE_STYLE_USAGE ( .BOTH. , #186 ) ;
#161 = SURFACE_STYLE_FILL_AREA ( #185 ) ;
#162 = CLOSED_SHELL ( 'NONE', ( #46, #69, #302, #236 ) ) ;
#163 = CARTESIAN_POINT ( 'NONE',  ( 0.000000000000000000, 0.000000000000000000, 0.000000000000000000 ) ) ;
#164 = MECHANICAL_DESIGN_GEOMETRIC_PRESENTATION_REPRESENTATION (  '', ( #200 ), #147 ) ;
#165 = DIRECTION ( 'NONE',  ( 0.000000000000000000, 0.000000000000000000, 1.000000000000000000 ) ) ;
#166 = CARTESIAN_POINT ( 'NONE',  ( 0.000000000000000000, 0.000000000000000000, 0.000000000000000000 ) ) ;
#167 = LENGTH_MEASURE_WITH_UNIT ( LENGTH_MEASURE( 0.02539999999999999897 ), #11 );
#168 = CIRCLE ( 'NONE', #24, 0.6250000000000001110 ) ;
#169 = APPLICATION_PROTOCOL_DEFINITION ( 'draft international standard', 'automotive_design', 1998, #212 ) ;
#170 = CARTESIAN_POINT ( 'NONE',  ( 0.6249999999999998890, 7.500000000000000000, 7.654042494670957853E-17 ) ) ;
#171 = PRESENTATION_LAYER_ASSIGNMENT (  '', '', ( #71 ) ) ;
#172 = FACE_OUTER_BOUND ( 'NONE', #156, .T. ) ;
#173 = LINE ( 'NONE', #170, #231 ) ;
#174 = CIRCLE ( 'NONE', #202, 0.6250000000000001110 ) ;
#175 = VERTEX_POINT ( 'NONE', #219 ) ;
#176 = DIRECTION ( 'NONE',  ( 0.000000000000000000, 0.000000000000000000, -1.000000000000000000 ) ) ;
#177 = UNCERTAINTY_MEASURE_WITH_UNIT (LENGTH_MEASURE( 1.000000000000000082E-05 ), #298, 'distance_accuracy_value', 'NONE');
#178 = PRESENTATION_LAYER_ASSIGNMENT (  '', '', ( #307 ) ) ;
#179 = DIRECTION ( 'NONE',  ( -0.000000000000000000, -1.000000000000000000, -0.000000000000000000 ) ) ;
#180 = SURFACE_STYLE_USAGE ( .BOTH. , #130 ) ;
#181 = ORIENTED_EDGE ( 'NONE', *, *, #73, .F. ) ;
#182 = CARTESIAN_POINT ( 'NONE',  ( 0.000000000000000000, 0.000000000000000000, 0.000000000000000000 ) ) ;
#183 = SURFACE_STYLE_FILL_AREA ( #70 ) ;
#184 = CIRCLE ( 'NONE', #264, 0.6250000000000000000 ) ;
#185 = FILL_AREA_STYLE ('',( #132 ) ) ;
#186 = SURFACE_SIDE_STYLE ('',( #9 ) ) ;
#187 = CARTESIAN_POINT ( 'NONE',  ( 0.000000000000000000, 5.000000000000000000, -0.6250000000000000000 ) ) ;
#188 =( NAMED_UNIT ( * ) SI_UNIT ( $, .STERADIAN. ) SOLID_ANGLE_UNIT ( ) );
#189 = DIRECTION ( 'NONE',  ( -7.347880794884116531E-17, 1.000000000000000000, -0.000000000000000000 ) ) ;
#190 = PLANE ( 'NONE',  #258 ) ;
#191 =( LENGTH_UNIT ( ) NAMED_UNIT ( * ) SI_UNIT ( $, .METRE. ) );
#192 = UNCERTAINTY_MEASURE_WITH_UNIT (LENGTH_MEASURE( 1.000000000000000082E-05 ), #53, 'distance_accuracy_value', 'NONE');
#193 = DIMENSIONAL_EXPONENTS ( 1.000000000000000000, 0.000000000000000000, 0.000000000000000000, 0.000000000000000000, 0.000000000000000000, 0.000000000000000000, 0.000000000000000000 ) ;
#194 = COLOUR_RGB ( '',1.000000000000000000, 0.000000000000000000, 0.000000000000000000 ) ;
#195 = EDGE_CURVE ( 'NONE', #55, #295, #184, .T. ) ;
#196 = DIRECTION ( 'NONE',  ( -7.347880794884116531E-17, 1.000000000000000000, -0.000000000000000000 ) ) ;
#197 = SURFACE_STYLE_FILL_AREA ( #19 ) ;
#198 = DIMENSIONAL_EXPONENTS ( 1.000000000000000000, 0.000000000000000000, 0.000000000000000000, 0.000000000000000000, 0.000000000000000000, 0.000000000000000000, 0.000000000000000000 ) ;
#199 = DIRECTION ( 'NONE',  ( -1.000000000000000000, 0.000000000000000000, 0.000000000000000000 ) ) ;
#200 = STYLED_ITEM ( 'NONE', ( #35 ), #302 ) ;
#201 = CARTESIAN_POINT ( 'NONE',  ( -1.836970198721029194E-16, 7.500000000000000000, 0.000000000000000000 ) ) ;
#202 = AXIS2_PLACEMENT_3D ( 'NONE', #220, #7, #65 ) ;
#203 = ORIENTED_EDGE ( 'NONE', *, *, #73, .T. ) ;
#204 = CARTESIAN_POINT ( 'NONE',  ( -0.6250000000000000000, 5.000000000000000000, 0.000000000000000000 ) ) ;
#205 = VERTEX_POINT ( 'NONE', #246 ) ;
#206 = DIRECTION ( 'NONE',  ( -0.000000000000000000, -1.000000000000000000, -0.000000000000000000 ) ) ;
#207 =( NAMED_UNIT ( * ) PLANE_ANGLE_UNIT ( ) SI_UNIT ( $, .RADIAN. ) );
#208 = CIRCLE ( 'NONE', #90, 0.6250000000000000000 ) ;
#209 = EDGE_CURVE ( 'NONE', #205, #56, #173, .T. ) ;
#210 = ORIENTED_EDGE ( 'NONE', *, *, #43, .F. ) ;
#211 = SURFACE_SIDE_STYLE ('',( #104 ) ) ;
#212 = APPLICATION_CONTEXT ( 'automotive_design' ) ;
#213 =( LENGTH_UNIT ( ) NAMED_UNIT ( * ) SI_UNIT ( $, .METRE. ) );
#214 = CLOSED_SHELL ( 'NONE', ( #99, #94, #112, #157 ) ) ;
#215 = STYLED_ITEM ( 'NONE', ( #139 ), #69 ) ;
#216 = PRESENTATION_STYLE_ASSIGNMENT (( #160 ) ) ;
#217 = LENGTH_MEASURE_WITH_UNIT ( LENGTH_MEASURE( 0.02539999999999999897 ), #191 );
#218 = AXIS2_PLACEMENT_3D ( 'NONE', #182, #159, #107 ) ;
#219 = CARTESIAN_POINT ( 'NONE',  ( 0.000000000000000000, 0.000000000000000000, -0.6250000000000000000 ) ) ;
#220 = CARTESIAN_POINT ( 'NONE',  ( -1.836970198721029194E-16, 7.500000000000000000, 0.000000000000000000 ) ) ;
#221 =( GEOMETRIC_REPRESENTATION_CONTEXT ( 3 ) GLOBAL_UNCERTAINTY_ASSIGNED_CONTEXT ( ( #192 ) ) GLOBAL_UNIT_ASSIGNED_CONTEXT ( ( #53, #286, #148 ) ) REPRESENTATION_CONTEXT ( 'NONE', 'WORKASPACE' ) );
#222 = EDGE_CURVE ( 'NONE', #175, #96, #33, .T. ) ;
#223 = FILL_AREA_STYLE_COLOUR ( '', #268 ) ;
#224 = ORIENTED_EDGE ( 'NONE', *, *, #141, .F. ) ;
#225 = STYLED_ITEM ( 'NONE', ( #293 ), #5 ) ;
#226 = STYLED_ITEM ( 'NONE', ( #216 ), #46 ) ;
#227 = EDGE_LOOP ( 'NONE', ( #249, #34, #309, #158 ) ) ;
#228 = DIRECTION ( 'NONE',  ( -7.347880794884116531E-17, 1.000000000000000000, -0.000000000000000000 ) ) ;
#229 = EDGE_LOOP ( 'NONE', ( #128, #277 ) ) ;
#230 = MECHANICAL_DESIGN_GEOMETRIC_PRESENTATION_REPRESENTATION (  '', ( #225 ), #274 ) ;
#231 = VECTOR ( 'NONE', #113, 39.37007874015748143 ) ;
#232 = FILL_AREA_STYLE ('',( #125 ) ) ;
#233 = DIRECTION ( 'NONE',  ( 0.000000000000000000, 0.000000000000000000, -1.000000000000000000 ) ) ;
#234 = FILL_AREA_STYLE_COLOUR ( '', #20 ) ;
#235 =( CONVERSION_BASED_UNIT ( 'INCH', #74 ) LENGTH_UNIT ( ) NAMED_UNIT ( #93 ) );
#236 = ADVANCED_FACE ( 'NONE', ( #87 ), #270, .T. ) ;
#237 = DIRECTION ( 'NONE',  ( -0.000000000000000000, -1.000000000000000000, -0.000000000000000000 ) ) ;
#238 = MECHANICAL_DESIGN_GEOMETRIC_PRESENTATION_REPRESENTATION (  '', ( #226 ), #64 ) ;
#239 = UNCERTAINTY_MEASURE_WITH_UNIT (LENGTH_MEASURE( 1.000000000000000082E-05 ), #129, 'distance_accuracy_value', 'NONE');
#240 = SURFACE_STYLE_USAGE ( .BOTH. , #135 ) ;
#241 = FILL_AREA_STYLE_COLOUR ( '', #92 ) ;
#242 = SHAPE_DEFINITION_REPRESENTATION ( #267, #86 ) ;
#243 = FACE_OUTER_BOUND ( 'NONE', #78, .T. ) ;
#244 = VECTOR ( 'NONE', #100, 39.37007874015748143 ) ;
#245 = LENGTH_MEASURE_WITH_UNIT ( LENGTH_MEASURE( 0.02539999999999999897 ), #88 );
#246 = CARTESIAN_POINT ( 'NONE',  ( 0.6250000000000000000, 5.000000000000000000, 7.654042494670957853E-17 ) ) ;
#247 = DIRECTION ( 'NONE',  ( -7.347880794884116531E-17, 1.000000000000000000, -0.000000000000000000 ) ) ;
#248 = SURFACE_STYLE_USAGE ( .BOTH. , #145 ) ;
#249 = ORIENTED_EDGE ( 'NONE', *, *, #209, .F. ) ;
#250 = UNCERTAINTY_MEASURE_WITH_UNIT (LENGTH_MEASURE( 1.000000000000000082E-05 ), #16, 'distance_accuracy_value', 'NONE');
#251 = AXIS2_PLACEMENT_3D ( 'NONE', #294, #254, #29 ) ;
#252 = EDGE_LOOP ( 'NONE', ( #181, #146, #31, #72 ) ) ;
#253 = UNCERTAINTY_MEASURE_WITH_UNIT (LENGTH_MEASURE( 1.000000000000000082E-05 ), #75, 'distance_accuracy_value', 'NONE');
#254 = DIRECTION ( 'NONE',  ( -0.000000000000000000, -1.000000000000000000, -0.000000000000000000 ) ) ;
#255 = DIRECTION ( 'NONE',  ( 0.000000000000000000, 0.000000000000000000, -1.000000000000000000 ) ) ;
#256 = EDGE_CURVE ( 'NONE', #96, #175, #208, .T. ) ;
#257 = ORIENTED_EDGE ( 'NONE', *, *, #195, .F. ) ;
#258 = AXIS2_PLACEMENT_3D ( 'NONE', #108, #265, #110 ) ;
#259 = EDGE_LOOP ( 'NONE', ( #36, #296, #224, #260 ) ) ;
#260 = ORIENTED_EDGE ( 'NONE', *, *, #38, .F. ) ;
#261 = CARTESIAN_POINT ( 'NONE',  ( 0.000000000000000000, 0.000000000000000000, 0.000000000000000000 ) ) ;
#262 = DIRECTION ( 'NONE',  ( -1.000000000000000000, -7.347880794884116531E-17, 0.000000000000000000 ) ) ;
#263 = LENGTH_MEASURE_WITH_UNIT ( LENGTH_MEASURE( 0.02539999999999999897 ), #59 );
#264 = AXIS2_PLACEMENT_3D ( 'NONE', #66, #179, #276 ) ;
#265 = DIRECTION ( 'NONE',  ( 0.000000000000000000, 1.000000000000000000, 0.000000000000000000 ) ) ;
#266 = APPLICATION_PROTOCOL_DEFINITION ( 'draft international standard', 'automotive_design', 1998, #127 ) ;
#267 = PRODUCT_DEFINITION_SHAPE ( 'NONE', 'NONE',  #85 ) ;
#268 = COLOUR_RGB ( '',0.7921568627450980005, 0.8196078431372548767, 0.9333333333333333481 ) ;
#269 =( NAMED_UNIT ( * ) PLANE_ANGLE_UNIT ( ) SI_UNIT ( $, .RADIAN. ) );
#270 = PLANE ( 'NONE',  #218 ) ;
#271 = CARTESIAN_POINT ( 'NONE',  ( 0.6250000000000000000, 7.500000000000000000, 0.000000000000000000 ) ) ;
#272 = DIMENSIONAL_EXPONENTS ( 1.000000000000000000, 0.000000000000000000, 0.000000000000000000, 0.000000000000000000, 0.000000000000000000, 0.000000000000000000, 0.000000000000000000 ) ;
#273 = FILL_AREA_STYLE ('',( #23 ) ) ;
#274 =( GEOMETRIC_REPRESENTATION_CONTEXT ( 3 ) GLOBAL_UNCERTAINTY_ASSIGNED_CONTEXT ( ( #253 ) ) GLOBAL_UNIT_ASSIGNED_CONTEXT ( ( #75, #207, #97 ) ) REPRESENTATION_CONTEXT ( 'NONE', 'WORKASPACE' ) );
#275 = ORIENTED_EDGE ( 'NONE', *, *, #137, .F. ) ;
#276 = DIRECTION ( 'NONE',  ( 0.000000000000000000, 0.000000000000000000, -1.000000000000000000 ) ) ;
#277 = ORIENTED_EDGE ( 'NONE', *, *, #256, .T. ) ;
#278 = AXIS2_PLACEMENT_3D ( 'NONE', #106, #283, #45 ) ;
#279 =( NAMED_UNIT ( * ) SI_UNIT ( $, .STERADIAN. ) SOLID_ANGLE_UNIT ( ) );
#280 = CARTESIAN_POINT ( 'NONE',  ( 0.000000000000000000, 0.000000000000000000, 0.000000000000000000 ) ) ;
#281 = CARTESIAN_POINT ( 'NONE',  ( 1.687229755494588440E-33, 5.000000000000000000, 0.000000000000000000 ) ) ;
#282 = FACE_OUTER_BOUND ( 'NONE', #252, .T. ) ;
#283 = DIRECTION ( 'NONE',  ( -7.347880794884116531E-17, 1.000000000000000000, -0.000000000000000000 ) ) ;
#284 = CARTESIAN_POINT ( 'NONE',  ( 0.6250000000000000000, 7.500000000000000000, 7.654042494670957853E-17 ) ) ;
#285 =( NAMED_UNIT ( * ) PLANE_ANGLE_UNIT ( ) SI_UNIT ( $, .RADIAN. ) );
#286 =( NAMED_UNIT ( * ) PLANE_ANGLE_UNIT ( ) SI_UNIT ( $, .RADIAN. ) );
#287 = CARTESIAN_POINT ( 'NONE',  ( -0.6250000000000003331, 7.500000000000000000, 0.000000000000000000 ) ) ;
#288 = DIMENSIONAL_EXPONENTS ( 1.000000000000000000, 0.000000000000000000, 0.000000000000000000, 0.000000000000000000, 0.000000000000000000, 0.000000000000000000, 0.000000000000000000 ) ;
#289 = CARTESIAN_POINT ( 'NONE',  ( 0.000000000000000000, 5.000000000000000000, 0.000000000000000000 ) ) ;
#290 = EDGE_CURVE ( 'NONE', #101, #205, #28, .T. ) ;
#291 = COLOUR_RGB ( '',1.000000000000000000, 0.000000000000000000, 0.000000000000000000 ) ;
#292 = EDGE_CURVE ( 'NONE', #295, #175, #105, .T. ) ;
#293 = PRESENTATION_STYLE_ASSIGNMENT (( #180 ) ) ;
#294 = CARTESIAN_POINT ( 'NONE',  ( 0.000000000000000000, 5.000000000000000000, 0.000000000000000000 ) ) ;
#295 = VERTEX_POINT ( 'NONE', #187 ) ;
#296 = ORIENTED_EDGE ( 'NONE', *, *, #209, .T. ) ;
#297 = AXIS2_PLACEMENT_3D ( 'NONE', #271, #44, #308 ) ;
#298 =( CONVERSION_BASED_UNIT ( 'INCH', #263 ) LENGTH_UNIT ( ) NAMED_UNIT ( #288 ) );
#299 = DIRECTION ( 'NONE',  ( -1.000000000000000000, 0.000000000000000000, 0.000000000000000000 ) ) ;
#300 = FACE_OUTER_BOUND ( 'NONE', #22, .T. ) ;
#301 = CARTESIAN_POINT ( 'NONE',  ( 7.654042494670957853E-17, 0.000000000000000000, 0.6250000000000000000 ) ) ;
#302 = ADVANCED_FACE ( 'NONE', ( #282 ), #126, .T. ) ;
#303 = AXIS2_PLACEMENT_3D ( 'NONE', #289, #228, #199 ) ;
#304 =( CONVERSION_BASED_UNIT ( 'INCH', #217 ) LENGTH_UNIT ( ) NAMED_UNIT ( #272 ) );
#305 =( GEOMETRIC_REPRESENTATION_CONTEXT ( 3 ) GLOBAL_UNCERTAINTY_ASSIGNED_CONTEXT ( ( #177 ) ) GLOBAL_UNIT_ASSIGNED_CONTEXT ( ( #298, #32, #152 ) ) REPRESENTATION_CONTEXT ( 'NONE', 'WORKASPACE' ) );
#306 = CARTESIAN_POINT ( 'NONE',  ( 0.000000000000000000, 0.000000000000000000, 0.000000000000000000 ) ) ;
#307 = STYLED_ITEM ( 'NONE', ( #142 ), #102 ) ;
#308 = DIRECTION ( 'NONE',  ( 1.000000000000000000, 7.347880794884116531E-17, 0.000000000000000000 ) ) ;
#309 = ORIENTED_EDGE ( 'NONE', *, *, #38, .T. ) ;
ENDSEC;
END-ISO-10303-21;
