ISO-10303-21;
HEADER;
FILE_DESCRIPTION (( 'STEP AP214' ),
    '1' );
FILE_NAME ('12317.STEP',
    '2023-06-30T21:51:12',
    ( '' ),
    ( '' ),
    'SwSTEP 2.0',
    'SolidWorks 2023',
    '' );
FILE_SCHEMA (( 'AUTOMOTIVE_DESIGN' ));
ENDSEC;

DATA;
#1 = CARTESIAN_POINT ( 'NONE',  ( -3.061616997868383018E-17, 0.2500000000000000000, 0.000000000000000000 ) ) ;
#2 = ORIENTED_EDGE ( 'NONE', *, *, #156, .F. ) ;
#3 = LINE ( 'NONE', #222, #297 ) ;
#4 = FILL_AREA_STYLE_COLOUR ( '', #122 ) ;
#5 = ORIENTED_EDGE ( 'NONE', *, *, #216, .T. ) ;
#6 = STYLED_ITEM ( 'NONE', ( #140 ), #187 ) ;
#7 = AXIS2_PLACEMENT_3D ( 'NONE', #366, #225, #74 ) ;
#8 =( NAMED_UNIT ( * ) SI_UNIT ( $, .STERADIAN. ) SOLID_ANGLE_UNIT ( ) );
#9 = DIRECTION ( 'NONE',  ( 0.000000000000000000, 0.000000000000000000, -1.000000000000000000 ) ) ;
#10 = AXIS2_PLACEMENT_3D ( 'NONE', #81, #59, #352 ) ;
#11 =( GEOMETRIC_REPRESENTATION_CONTEXT ( 3 ) GLOBAL_UNCERTAINTY_ASSIGNED_CONTEXT ( ( #110 ) ) GLOBAL_UNIT_ASSIGNED_CONTEXT ( ( #14, #96, #182 ) ) REPRESENTATION_CONTEXT ( 'NONE', 'WORKASPACE' ) );
#12 = COLOUR_RGB ( '',1.000000000000000000, 0.000000000000000000, 0.000000000000000000 ) ;
#13 = EDGE_CURVE ( 'NONE', #149, #142, #3, .T. ) ;
#14 =( CONVERSION_BASED_UNIT ( 'INCH', #159 ) LENGTH_UNIT ( ) NAMED_UNIT ( #244 ) );
#15 = FILL_AREA_STYLE_COLOUR ( '', #344 ) ;
#16 = CIRCLE ( 'NONE', #350, 0.2499999999999998335 ) ;
#17 = PRESENTATION_LAYER_ASSIGNMENT (  '', '', ( #188 ) ) ;
#18 = CARTESIAN_POINT ( 'NONE',  ( 0.2499999999999999167, 0.6250000000000000000, 3.061616997868380553E-17 ) ) ;
#19 =( NAMED_UNIT ( * ) SI_UNIT ( $, .STERADIAN. ) SOLID_ANGLE_UNIT ( ) );
#20 = FILL_AREA_STYLE_COLOUR ( '', #361 ) ;
#21 = FACE_OUTER_BOUND ( 'NONE', #319, .T. ) ;
#22 = SURFACE_STYLE_USAGE ( .BOTH. , #133 ) ;
#23 = CARTESIAN_POINT ( 'NONE',  ( 0.000000000000000000, 0.6250000000000000000, 0.000000000000000000 ) ) ;
#24 = SURFACE_STYLE_USAGE ( .BOTH. , #280 ) ;
#25 = SURFACE_SIDE_STYLE ('',( #323 ) ) ;
#26 =( CONVERSION_BASED_UNIT ( 'INCH', #336 ) LENGTH_UNIT ( ) NAMED_UNIT ( #267 ) );
#27 = DIRECTION ( 'NONE',  ( -0.000000000000000000, -1.000000000000000000, -0.000000000000000000 ) ) ;
#28 = EDGE_LOOP ( 'NONE', ( #93, #346, #200, #238 ) ) ;
#29 = DIRECTION ( 'NONE',  ( -1.000000000000000000, 0.000000000000000000, 0.000000000000000000 ) ) ;
#30 = ADVANCED_FACE ( 'NONE', ( #330 ), #276, .T. ) ;
#31 = DIRECTION ( 'NONE',  ( 1.000000000000000000, 0.000000000000000000, -1.224646799147353207E-16 ) ) ;
#32 = AXIS2_PLACEMENT_3D ( 'NONE', #202, #239, #232 ) ;
#33 = CARTESIAN_POINT ( 'NONE',  ( 0.000000000000000000, 0.6250000000000000000, 0.000000000000000000 ) ) ;
#34 =( GEOMETRIC_REPRESENTATION_CONTEXT ( 3 ) GLOBAL_UNCERTAINTY_ASSIGNED_CONTEXT ( ( #255 ) ) GLOBAL_UNIT_ASSIGNED_CONTEXT ( ( #45, #360, #19 ) ) REPRESENTATION_CONTEXT ( 'NONE', 'WORKASPACE' ) );
#35 = DIMENSIONAL_EXPONENTS ( 1.000000000000000000, 0.000000000000000000, 0.000000000000000000, 0.000000000000000000, 0.000000000000000000, 0.000000000000000000, 0.000000000000000000 ) ;
#36 =( GEOMETRIC_REPRESENTATION_CONTEXT ( 3 ) GLOBAL_UNCERTAINTY_ASSIGNED_CONTEXT ( ( #337 ) ) GLOBAL_UNIT_ASSIGNED_CONTEXT ( ( #79, #46, #136 ) ) REPRESENTATION_CONTEXT ( 'NONE', 'WORKASPACE' ) );
#37 =( LENGTH_UNIT ( ) NAMED_UNIT ( * ) SI_UNIT ( $, .METRE. ) );
#38 =( LENGTH_UNIT ( ) NAMED_UNIT ( * ) SI_UNIT ( $, .METRE. ) );
#39 = CARTESIAN_POINT ( 'NONE',  ( 2.932051795187517719E-16, 0.6250000000000000000, 0.000000000000000000 ) ) ;
#40 = SURFACE_SIDE_STYLE ('',( #355 ) ) ;
#41 = VERTEX_POINT ( 'NONE', #18 ) ;
#42 = DIMENSIONAL_EXPONENTS ( 1.000000000000000000, 0.000000000000000000, 0.000000000000000000, 0.000000000000000000, 0.000000000000000000, 0.000000000000000000, 0.000000000000000000 ) ;
#43 = AXIS2_PLACEMENT_3D ( 'NONE', #362, #95, #31 ) ;
#44 = AXIS2_PLACEMENT_3D ( 'NONE', #370, #170, #250 ) ;
#45 =( CONVERSION_BASED_UNIT ( 'INCH', #191 ) LENGTH_UNIT ( ) NAMED_UNIT ( #42 ) );
#46 =( NAMED_UNIT ( * ) PLANE_ANGLE_UNIT ( ) SI_UNIT ( $, .RADIAN. ) );
#47 = ADVANCED_FACE ( 'NONE', ( #21 ), #193, .F. ) ;
#48 =( NAMED_UNIT ( * ) SI_UNIT ( $, .STERADIAN. ) SOLID_ANGLE_UNIT ( ) );
#49 = EDGE_LOOP ( 'NONE', ( #235, #2 ) ) ;
#50 = FILL_AREA_STYLE ('',( #263 ) ) ;
#51 = AXIS2_PLACEMENT_3D ( 'NONE', #215, #183, #296 ) ;
#52 = CARTESIAN_POINT ( 'NONE',  ( 6.123233995736773431E-17, 2.500000000000000000, 0.000000000000000000 ) ) ;
#53 = SPHERICAL_SURFACE ( 'NONE', #252, 0.2500000000000000000 ) ;
#54 = DIRECTION ( 'NONE',  ( -1.000000000000000000, 0.000000000000000000, 0.000000000000000000 ) ) ;
#55 = VERTEX_POINT ( 'NONE', #306 ) ;
#56 = DIRECTION ( 'NONE',  ( -0.000000000000000000, -1.000000000000000000, -0.000000000000000000 ) ) ;
#57 = EDGE_LOOP ( 'NONE', ( #286, #242, #356, #275 ) ) ;
#58 =( NAMED_UNIT ( * ) PLANE_ANGLE_UNIT ( ) SI_UNIT ( $, .RADIAN. ) );
#59 = DIRECTION ( 'NONE',  ( -0.000000000000000000, -1.000000000000000000, -0.000000000000000000 ) ) ;
#60 = AXIS2_PLACEMENT_3D ( 'NONE', #289, #56, #148 ) ;
#61 = AXIS2_PLACEMENT_3D ( 'NONE', #64, #92, #66 ) ;
#62 = DIRECTION ( 'NONE',  ( 1.000000000000000000, 0.000000000000000000, 0.000000000000000000 ) ) ;
#63 = PRODUCT_DEFINITION_SHAPE ( 'NONE', 'NONE',  #125 ) ;
#64 = CARTESIAN_POINT ( 'NONE',  ( 0.000000000000000000, 0.2500000000000000000, 0.000000000000000000 ) ) ;
#65 = ORIENTED_EDGE ( 'NONE', *, *, #285, .T. ) ;
#66 = DIRECTION ( 'NONE',  ( 0.000000000000000000, 0.000000000000000000, -1.000000000000000000 ) ) ;
#67 = PRESENTATION_LAYER_ASSIGNMENT (  '', '', ( #6 ) ) ;
#68 = CIRCLE ( 'NONE', #44, 0.2500000000000000000 ) ;
#69 =( GEOMETRIC_REPRESENTATION_CONTEXT ( 3 ) GLOBAL_UNCERTAINTY_ASSIGNED_CONTEXT ( ( #97 ) ) GLOBAL_UNIT_ASSIGNED_CONTEXT ( ( #272, #70, #186 ) ) REPRESENTATION_CONTEXT ( 'NONE', 'WORKASPACE' ) );
#70 =( NAMED_UNIT ( * ) PLANE_ANGLE_UNIT ( ) SI_UNIT ( $, .RADIAN. ) );
#71 = DIMENSIONAL_EXPONENTS ( 1.000000000000000000, 0.000000000000000000, 0.000000000000000000, 0.000000000000000000, 0.000000000000000000, 0.000000000000000000, 0.000000000000000000 ) ;
#72 = EDGE_CURVE ( 'NONE', #294, #41, #245, .T. ) ;
#73 = FILL_AREA_STYLE ('',( #221 ) ) ;
#74 = DIRECTION ( 'NONE',  ( 0.000000000000000000, 0.000000000000000000, -1.000000000000000000 ) ) ;
#75 = DIMENSIONAL_EXPONENTS ( 1.000000000000000000, 0.000000000000000000, 0.000000000000000000, 0.000000000000000000, 0.000000000000000000, 0.000000000000000000, 0.000000000000000000 ) ;
#76 = DIRECTION ( 'NONE',  ( 0.000000000000000000, -0.000000000000000000, 1.000000000000000000 ) ) ;
#77 = CARTESIAN_POINT ( 'NONE',  ( 6.123233995736773431E-17, 2.500000000000000000, 0.000000000000000000 ) ) ;
#78 = FILL_AREA_STYLE ('',( #195 ) ) ;
#79 =( CONVERSION_BASED_UNIT ( 'INCH', #251 ) LENGTH_UNIT ( ) NAMED_UNIT ( #163 ) );
#80 = DIRECTION ( 'NONE',  ( -1.237188477660714949E-16, 1.000000000000000000, -0.000000000000000000 ) ) ;
#81 = CARTESIAN_POINT ( 'NONE',  ( 0.000000000000000000, 0.000000000000000000, 0.000000000000000000 ) ) ;
#82 = VECTOR ( 'NONE', #27, 39.37007874015748143 ) ;
#83 = ORIENTED_EDGE ( 'NONE', *, *, #253, .T. ) ;
#84 = COLOUR_RGB ( '',0.7921568627450980005, 0.8196078431372548767, 0.9333333333333333481 ) ;
#85 = DIRECTION ( 'NONE',  ( -1.237188477660714949E-16, 1.000000000000000000, -0.000000000000000000 ) ) ;
#86 = AXIS2_PLACEMENT_3D ( 'NONE', #291, #119, #62 ) ;
#87 = ADVANCED_FACE ( 'NONE', ( #304 ), #130, .F. ) ;
#88 = DIRECTION ( 'NONE',  ( 1.000000000000000000, 0.000000000000000000, 0.000000000000000000 ) ) ;
#89 = ORIENTED_EDGE ( 'NONE', *, *, #223, .F. ) ;
#90 =( LENGTH_UNIT ( ) NAMED_UNIT ( * ) SI_UNIT ( $, .METRE. ) );
#91 = CARTESIAN_POINT ( 'NONE',  ( 0.000000000000000000, 0.000000000000000000, -0.2499999999999999167 ) ) ;
#92 = DIRECTION ( 'NONE',  ( -0.000000000000000000, -1.000000000000000000, -0.000000000000000000 ) ) ;
#93 = ORIENTED_EDGE ( 'NONE', *, *, #203, .F. ) ;
#94 = DIRECTION ( 'NONE',  ( -1.237188477660714949E-16, 1.000000000000000000, -0.000000000000000000 ) ) ;
#95 = DIRECTION ( 'NONE',  ( 1.224646799147353207E-16, -0.000000000000000000, 1.000000000000000000 ) ) ;
#96 =( NAMED_UNIT ( * ) PLANE_ANGLE_UNIT ( ) SI_UNIT ( $, .RADIAN. ) );
#97 = UNCERTAINTY_MEASURE_WITH_UNIT (LENGTH_MEASURE( 1.000000000000000082E-05 ), #272, 'distance_accuracy_value', 'NONE');
#98 = AXIS2_PLACEMENT_3D ( 'NONE', #1, #121, #29 ) ;
#99 = ADVANCED_FACE ( 'NONE', ( #249 ), #53, .T. ) ;
#100 = STYLED_ITEM ( 'NONE', ( #271 ), #30 ) ;
#101 = CYLINDRICAL_SURFACE ( 'NONE', #154, 0.2499999999999997224 ) ;
#102 = ORIENTED_EDGE ( 'NONE', *, *, #322, .T. ) ;
#103 =( LENGTH_UNIT ( ) NAMED_UNIT ( * ) SI_UNIT ( $, .METRE. ) );
#104 =( NAMED_UNIT ( * ) PLANE_ANGLE_UNIT ( ) SI_UNIT ( $, .RADIAN. ) );
#105 = DIRECTION ( 'NONE',  ( 1.237188477660714949E-16, -1.000000000000000000, 0.000000000000000000 ) ) ;
#106 = EDGE_CURVE ( 'NONE', #209, #151, #16, .T. ) ;
#107 = SURFACE_STYLE_USAGE ( .BOTH. , #164 ) ;
#108 = VERTEX_POINT ( 'NONE', #117 ) ;
#109 = CARTESIAN_POINT ( 'NONE',  ( -1.530808498934191509E-17, 0.000000000000000000, 0.000000000000000000 ) ) ;
#110 = UNCERTAINTY_MEASURE_WITH_UNIT (LENGTH_MEASURE( 1.000000000000000082E-05 ), #14, 'distance_accuracy_value', 'NONE');
#111 = AXIS2_PLACEMENT_3D ( 'NONE', #284, #288, #373 ) ;
#112 = CARTESIAN_POINT ( 'NONE',  ( -0.2499999999999997502, 2.500000000000000000, 0.000000000000000000 ) ) ;
#113 = CARTESIAN_POINT ( 'NONE',  ( -3.061616997868383018E-17, 0.2500000000000000000, 0.000000000000000000 ) ) ;
#114 = EDGE_CURVE ( 'NONE', #55, #123, #237, .T. ) ;
#115 = DIRECTION ( 'NONE',  ( -0.000000000000000000, -1.000000000000000000, -0.000000000000000000 ) ) ;
#116 = APPLICATION_PROTOCOL_DEFINITION ( 'draft international standard', 'automotive_design', 1998, #139 ) ;
#117 = CARTESIAN_POINT ( 'NONE',  ( -0.2500000000000000000, 0.2500000000000000000, 3.061616997868382402E-17 ) ) ;
#118 = VERTEX_POINT ( 'NONE', #345 ) ;
#119 = DIRECTION ( 'NONE',  ( 0.000000000000000000, 0.000000000000000000, 1.000000000000000000 ) ) ;
#120 = EDGE_CURVE ( 'NONE', #118, #349, #320, .T. ) ;
#121 = DIRECTION ( 'NONE',  ( 0.000000000000000000, 0.000000000000000000, -1.000000000000000000 ) ) ;
#122 = COLOUR_RGB ( '',1.000000000000000000, 0.000000000000000000, 0.000000000000000000 ) ;
#123 = VERTEX_POINT ( 'NONE', #176 ) ;
#124 = LENGTH_MEASURE_WITH_UNIT ( LENGTH_MEASURE( 0.02539999999999999897 ), #38 );
#125 = PRODUCT_DEFINITION ( 'UNKNOWN', '', #207, #190 ) ;
#126 = ORIENTED_EDGE ( 'NONE', *, *, #359, .T. ) ;
#127 = PRESENTATION_STYLE_ASSIGNMENT (( #198 ) ) ;
#128 = COLOUR_RGB ( '',0.7921568627450980005, 0.8196078431372548767, 0.9333333333333333481 ) ;
#129 = EDGE_LOOP ( 'NONE', ( #364, #65, #144, #305, #283 ) ) ;
#130 = PLANE ( 'NONE',  #131 ) ;
#131 = AXIS2_PLACEMENT_3D ( 'NONE', #39, #246, #132 ) ;
#132 = DIRECTION ( 'NONE',  ( -1.000000000000000000, -1.237188477660714949E-16, 0.000000000000000000 ) ) ;
#133 = SURFACE_SIDE_STYLE ('',( #231 ) ) ;
#134 =( LENGTH_UNIT ( ) NAMED_UNIT ( * ) SI_UNIT ( $, .METRE. ) );
#135 = ORIENTED_EDGE ( 'NONE', *, *, #185, .F. ) ;
#136 =( NAMED_UNIT ( * ) SI_UNIT ( $, .STERADIAN. ) SOLID_ANGLE_UNIT ( ) );
#137 = PRESENTATION_LAYER_ASSIGNMENT (  '', '', ( #332 ) ) ;
#138 = FACE_OUTER_BOUND ( 'NONE', #347, .T. ) ;
#139 = APPLICATION_CONTEXT ( 'automotive_design' ) ;
#140 = PRESENTATION_STYLE_ASSIGNMENT (( #24 ) ) ;
#141 = SPHERICAL_SURFACE ( 'NONE', #334, 0.2500000000000000000 ) ;
#142 = VERTEX_POINT ( 'NONE', #262 ) ;
#143 = FILL_AREA_STYLE ('',( #4 ) ) ;
#144 = ORIENTED_EDGE ( 'NONE', *, *, #114, .T. ) ;
#145 = MECHANICAL_DESIGN_GEOMETRIC_PRESENTATION_REPRESENTATION (  '', ( #6 ), #11 ) ;
#146 = APPLICATION_CONTEXT ( 'automotive_design' ) ;
#147 = PRODUCT_CONTEXT ( 'NONE', #146, 'mechanical' ) ;
#148 = DIRECTION ( 'NONE',  ( 0.000000000000000000, 0.000000000000000000, -1.000000000000000000 ) ) ;
#149 = VERTEX_POINT ( 'NONE', #312 ) ;
#150 =( NAMED_UNIT ( * ) SI_UNIT ( $, .STERADIAN. ) SOLID_ANGLE_UNIT ( ) );
#151 = VERTEX_POINT ( 'NONE', #112 ) ;
#152 = CYLINDRICAL_SURFACE ( 'NONE', #51, 0.2499999999999997224 ) ;
#153 = PRODUCT ( '12317', '12317', '', ( #147 ) ) ;
#154 = AXIS2_PLACEMENT_3D ( 'NONE', #270, #94, #328 ) ;
#155 = DIRECTION ( 'NONE',  ( -0.000000000000000000, -1.000000000000000000, -0.000000000000000000 ) ) ;
#156 = EDGE_CURVE ( 'NONE', #41, #294, #241, .T. ) ;
#157 = MECHANICAL_DESIGN_GEOMETRIC_PRESENTATION_REPRESENTATION (  '', ( #332 ), #309 ) ;
#158 = STYLED_ITEM ( 'NONE', ( #313 ), #333 ) ;
#159 = LENGTH_MEASURE_WITH_UNIT ( LENGTH_MEASURE( 0.02539999999999999897 ), #37 );
#160 = CARTESIAN_POINT ( 'NONE',  ( 0.2499999999999998890, 2.500000000000000000, 0.000000000000000000 ) ) ;
#161 = ORIENTED_EDGE ( 'NONE', *, *, #203, .T. ) ;
#162 = CARTESIAN_POINT ( 'NONE',  ( 0.2499999999999999167, 2.500000000000000000, 3.061616997868380553E-17 ) ) ;
#163 = DIMENSIONAL_EXPONENTS ( 1.000000000000000000, 0.000000000000000000, 0.000000000000000000, 0.000000000000000000, 0.000000000000000000, 0.000000000000000000, 0.000000000000000000 ) ;
#164 = SURFACE_SIDE_STYLE ('',( #335 ) ) ;
#165 = PRESENTATION_STYLE_ASSIGNMENT (( #217 ) ) ;
#166 = UNCERTAINTY_MEASURE_WITH_UNIT (LENGTH_MEASURE( 1.000000000000000082E-05 ), #259, 'distance_accuracy_value', 'NONE');
#167 = MECHANICAL_DESIGN_GEOMETRIC_PRESENTATION_REPRESENTATION (  '', ( #325 ), #69 ) ;
#168 = PRESENTATION_LAYER_ASSIGNMENT (  '', '', ( #100 ) ) ;
#169 = EDGE_LOOP ( 'NONE', ( #353, #161, #211, #89 ) ) ;
#170 = DIRECTION ( 'NONE',  ( -0.000000000000000000, -1.000000000000000000, -0.000000000000000000 ) ) ;
#171 = EDGE_CURVE ( 'NONE', #108, #123, #341, .T. ) ;
#172 = PRESENTATION_STYLE_ASSIGNMENT (( #22 ) ) ;
#173 = SURFACE_STYLE_FILL_AREA ( #50 ) ;
#174 = PRODUCT_RELATED_PRODUCT_CATEGORY ( 'part', '', ( #153 ) ) ;
#175 =( GEOMETRIC_REPRESENTATION_CONTEXT ( 3 ) GLOBAL_UNCERTAINTY_ASSIGNED_CONTEXT ( ( #201 ) ) GLOBAL_UNIT_ASSIGNED_CONTEXT ( ( #240, #58, #8 ) ) REPRESENTATION_CONTEXT ( 'NONE', 'WORKASPACE' ) );
#176 = CARTESIAN_POINT ( 'NONE',  ( 0.000000000000000000, 0.2500000000000000000, -0.2500000000000000000 ) ) ;
#177 =( NAMED_UNIT ( * ) PLANE_ANGLE_UNIT ( ) SI_UNIT ( $, .RADIAN. ) );
#178 = DIRECTION ( 'NONE',  ( -1.237188477660714949E-16, 1.000000000000000000, -0.000000000000000000 ) ) ;
#179 = ADVANCED_FACE ( 'NONE', ( #204 ), #371, .T. ) ;
#180 = SURFACE_STYLE_USAGE ( .BOTH. , #25 ) ;
#181 = APPLICATION_PROTOCOL_DEFINITION ( 'draft international standard', 'automotive_design', 1998, #146 ) ;
#182 =( NAMED_UNIT ( * ) SI_UNIT ( $, .STERADIAN. ) SOLID_ANGLE_UNIT ( ) );
#183 = DIRECTION ( 'NONE',  ( -1.237188477660714949E-16, 1.000000000000000000, -0.000000000000000000 ) ) ;
#184 = AXIS2_PLACEMENT_3D ( 'NONE', #315, #212, #339 ) ;
#185 = EDGE_CURVE ( 'NONE', #123, #118, #331, .T. ) ;
#186 =( NAMED_UNIT ( * ) SI_UNIT ( $, .STERADIAN. ) SOLID_ANGLE_UNIT ( ) );
#187 = MANIFOLD_SOLID_BREP ( 'Revolve - Cutting Edge', #205 ) ;
#188 = STYLED_ITEM ( 'NONE', ( #208 ), #179 ) ;
#189 = DIRECTION ( 'NONE',  ( -1.237188477660714949E-16, 1.000000000000000000, -0.000000000000000000 ) ) ;
#190 = PRODUCT_DEFINITION_CONTEXT ( 'detailed design', #139, 'design' ) ;
#191 = LENGTH_MEASURE_WITH_UNIT ( LENGTH_MEASURE( 0.02539999999999999897 ), #369 );
#192 = DIRECTION ( 'NONE',  ( -1.237188477660714949E-16, 1.000000000000000000, -0.000000000000000000 ) ) ;
#193 = PLANE ( 'NONE',  #219 ) ;
#194 = STYLED_ITEM ( 'NONE', ( #127 ), #99 ) ;
#195 = FILL_AREA_STYLE_COLOUR ( '', #12 ) ;
#196 = MANIFOLD_SOLID_BREP ( 'Revolve - Tool Body (Straight Shanked)', #363 ) ;
#197 = AXIS2_PLACEMENT_3D ( 'NONE', #23, #206, #76 ) ;
#198 = SURFACE_STYLE_USAGE ( .BOTH. , #302 ) ;
#199 =( LENGTH_UNIT ( ) NAMED_UNIT ( * ) SI_UNIT ( $, .METRE. ) );
#200 = ORIENTED_EDGE ( 'NONE', *, *, #223, .T. ) ;
#201 = UNCERTAINTY_MEASURE_WITH_UNIT (LENGTH_MEASURE( 1.000000000000000082E-05 ), #240, 'distance_accuracy_value', 'NONE');
#202 = CARTESIAN_POINT ( 'NONE',  ( 2.932051795187517719E-16, 0.6250000000000000000, 0.000000000000000000 ) ) ;
#203 = EDGE_CURVE ( 'NONE', #41, #209, #327, .T. ) ;
#204 = FACE_OUTER_BOUND ( 'NONE', #318, .T. ) ;
#205 = CLOSED_SHELL ( 'NONE', ( #333, #179, #293, #30, #99 ) ) ;
#206 = DIRECTION ( 'NONE',  ( 0.000000000000000000, 1.000000000000000000, 0.000000000000000000 ) ) ;
#207 = PRODUCT_DEFINITION_FORMATION_WITH_SPECIFIED_SOURCE ( 'ANY', '', #153, .NOT_KNOWN. ) ;
#208 = PRESENTATION_STYLE_ASSIGNMENT (( #180 ) ) ;
#209 = VERTEX_POINT ( 'NONE', #162 ) ;
#210 = LENGTH_MEASURE_WITH_UNIT ( LENGTH_MEASURE( 0.02539999999999999897 ), #372 );
#211 = ORIENTED_EDGE ( 'NONE', *, *, #340, .F. ) ;
#212 = DIRECTION ( 'NONE',  ( -0.000000000000000000, -1.000000000000000000, -0.000000000000000000 ) ) ;
#213 = ORIENTED_EDGE ( 'NONE', *, *, #120, .F. ) ;
#214 = CARTESIAN_POINT ( 'NONE',  ( 0.2499999999999998057, 2.500000000000000000, 3.061616997868379320E-17 ) ) ;
#215 = CARTESIAN_POINT ( 'NONE',  ( 6.123233995736772199E-17, 2.500000000000000000, 0.000000000000000000 ) ) ;
#216 = EDGE_CURVE ( 'NONE', #108, #349, #314, .T. ) ;
#217 = SURFACE_STYLE_USAGE ( .BOTH. , #40 ) ;
#218 = CIRCLE ( 'NONE', #265, 0.2499999999999998890 ) ;
#219 = AXIS2_PLACEMENT_3D ( 'NONE', #160, #105, #220 ) ;
#220 = DIRECTION ( 'NONE',  ( 1.000000000000000000, 1.237188477660714949E-16, 0.000000000000000000 ) ) ;
#221 = FILL_AREA_STYLE_COLOUR ( '', #128 ) ;
#222 = CARTESIAN_POINT ( 'NONE',  ( 3.061616997868382402E-17, 0.000000000000000000, 0.2499999999999999167 ) ) ;
#223 = EDGE_CURVE ( 'NONE', #294, #151, #247, .T. ) ;
#224 = SURFACE_STYLE_FILL_AREA ( #78 ) ;
#225 = DIRECTION ( 'NONE',  ( -0.000000000000000000, -1.000000000000000000, -0.000000000000000000 ) ) ;
#226 = MECHANICAL_DESIGN_GEOMETRIC_PRESENTATION_REPRESENTATION (  '', ( #194 ), #36 ) ;
#227 =( CONVERSION_BASED_UNIT ( 'INCH', #257 ) LENGTH_UNIT ( ) NAMED_UNIT ( #35 ) );
#228 = ORIENTED_EDGE ( 'NONE', *, *, #322, .F. ) ;
#229 = DIRECTION ( 'NONE',  ( -1.000000000000000000, 0.000000000000000000, 0.000000000000000000 ) ) ;
#230 = FACE_OUTER_BOUND ( 'NONE', #367, .T. ) ;
#231 = SURFACE_STYLE_FILL_AREA ( #317 ) ;
#232 = DIRECTION ( 'NONE',  ( -1.000000000000000000, 0.000000000000000000, 0.000000000000000000 ) ) ;
#233 =( NAMED_UNIT ( * ) SI_UNIT ( $, .STERADIAN. ) SOLID_ANGLE_UNIT ( ) );
#234 = MECHANICAL_DESIGN_GEOMETRIC_PRESENTATION_REPRESENTATION (  '', ( #188 ), #307 ) ;
#235 = ORIENTED_EDGE ( 'NONE', *, *, #72, .F. ) ;
#236 = COLOUR_RGB ( '',1.000000000000000000, 0.000000000000000000, 0.000000000000000000 ) ;
#237 = LINE ( 'NONE', #91, #82 ) ;
#238 = ORIENTED_EDGE ( 'NONE', *, *, #106, .F. ) ;
#239 = DIRECTION ( 'NONE',  ( -1.237188477660714949E-16, 1.000000000000000000, -0.000000000000000000 ) ) ;
#240 =( CONVERSION_BASED_UNIT ( 'INCH', #324 ) LENGTH_UNIT ( ) NAMED_UNIT ( #299 ) );
#241 = CIRCLE ( 'NONE', #32, 0.2499999999999995837 ) ;
#242 = ORIENTED_EDGE ( 'NONE', *, *, #171, .T. ) ;
#243 = ADVANCED_FACE ( 'NONE', ( #303 ), #101, .T. ) ;
#244 = DIMENSIONAL_EXPONENTS ( 1.000000000000000000, 0.000000000000000000, 0.000000000000000000, 0.000000000000000000, 0.000000000000000000, 0.000000000000000000, 0.000000000000000000 ) ;
#245 = CIRCLE ( 'NONE', #273, 0.2499999999999995837 ) ;
#246 = DIRECTION ( 'NONE',  ( -1.237188477660714949E-16, 1.000000000000000000, 0.000000000000000000 ) ) ;
#247 = LINE ( 'NONE', #266, #358 ) ;
#248 = UNCERTAINTY_MEASURE_WITH_UNIT (LENGTH_MEASURE( 1.000000000000000082E-05 ), #227, 'distance_accuracy_value', 'NONE');
#249 = FACE_OUTER_BOUND ( 'NONE', #57, .T. ) ;
#250 = DIRECTION ( 'NONE',  ( 0.000000000000000000, 0.000000000000000000, -1.000000000000000000 ) ) ;
#251 = LENGTH_MEASURE_WITH_UNIT ( LENGTH_MEASURE( 0.02539999999999999897 ), #103 );
#252 = AXIS2_PLACEMENT_3D ( 'NONE', #287, #348, #88 ) ;
#253 = EDGE_CURVE ( 'NONE', #142, #108, #326, .T. ) ;
#254 = DIRECTION ( 'NONE',  ( 0.000000000000000000, 0.000000000000000000, 1.000000000000000000 ) ) ;
#255 = UNCERTAINTY_MEASURE_WITH_UNIT (LENGTH_MEASURE( 1.000000000000000082E-05 ), #45, 'distance_accuracy_value', 'NONE');
#256 = PRESENTATION_LAYER_ASSIGNMENT (  '', '', ( #158 ) ) ;
#257 = LENGTH_MEASURE_WITH_UNIT ( LENGTH_MEASURE( 0.02539999999999999897 ), #134 );
#258 = SURFACE_SIDE_STYLE ('',( #224 ) ) ;
#259 =( CONVERSION_BASED_UNIT ( 'INCH', #210 ) LENGTH_UNIT ( ) NAMED_UNIT ( #71 ) );
#260 = ORIENTED_EDGE ( 'NONE', *, *, #285, .F. ) ;
#261 = ORIENTED_EDGE ( 'NONE', *, *, #114, .F. ) ;
#262 = CARTESIAN_POINT ( 'NONE',  ( 3.061616997868383018E-17, 0.2500000000000000000, 0.2500000000000000000 ) ) ;
#263 = FILL_AREA_STYLE_COLOUR ( '', #84 ) ;
#264 = ORIENTED_EDGE ( 'NONE', *, *, #340, .T. ) ;
#265 = AXIS2_PLACEMENT_3D ( 'NONE', #33, #155, #9 ) ;
#266 = CARTESIAN_POINT ( 'NONE',  ( -0.2499999999999996669, 2.500000000000000000, 0.000000000000000000 ) ) ;
#267 = DIMENSIONAL_EXPONENTS ( 1.000000000000000000, 0.000000000000000000, 0.000000000000000000, 0.000000000000000000, 0.000000000000000000, 0.000000000000000000, 0.000000000000000000 ) ;
#268 = ADVANCED_FACE ( 'NONE', ( #298 ), #152, .T. ) ;
#269 = CARTESIAN_POINT ( 'NONE',  ( 2.932051795187517719E-16, 0.6250000000000000000, 0.000000000000000000 ) ) ;
#270 = CARTESIAN_POINT ( 'NONE',  ( 6.123233995736772199E-17, 2.500000000000000000, 0.000000000000000000 ) ) ;
#271 = PRESENTATION_STYLE_ASSIGNMENT (( #107 ) ) ;
#272 =( CONVERSION_BASED_UNIT ( 'INCH', #124 ) LENGTH_UNIT ( ) NAMED_UNIT ( #75 ) );
#273 = AXIS2_PLACEMENT_3D ( 'NONE', #269, #80, #229 ) ;
#274 = CIRCLE ( 'NONE', #111, 0.2499999999999998890 ) ;
#275 = ORIENTED_EDGE ( 'NONE', *, *, #120, .T. ) ;
#276 = CYLINDRICAL_SURFACE ( 'NONE', #7, 0.2499999999999999167 ) ;
#277 = VECTOR ( 'NONE', #192, 39.37007874015748143 ) ;
#278 = ORIENTED_EDGE ( 'NONE', *, *, #106, .T. ) ;
#279 =( GEOMETRIC_REPRESENTATION_CONTEXT ( 3 ) GLOBAL_UNCERTAINTY_ASSIGNED_CONTEXT ( ( #248 ) ) GLOBAL_UNIT_ASSIGNED_CONTEXT ( ( #227, #177, #233 ) ) REPRESENTATION_CONTEXT ( 'NONE', 'WORKASPACE' ) );
#280 = SURFACE_SIDE_STYLE ('',( #173 ) ) ;
#281 = CARTESIAN_POINT ( 'NONE',  ( -0.2499999999999992784, 0.6250000000000000000, 0.000000000000000000 ) ) ;
#282 = DIRECTION ( 'NONE',  ( -1.000000000000000000, 0.000000000000000000, 0.000000000000000000 ) ) ;
#283 = ORIENTED_EDGE ( 'NONE', *, *, #253, .F. ) ;
#284 = CARTESIAN_POINT ( 'NONE',  ( 0.000000000000000000, 0.6250000000000000000, 0.000000000000000000 ) ) ;
#285 = EDGE_CURVE ( 'NONE', #149, #55, #218, .T. ) ;
#286 = ORIENTED_EDGE ( 'NONE', *, *, #216, .F. ) ;
#287 = CARTESIAN_POINT ( 'NONE',  ( -3.061616997868383018E-17, 0.2500000000000000000, 0.000000000000000000 ) ) ;
#288 = DIRECTION ( 'NONE',  ( -0.000000000000000000, -1.000000000000000000, -0.000000000000000000 ) ) ;
#289 = CARTESIAN_POINT ( 'NONE',  ( 0.000000000000000000, 0.2500000000000000000, 0.000000000000000000 ) ) ;
#290 = ORIENTED_EDGE ( 'NONE', *, *, #13, .T. ) ;
#291 = CARTESIAN_POINT ( 'NONE',  ( 0.000000000000000000, 0.000000000000000000, 0.000000000000000000 ) ) ;
#292 =( NAMED_UNIT ( * ) PLANE_ANGLE_UNIT ( ) SI_UNIT ( $, .RADIAN. ) );
#293 = ADVANCED_FACE ( 'NONE', ( #230 ), #311, .T. ) ;
#294 = VERTEX_POINT ( 'NONE', #281 ) ;
#295 = PRESENTATION_LAYER_ASSIGNMENT (  '', '', ( #194 ) ) ;
#296 = DIRECTION ( 'NONE',  ( -1.000000000000000000, 0.000000000000000000, 0.000000000000000000 ) ) ;
#297 = VECTOR ( 'NONE', #115, 39.37007874015748143 ) ;
#298 = FACE_OUTER_BOUND ( 'NONE', #28, .T. ) ;
#299 = DIMENSIONAL_EXPONENTS ( 1.000000000000000000, 0.000000000000000000, 0.000000000000000000, 0.000000000000000000, 0.000000000000000000, 0.000000000000000000, 0.000000000000000000 ) ;
#300 = CIRCLE ( 'NONE', #354, 0.2499999999999998335 ) ;
#301 = UNCERTAINTY_MEASURE_WITH_UNIT (LENGTH_MEASURE( 1.000000000000000082E-05 ), #26, 'distance_accuracy_value', 'NONE');
#302 = SURFACE_SIDE_STYLE ('',( #368 ) ) ;
#303 = FACE_OUTER_BOUND ( 'NONE', #169, .T. ) ;
#304 = FACE_OUTER_BOUND ( 'NONE', #49, .T. ) ;
#305 = ORIENTED_EDGE ( 'NONE', *, *, #171, .F. ) ;
#306 = CARTESIAN_POINT ( 'NONE',  ( 0.000000000000000000, 0.6250000000000000000, -0.2499999999999998890 ) ) ;
#307 =( GEOMETRIC_REPRESENTATION_CONTEXT ( 3 ) GLOBAL_UNCERTAINTY_ASSIGNED_CONTEXT ( ( #166 ) ) GLOBAL_UNIT_ASSIGNED_CONTEXT ( ( #259, #292, #150 ) ) REPRESENTATION_CONTEXT ( 'NONE', 'WORKASPACE' ) );
#308 = SURFACE_STYLE_USAGE ( .BOTH. , #258 ) ;
#309 =( GEOMETRIC_REPRESENTATION_CONTEXT ( 3 ) GLOBAL_UNCERTAINTY_ASSIGNED_CONTEXT ( ( #301 ) ) GLOBAL_UNIT_ASSIGNED_CONTEXT ( ( #26, #104, #48 ) ) REPRESENTATION_CONTEXT ( 'NONE', 'WORKASPACE' ) );
#310 = FILL_AREA_STYLE ('',( #329 ) ) ;
#311 = PLANE ( 'NONE',  #197 ) ;
#312 = CARTESIAN_POINT ( 'NONE',  ( 3.061616997868381785E-17, 0.6250000000000000000, 0.2499999999999998890 ) ) ;
#313 = PRESENTATION_STYLE_ASSIGNMENT (( #308 ) ) ;
#314 = CIRCLE ( 'NONE', #43, 0.2500000000000000000 ) ;
#315 = CARTESIAN_POINT ( 'NONE',  ( 0.000000000000000000, 0.2500000000000000000, 0.000000000000000000 ) ) ;
#316 = MECHANICAL_DESIGN_GEOMETRIC_PRESENTATION_REPRESENTATION (  '', ( #100 ), #34 ) ;
#317 = FILL_AREA_STYLE ('',( #20 ) ) ;
#318 = EDGE_LOOP ( 'NONE', ( #126, #290, #228, #135, #261 ) ) ;
#319 = EDGE_LOOP ( 'NONE', ( #264, #278 ) ) ;
#320 = CIRCLE ( 'NONE', #98, 0.2500000000000000000 ) ;
#321 = MECHANICAL_DESIGN_GEOMETRIC_PRESENTATION_REPRESENTATION (  '', ( #158 ), #279 ) ;
#322 = EDGE_CURVE ( 'NONE', #118, #142, #68, .T. ) ;
#323 = SURFACE_STYLE_FILL_AREA ( #143 ) ;
#324 = LENGTH_MEASURE_WITH_UNIT ( LENGTH_MEASURE( 0.02539999999999999897 ), #90 );
#325 = STYLED_ITEM ( 'NONE', ( #165 ), #196 ) ;
#326 = CIRCLE ( 'NONE', #61, 0.2500000000000000000 ) ;
#327 = LINE ( 'NONE', #214, #277 ) ;
#328 = DIRECTION ( 'NONE',  ( -1.000000000000000000, 0.000000000000000000, 0.000000000000000000 ) ) ;
#329 = FILL_AREA_STYLE_COLOUR ( '', #236 ) ;
#330 = FACE_OUTER_BOUND ( 'NONE', #129, .T. ) ;
#331 = CIRCLE ( 'NONE', #60, 0.2500000000000000000 ) ;
#332 = STYLED_ITEM ( 'NONE', ( #172 ), #293 ) ;
#333 = ADVANCED_FACE ( 'NONE', ( #138 ), #141, .T. ) ;
#334 = AXIS2_PLACEMENT_3D ( 'NONE', #113, #254, #342 ) ;
#335 = SURFACE_STYLE_FILL_AREA ( #310 ) ;
#336 = LENGTH_MEASURE_WITH_UNIT ( LENGTH_MEASURE( 0.02539999999999999897 ), #199 );
#337 = UNCERTAINTY_MEASURE_WITH_UNIT (LENGTH_MEASURE( 1.000000000000000082E-05 ), #79, 'distance_accuracy_value', 'NONE');
#338 = ADVANCED_BREP_SHAPE_REPRESENTATION ( '12317', ( #187, #196, #86 ), #175 ) ;
#339 = DIRECTION ( 'NONE',  ( 0.000000000000000000, 0.000000000000000000, -1.000000000000000000 ) ) ;
#340 = EDGE_CURVE ( 'NONE', #151, #209, #300, .T. ) ;
#341 = CIRCLE ( 'NONE', #184, 0.2500000000000000000 ) ;
#342 = DIRECTION ( 'NONE',  ( 1.000000000000000000, 0.000000000000000000, 0.000000000000000000 ) ) ;
#343 = PRESENTATION_LAYER_ASSIGNMENT (  '', '', ( #325 ) ) ;
#344 = COLOUR_RGB ( '',1.000000000000000000, 0.000000000000000000, 0.000000000000000000 ) ;
#345 = CARTESIAN_POINT ( 'NONE',  ( 0.2500000000000000000, 0.2500000000000000000, 0.000000000000000000 ) ) ;
#346 = ORIENTED_EDGE ( 'NONE', *, *, #156, .T. ) ;
#347 = EDGE_LOOP ( 'NONE', ( #83, #5, #213, #102 ) ) ;
#348 = DIRECTION ( 'NONE',  ( 0.000000000000000000, 0.000000000000000000, 1.000000000000000000 ) ) ;
#349 = VERTEX_POINT ( 'NONE', #109 ) ;
#350 = AXIS2_PLACEMENT_3D ( 'NONE', #77, #178, #282 ) ;
#351 = SHAPE_DEFINITION_REPRESENTATION ( #63, #338 ) ;
#352 = DIRECTION ( 'NONE',  ( 0.000000000000000000, 0.000000000000000000, -1.000000000000000000 ) ) ;
#353 = ORIENTED_EDGE ( 'NONE', *, *, #72, .T. ) ;
#354 = AXIS2_PLACEMENT_3D ( 'NONE', #52, #85, #54 ) ;
#355 = SURFACE_STYLE_FILL_AREA ( #73 ) ;
#356 = ORIENTED_EDGE ( 'NONE', *, *, #185, .T. ) ;
#357 = ORIENTED_EDGE ( 'NONE', *, *, #359, .F. ) ;
#358 = VECTOR ( 'NONE', #189, 39.37007874015748143 ) ;
#359 = EDGE_CURVE ( 'NONE', #55, #149, #274, .T. ) ;
#360 =( NAMED_UNIT ( * ) PLANE_ANGLE_UNIT ( ) SI_UNIT ( $, .RADIAN. ) );
#361 = COLOUR_RGB ( '',1.000000000000000000, 0.000000000000000000, 0.000000000000000000 ) ;
#362 = CARTESIAN_POINT ( 'NONE',  ( -3.061616997868383018E-17, 0.2500000000000000000, 0.000000000000000000 ) ) ;
#363 = CLOSED_SHELL ( 'NONE', ( #243, #87, #268, #47 ) ) ;
#364 = ORIENTED_EDGE ( 'NONE', *, *, #13, .F. ) ;
#365 = FILL_AREA_STYLE ('',( #15 ) ) ;
#366 = CARTESIAN_POINT ( 'NONE',  ( 0.000000000000000000, 0.000000000000000000, 0.000000000000000000 ) ) ;
#367 = EDGE_LOOP ( 'NONE', ( #357, #260 ) ) ;
#368 = SURFACE_STYLE_FILL_AREA ( #365 ) ;
#369 =( LENGTH_UNIT ( ) NAMED_UNIT ( * ) SI_UNIT ( $, .METRE. ) );
#370 = CARTESIAN_POINT ( 'NONE',  ( 0.000000000000000000, 0.2500000000000000000, 0.000000000000000000 ) ) ;
#371 = CYLINDRICAL_SURFACE ( 'NONE', #10, 0.2499999999999999167 ) ;
#372 =( LENGTH_UNIT ( ) NAMED_UNIT ( * ) SI_UNIT ( $, .METRE. ) );
#373 = DIRECTION ( 'NONE',  ( 0.000000000000000000, 0.000000000000000000, -1.000000000000000000 ) ) ;
ENDSEC;
END-ISO-10303-21;
