ISO-10303-21;
HEADER;
FILE_DESCRIPTION (( 'STEP AP214' ),
    '1' );
FILE_NAME ('Micro_SME-016-2.STEP',
    '2021-09-02T10:26:01',
    ( '' ),
    ( '' ),
    'SwSTEP 2.0',
    'SolidWorks 2020',
    '' );
FILE_SCHEMA (( 'AUTOMOTIVE_DESIGN' ));
ENDSEC;

DATA;
#1 = APPLICATION_CONTEXT ( 'automotive_design' ) ;
#2 = FILL_AREA_STYLE_COLOUR ( '', #119 ) ;
#3 = FACE_OUTER_BOUND ( 'NONE', #193, .T. ) ;
#4 = ORIENTED_EDGE ( 'NONE', *, *, #122, .T. ) ;
#5 = CLOSED_SHELL ( 'NONE', ( #262, #202, #279, #194, #145, #138, #298, #269, #129, #51 ) ) ;
#6 = DIRECTION ( 'NONE',  ( 1.000000000000000000, 0.0000000000000000000, -0.0000000000000000000 ) ) ;
#7 = SURFACE_STYLE_FILL_AREA ( #214 ) ;
#8 = ORIENTED_EDGE ( 'NONE', *, *, #68, .F. ) ;
#9 = LENGTH_MEASURE_WITH_UNIT ( LENGTH_MEASURE( 0.02539999999999999897 ), #174 );
#10 = FILL_AREA_STYLE_COLOUR ( '', #151 ) ;
#11 = FACE_OUTER_BOUND ( 'NONE', #211, .T. ) ;
#12 = EDGE_CURVE ( 'NONE', #261, #72, #108, .T. ) ;
#13 = EDGE_CURVE ( 'NONE', #144, #121, #221, .T. ) ;
#14 = AXIS2_PLACEMENT_3D ( 'NONE', #90, #134, #289 ) ;
#15 = MECHANICAL_DESIGN_GEOMETRIC_PRESENTATION_REPRESENTATION (  '', ( #28 ), #246 ) ;
#16 = CARTESIAN_POINT ( 'NONE',  ( -0.007992000000000002574, 0.0000000000000000000, 1.957475443757130816E-18 ) ) ;
#17 = DIRECTION ( 'NONE',  ( 1.000000000000000000, 0.0000000000000000000, 0.0000000000000000000 ) ) ;
#18 = CARTESIAN_POINT ( 'NONE',  ( 0.0000000000000000000, 0.0000000000000000000, 0.0000000000000000000 ) ) ;
#19 = DIRECTION ( 'NONE',  ( 1.000000000000000000, 0.0000000000000000000, 0.0000000000000000000 ) ) ;
#20 = ORIENTED_EDGE ( 'NONE', *, *, #225, .T. ) ;
#21 = EDGE_CURVE ( 'NONE', #46, #242, #22, .T. ) ;
#22 = CIRCLE ( 'NONE', #112, 0.04750000000000064587 ) ;
#23 = DIRECTION ( 'NONE',  ( 1.000000000000000000, 0.0000000000000000000, 0.0000000000000000000 ) ) ;
#24 = VERTEX_POINT ( 'NONE', #286 ) ;
#25 = ORIENTED_EDGE ( 'NONE', *, *, #280, .T. ) ;
#26 = ORIENTED_EDGE ( 'NONE', *, *, #12, .F. ) ;
#27 = ORIENTED_EDGE ( 'NONE', *, *, #208, .T. ) ;
#28 = STYLED_ITEM ( 'NONE', ( #275 ), #52 ) ;
#29 =( NAMED_UNIT ( * ) PLANE_ANGLE_UNIT ( ) SI_UNIT ( $, .RADIAN. ) );
#30 = CARTESIAN_POINT ( 'NONE',  ( 2.939152317953648893E-18, 0.0000000000000000000, 0.02400000000000000050 ) ) ;
#31 = DIRECTION ( 'NONE',  ( -1.000000000000000000, 0.0000000000000000000, 0.0000000000000000000 ) ) ;
#32 = CIRCLE ( 'NONE', #178, 0.04750000000000064587 ) ;
#33 = AXIS2_PLACEMENT_3D ( 'NONE', #237, #256, #168 ) ;
#34 = EDGE_CURVE ( 'NONE', #242, #46, #32, .T. ) ;
#35 = LINE ( 'NONE', #266, #66 ) ;
#36 = CARTESIAN_POINT ( 'NONE',  ( 0.04750000000000064587, 6.735557395310483192E-18, 1.500000000000000222 ) ) ;
#37 = CARTESIAN_POINT ( 'NONE',  ( 0.007992000000000002574, 9.787377218785648302E-19, 0.0000000000000000000 ) ) ;
#38 = CARTESIAN_POINT ( 'NONE',  ( 0.007992000000000006044, 0.0000000000000000000, 0.02400000000000000050 ) ) ;
#39 = LINE ( 'NONE', #206, #240 ) ;
#40 = CONICAL_SURFACE ( 'NONE', #222, 0.007992000000000002574, 0.1745329251994338637 ) ;
#41 =( NAMED_UNIT ( * ) SI_UNIT ( $, .STERADIAN. ) SOLID_ANGLE_UNIT ( ) );
#42 =( NAMED_UNIT ( * ) SI_UNIT ( $, .STERADIAN. ) SOLID_ANGLE_UNIT ( ) );
#43 = EDGE_CURVE ( 'NONE', #24, #192, #153, .T. ) ;
#44 = ORIENTED_EDGE ( 'NONE', *, *, #170, .F. ) ;
#45 = CARTESIAN_POINT ( 'NONE',  ( 0.04750000000000064587, 5.817072295950006528E-18, 1.500000000000000222 ) ) ;
#46 = VERTEX_POINT ( 'NONE', #82 ) ;
#47 = EDGE_CURVE ( 'NONE', #192, #95, #55, .T. ) ;
#48 = EDGE_LOOP ( 'NONE', ( #8, #238, #130, #146 ) ) ;
#49 = PRODUCT_DEFINITION_FORMATION_WITH_SPECIFIED_SOURCE ( 'ANY', '', #59, .NOT_KNOWN. ) ;
#50 = DIRECTION ( 'NONE',  ( 0.0000000000000000000, 0.0000000000000000000, 1.000000000000000000 ) ) ;
#51 = ADVANCED_FACE ( 'NONE', ( #84 ), #57, .F. ) ;
#52 = ADVANCED_BREP_SHAPE_REPRESENTATION ( 'Micro_SME-016-2', ( #87, #147 ), #283 ) ;
#53 = CARTESIAN_POINT ( 'NONE',  ( 0.007992000000000002574, 9.787377218785648302E-19, -9.787377218785654080E-19 ) ) ;
#54 = DIRECTION ( 'NONE',  ( -0.0000000000000000000, -0.0000000000000000000, -1.000000000000000000 ) ) ;
#55 = CIRCLE ( 'NONE', #61, 0.06250000000000002776 ) ;
#56 = AXIS2_PLACEMENT_3D ( 'NONE', #18, #184, #271 ) ;
#57 = PLANE ( 'NONE',  #131 ) ;
#58 = CYLINDRICAL_SURFACE ( 'NONE', #210, 0.06250000000000002776 ) ;
#59 = PRODUCT ( 'Micro_SME-016-2', 'Micro_SME-016-2', '', ( #120 ) ) ;
#60 = PLANE ( 'NONE',  #213 ) ;
#61 = AXIS2_PLACEMENT_3D ( 'NONE', #197, #281, #180 ) ;
#62 = DIRECTION ( 'NONE',  ( 0.0000000000000000000, 0.0000000000000000000, 1.000000000000000000 ) ) ;
#63 = FACE_OUTER_BOUND ( 'NONE', #177, .T. ) ;
#64 = CARTESIAN_POINT ( 'NONE',  ( -0.04750000000000064587, 0.0000000000000000000, 1.500000000000000222 ) ) ;
#65 = EDGE_CURVE ( 'NONE', #261, #121, #101, .T. ) ;
#66 = VECTOR ( 'NONE', #54, 39.37007874015748143 ) ;
#67 = AXIS2_PLACEMENT_3D ( 'NONE', #245, #156, #247 ) ;
#68 = EDGE_CURVE ( 'NONE', #295, #95, #35, .T. ) ;
#69 = LENGTH_MEASURE_WITH_UNIT ( LENGTH_MEASURE( 0.02539999999999999897 ), #74 );
#70 = ORIENTED_EDGE ( 'NONE', *, *, #34, .F. ) ;
#71 = DIMENSIONAL_EXPONENTS ( 1.000000000000000000, 0.0000000000000000000, 0.0000000000000000000, 0.0000000000000000000, 0.0000000000000000000, 0.0000000000000000000, 0.0000000000000000000 ) ;
#72 = VERTEX_POINT ( 'NONE', #241 ) ;
#73 = CIRCLE ( 'NONE', #296, 0.06250000000000002776 ) ;
#74 =( LENGTH_UNIT ( ) NAMED_UNIT ( * ) SI_UNIT ( $, .METRE. ) );
#75 = ORIENTED_EDGE ( 'NONE', *, *, #208, .F. ) ;
#76 = SURFACE_SIDE_STYLE ('',( #162 ) ) ;
#77 = ORIENTED_EDGE ( 'NONE', *, *, #34, .T. ) ;
#78 = SURFACE_SIDE_STYLE ('',( #7 ) ) ;
#79 = PRESENTATION_STYLE_ASSIGNMENT (( #284 ) ) ;
#80 = CONICAL_SURFACE ( 'NONE', #161, 0.007992000000000002574, 0.1745329251994338637 ) ;
#81 = CARTESIAN_POINT ( 'NONE',  ( 0.0000000000000000000, 0.0000000000000000000, 1.500000000000000222 ) ) ;
#82 = CARTESIAN_POINT ( 'NONE',  ( -0.04750000000000064587, 0.0000000000000000000, 1.500000000000000222 ) ) ;
#83 = PRODUCT_DEFINITION ( 'UNKNOWN', '', #49, #100 ) ;
#84 = FACE_OUTER_BOUND ( 'NONE', #163, .T. ) ;
#85 = AXIS2_PLACEMENT_3D ( 'NONE', #105, #148, #31 ) ;
#86 = DIRECTION ( 'NONE',  ( -1.224646799147353700E-16, -0.0000000000000000000, -1.000000000000000000 ) ) ;
#87 = MANIFOLD_SOLID_BREP ( 'Cut-Revolve1', #5 ) ;
#88 = LINE ( 'NONE', #91, #173 ) ;
#89 = EDGE_CURVE ( 'NONE', #72, #261, #287, .T. ) ;
#90 = CARTESIAN_POINT ( 'NONE',  ( 1.198608018303358208E-34, 0.0000000000000000000, 9.787377218785654080E-19 ) ) ;
#91 = CARTESIAN_POINT ( 'NONE',  ( 0.007992000000000006044, 0.0000000000000000000, 0.02400000000000000050 ) ) ;
#92 =( NAMED_UNIT ( * ) PLANE_ANGLE_UNIT ( ) SI_UNIT ( $, .RADIAN. ) );
#93 = CARTESIAN_POINT ( 'NONE',  ( 0.0000000000000000000, 0.0000000000000000000, 1.500000000000000222 ) ) ;
#94 = DIRECTION ( 'NONE',  ( -1.224646799147353700E-16, -0.0000000000000000000, -1.000000000000000000 ) ) ;
#95 = VERTEX_POINT ( 'NONE', #223 ) ;
#96 = SURFACE_STYLE_USAGE ( .BOTH. , #76 ) ;
#97 = VECTOR ( 'NONE', #268, 39.37007874015748854 ) ;
#98 =( CONVERSION_BASED_UNIT ( 'INCH', #164 ) LENGTH_UNIT ( ) NAMED_UNIT ( #71 ) );
#99 = EDGE_LOOP ( 'NONE', ( #234, #77 ) ) ;
#100 = PRODUCT_DEFINITION_CONTEXT ( 'detailed design', #1, 'design' ) ;
#101 = LINE ( 'NONE', #53, #232 ) ;
#102 = DIRECTION ( 'NONE',  ( -1.224646799147353700E-16, -0.0000000000000000000, -1.000000000000000000 ) ) ;
#103 = ORIENTED_EDGE ( 'NONE', *, *, #188, .T. ) ;
#104 =( CONVERSION_BASED_UNIT ( 'INCH', #9 ) LENGTH_UNIT ( ) NAMED_UNIT ( #143 ) );
#105 = CARTESIAN_POINT ( 'NONE',  ( 2.939152317953648893E-18, 0.0000000000000000000, 0.02400000000000000050 ) ) ;
#106 = VECTOR ( 'NONE', #150, 39.37007874015748143 ) ;
#107 = CIRCLE ( 'NONE', #67, 0.06250000000000002776 ) ;
#108 = CIRCLE ( 'NONE', #85, 0.007992000000000002574 ) ;
#109 = LINE ( 'NONE', #288, #135 ) ;
#110 = FACE_OUTER_BOUND ( 'NONE', #99, .T. ) ;
#111 = FACE_OUTER_BOUND ( 'NONE', #48, .T. ) ;
#112 = AXIS2_PLACEMENT_3D ( 'NONE', #282, #50, #219 ) ;
#113 = CONICAL_SURFACE ( 'NONE', #33, 0.04750000000000064587, 0.7853981633974466137 ) ;
#114 = DIRECTION ( 'NONE',  ( -1.000000000000000000, 0.0000000000000000000, 0.0000000000000000000 ) ) ;
#115 = EDGE_CURVE ( 'NONE', #72, #192, #39, .T. ) ;
#116 = APPLICATION_PROTOCOL_DEFINITION ( 'draft international standard', 'automotive_design', 1998, #182 ) ;
#117 =( LENGTH_UNIT ( ) NAMED_UNIT ( * ) SI_UNIT ( $, .METRE. ) );
#118 = ORIENTED_EDGE ( 'NONE', *, *, #248, .F. ) ;
#119 = COLOUR_RGB ( '',0.7921568627450980005, 0.8196078431372548767, 0.9333333333333333481 ) ;
#120 = PRODUCT_CONTEXT ( 'NONE', #182, 'mechanical' ) ;
#121 = VERTEX_POINT ( 'NONE', #37 ) ;
#122 = EDGE_CURVE ( 'NONE', #121, #144, #274, .T. ) ;
#123 = ORIENTED_EDGE ( 'NONE', *, *, #170, .T. ) ;
#124 = DIRECTION ( 'NONE',  ( 0.0000000000000000000, 0.0000000000000000000, -1.000000000000000000 ) ) ;
#125 = ORIENTED_EDGE ( 'NONE', *, *, #225, .F. ) ;
#126 =( GEOMETRIC_REPRESENTATION_CONTEXT ( 3 ) GLOBAL_UNCERTAINTY_ASSIGNED_CONTEXT ( ( #233 ) ) GLOBAL_UNIT_ASSIGNED_CONTEXT ( ( #104, #29, #132 ) ) REPRESENTATION_CONTEXT ( 'NONE', 'WORKASPACE' ) );
#127 = AXIS2_PLACEMENT_3D ( 'NONE', #159, #226, #272 ) ;
#128 = ORIENTED_EDGE ( 'NONE', *, *, #280, .F. ) ;
#129 = ADVANCED_FACE ( 'NONE', ( #250 ), #203, .T. ) ;
#130 = ORIENTED_EDGE ( 'NONE', *, *, #43, .T. ) ;
#131 = AXIS2_PLACEMENT_3D ( 'NONE', #244, #215, #6 ) ;
#132 =( NAMED_UNIT ( * ) SI_UNIT ( $, .STERADIAN. ) SOLID_ANGLE_UNIT ( ) );
#133 = DIRECTION ( 'NONE',  ( 1.000000000000000000, 0.0000000000000000000, 0.0000000000000000000 ) ) ;
#134 = DIRECTION ( 'NONE',  ( -1.224646799147353700E-16, -0.0000000000000000000, -1.000000000000000000 ) ) ;
#135 = VECTOR ( 'NONE', #86, 39.37007874015748143 ) ;
#136 = CARTESIAN_POINT ( 'NONE',  ( 0.0000000000000000000, 0.0000000000000000000, 1.485000000000000764 ) ) ;
#137 = CYLINDRICAL_SURFACE ( 'NONE', #127, 0.007992000000000002574 ) ;
#138 = ADVANCED_FACE ( 'NONE', ( #110 ), #60, .T. ) ;
#139 = DIRECTION ( 'NONE',  ( -1.000000000000000000, 0.0000000000000000000, 0.0000000000000000000 ) ) ;
#140 = MECHANICAL_DESIGN_GEOMETRIC_PRESENTATION_REPRESENTATION (  '', ( #227 ), #126 ) ;
#141 = CARTESIAN_POINT ( 'NONE',  ( 0.0000000000000000000, 0.0000000000000000000, 0.0000000000000000000 ) ) ;
#142 = ORIENTED_EDGE ( 'NONE', *, *, #68, .T. ) ;
#143 = DIMENSIONAL_EXPONENTS ( 1.000000000000000000, 0.0000000000000000000, 0.0000000000000000000, 0.0000000000000000000, 0.0000000000000000000, 0.0000000000000000000, 0.0000000000000000000 ) ;
#144 = VERTEX_POINT ( 'NONE', #16 ) ;
#145 = ADVANCED_FACE ( 'NONE', ( #111 ), #58, .T. ) ;
#146 = ORIENTED_EDGE ( 'NONE', *, *, #292, .F. ) ;
#147 = AXIS2_PLACEMENT_3D ( 'NONE', #141, #231, #23 ) ;
#148 = DIRECTION ( 'NONE',  ( -1.224646799147353700E-16, -0.0000000000000000000, -1.000000000000000000 ) ) ;
#149 = DIRECTION ( 'NONE',  ( 1.000000000000000000, 0.0000000000000000000, 0.0000000000000000000 ) ) ;
#150 = DIRECTION ( 'NONE',  ( -0.0000000000000000000, -0.0000000000000000000, -1.000000000000000000 ) ) ;
#151 = COLOUR_RGB ( '',0.7921568627450980005, 0.8196078431372548767, 0.9333333333333333481 ) ;
#152 = PRESENTATION_LAYER_ASSIGNMENT (  '', '', ( #28 ) ) ;
#153 = LINE ( 'NONE', #265, #106 ) ;
#154 = FACE_OUTER_BOUND ( 'NONE', #195, .T. ) ;
#155 = AXIS2_PLACEMENT_3D ( 'NONE', #199, #102, #196 ) ;
#156 = DIRECTION ( 'NONE',  ( 0.0000000000000000000, 0.0000000000000000000, -1.000000000000000000 ) ) ;
#157 = DIRECTION ( 'NONE',  ( 1.224646799147353700E-16, 0.0000000000000000000, 1.000000000000000000 ) ) ;
#158 = CARTESIAN_POINT ( 'NONE',  ( 2.939152317953648893E-18, 0.0000000000000000000, 0.02400000000000000050 ) ) ;
#159 = CARTESIAN_POINT ( 'NONE',  ( 0.0000000000000000000, 0.0000000000000000000, 0.0000000000000000000 ) ) ;
#160 = AXIS2_PLACEMENT_3D ( 'NONE', #30, #185, #186 ) ;
#161 = AXIS2_PLACEMENT_3D ( 'NONE', #158, #251, #133 ) ;
#162 = SURFACE_STYLE_FILL_AREA ( #278 ) ;
#163 = EDGE_LOOP ( 'NONE', ( #230, #4 ) ) ;
#164 = LENGTH_MEASURE_WITH_UNIT ( LENGTH_MEASURE( 0.02539999999999999897 ), #117 );
#165 = PRODUCT_RELATED_PRODUCT_CATEGORY ( 'part', '', ( #59 ) ) ;
#166 = ORIENTED_EDGE ( 'NONE', *, *, #13, .F. ) ;
#167 = AXIS2_PLACEMENT_3D ( 'NONE', #136, #228, #19 ) ;
#168 = DIRECTION ( 'NONE',  ( -1.000000000000000000, 0.0000000000000000000, 0.0000000000000000000 ) ) ;
#169 = DIMENSIONAL_EXPONENTS ( 1.000000000000000000, 0.0000000000000000000, 0.0000000000000000000, 0.0000000000000000000, 0.0000000000000000000, 0.0000000000000000000, 0.0000000000000000000 ) ;
#170 = EDGE_CURVE ( 'NONE', #24, #295, #198, .T. ) ;
#171 =( NAMED_UNIT ( * ) PLANE_ANGLE_UNIT ( ) SI_UNIT ( $, .RADIAN. ) );
#172 = EDGE_LOOP ( 'NONE', ( #175, #254, #166, #216 ) ) ;
#173 = VECTOR ( 'NONE', #270, 39.37007874015748143 ) ;
#174 =( LENGTH_UNIT ( ) NAMED_UNIT ( * ) SI_UNIT ( $, .METRE. ) );
#175 = ORIENTED_EDGE ( 'NONE', *, *, #89, .T. ) ;
#176 = APPLICATION_PROTOCOL_DEFINITION ( 'draft international standard', 'automotive_design', 1998, #1 ) ;
#177 = EDGE_LOOP ( 'NONE', ( #212, #26, #20, #267 ) ) ;
#178 = AXIS2_PLACEMENT_3D ( 'NONE', #81, #201, #149 ) ;
#179 = VECTOR ( 'NONE', #255, 39.37007874015748854 ) ;
#180 = DIRECTION ( 'NONE',  ( 1.000000000000000000, 0.0000000000000000000, 0.0000000000000000000 ) ) ;
#181 = CYLINDRICAL_SURFACE ( 'NONE', #252, 0.06250000000000002776 ) ;
#182 = APPLICATION_CONTEXT ( 'automotive_design' ) ;
#183 = CARTESIAN_POINT ( 'NONE',  ( 2.939152317953648893E-18, 0.0000000000000000000, 0.02400000000000000050 ) ) ;
#184 = DIRECTION ( 'NONE',  ( -1.224646799147353700E-16, -0.0000000000000000000, -1.000000000000000000 ) ) ;
#185 = DIRECTION ( 'NONE',  ( -1.224646799147353700E-16, -0.0000000000000000000, -1.000000000000000000 ) ) ;
#186 = DIRECTION ( 'NONE',  ( -1.000000000000000000, 0.0000000000000000000, 0.0000000000000000000 ) ) ;
#187 = EDGE_LOOP ( 'NONE', ( #70, #25, #44, #75 ) ) ;
#188 = EDGE_CURVE ( 'NONE', #72, #144, #109, .T. ) ;
#189 = FACE_OUTER_BOUND ( 'NONE', #187, .T. ) ;
#190 = ORIENTED_EDGE ( 'NONE', *, *, #47, .T. ) ;
#191 = DIRECTION ( 'NONE',  ( 1.000000000000000000, 0.0000000000000000000, 0.0000000000000000000 ) ) ;
#192 = VERTEX_POINT ( 'NONE', #204 ) ;
#193 = EDGE_LOOP ( 'NONE', ( #128, #297, #27, #118 ) ) ;
#194 = ADVANCED_FACE ( 'NONE', ( #11 ), #181, .T. ) ;
#195 = EDGE_LOOP ( 'NONE', ( #263, #277, #190, #125 ) ) ;
#196 = DIRECTION ( 'NONE',  ( -1.000000000000000000, 0.0000000000000000000, 1.224646799147353700E-16 ) ) ;
#197 = CARTESIAN_POINT ( 'NONE',  ( 4.079668691629830782E-17, 0.0000000000000000000, 0.3331302294237206141 ) ) ;
#198 = CIRCLE ( 'NONE', #167, 0.06250000000000002776 ) ;
#199 = CARTESIAN_POINT ( 'NONE',  ( 1.198608018303358208E-34, 0.0000000000000000000, 9.787377218785654080E-19 ) ) ;
#200 = ORIENTED_EDGE ( 'NONE', *, *, #43, .F. ) ;
#201 = DIRECTION ( 'NONE',  ( 0.0000000000000000000, 0.0000000000000000000, 1.000000000000000000 ) ) ;
#202 = ADVANCED_FACE ( 'NONE', ( #154 ), #40, .T. ) ;
#203 = CYLINDRICAL_SURFACE ( 'NONE', #56, 0.007992000000000002574 ) ;
#204 = CARTESIAN_POINT ( 'NONE',  ( -0.06249999999999997918, 0.0000000000000000000, 0.3331302294237206141 ) ) ;
#205 = CARTESIAN_POINT ( 'NONE',  ( 0.0000000000000000000, 0.0000000000000000000, 1.500000000000000222 ) ) ;
#206 = CARTESIAN_POINT ( 'NONE',  ( -0.007992000000000000839, 9.787377218785650228E-19, 0.02400000000000000050 ) ) ;
#207 = DIRECTION ( 'NONE',  ( -0.0000000000000000000, -0.0000000000000000000, -1.000000000000000000 ) ) ;
#208 = EDGE_CURVE ( 'NONE', #46, #24, #290, .T. ) ;
#209 = ORIENTED_EDGE ( 'NONE', *, *, #65, .F. ) ;
#210 = AXIS2_PLACEMENT_3D ( 'NONE', #249, #207, #139 ) ;
#211 = EDGE_LOOP ( 'NONE', ( #123, #142, #239, #200 ) ) ;
#212 = ORIENTED_EDGE ( 'NONE', *, *, #115, .F. ) ;
#213 = AXIS2_PLACEMENT_3D ( 'NONE', #224, #62, #273 ) ;
#214 = FILL_AREA_STYLE ('',( #10 ) ) ;
#215 = DIRECTION ( 'NONE',  ( 0.0000000000000000000, 0.0000000000000000000, 1.000000000000000000 ) ) ;
#216 = ORIENTED_EDGE ( 'NONE', *, *, #188, .F. ) ;
#217 = PRESENTATION_LAYER_ASSIGNMENT (  '', '', ( #227 ) ) ;
#218 = SHAPE_DEFINITION_REPRESENTATION ( #264, #52 ) ;
#219 = DIRECTION ( 'NONE',  ( 1.000000000000000000, 0.0000000000000000000, 0.0000000000000000000 ) ) ;
#220 = DIRECTION ( 'NONE',  ( -0.1736481776669311639, 2.126576849575783008E-17, 0.9848077530122080203 ) ) ;
#221 = CIRCLE ( 'NONE', #155, 0.007992000000000002574 ) ;
#222 = AXIS2_PLACEMENT_3D ( 'NONE', #183, #157, #17 ) ;
#223 = CARTESIAN_POINT ( 'NONE',  ( 0.06250000000000006939, 7.654042494670963708E-18, 0.3331302294237206141 ) ) ;
#224 = CARTESIAN_POINT ( 'NONE',  ( 0.0000000000000000000, 0.0000000000000000000, 1.500000000000000222 ) ) ;
#225 = EDGE_CURVE ( 'NONE', #261, #95, #88, .T. ) ;
#226 = DIRECTION ( 'NONE',  ( -1.224646799147353700E-16, -0.0000000000000000000, -1.000000000000000000 ) ) ;
#227 = STYLED_ITEM ( 'NONE', ( #79 ), #87 ) ;
#228 = DIRECTION ( 'NONE',  ( 0.0000000000000000000, 0.0000000000000000000, -1.000000000000000000 ) ) ;
#229 =( CONVERSION_BASED_UNIT ( 'INCH', #69 ) LENGTH_UNIT ( ) NAMED_UNIT ( #169 ) );
#230 = ORIENTED_EDGE ( 'NONE', *, *, #13, .T. ) ;
#231 = DIRECTION ( 'NONE',  ( 0.0000000000000000000, 0.0000000000000000000, 1.000000000000000000 ) ) ;
#232 = VECTOR ( 'NONE', #285, 39.37007874015748143 ) ;
#233 = UNCERTAINTY_MEASURE_WITH_UNIT (LENGTH_MEASURE( 1.000000000000000082E-05 ), #104, 'distance_accuracy_value', 'NONE');
#234 = ORIENTED_EDGE ( 'NONE', *, *, #21, .T. ) ;
#235 = LINE ( 'NONE', #45, #179 ) ;
#236 = EDGE_LOOP ( 'NONE', ( #209, #259, #103, #276 ) ) ;
#237 = CARTESIAN_POINT ( 'NONE',  ( 0.0000000000000000000, 0.0000000000000000000, 1.500000000000000222 ) ) ;
#238 = ORIENTED_EDGE ( 'NONE', *, *, #248, .T. ) ;
#239 = ORIENTED_EDGE ( 'NONE', *, *, #47, .F. ) ;
#240 = VECTOR ( 'NONE', #220, 39.37007874015747433 ) ;
#241 = CARTESIAN_POINT ( 'NONE',  ( -0.007992000000000000839, 4.316390108274762921E-18, 0.02400000000000000050 ) ) ;
#242 = VERTEX_POINT ( 'NONE', #36 ) ;
#243 = CONICAL_SURFACE ( 'NONE', #258, 0.04750000000000064587, 0.7853981633974466137 ) ;
#244 = CARTESIAN_POINT ( 'NONE',  ( 0.0000000000000000000, 0.0000000000000000000, 0.0000000000000000000 ) ) ;
#245 = CARTESIAN_POINT ( 'NONE',  ( 0.0000000000000000000, 0.0000000000000000000, 1.485000000000000764 ) ) ;
#246 =( GEOMETRIC_REPRESENTATION_CONTEXT ( 3 ) GLOBAL_UNCERTAINTY_ASSIGNED_CONTEXT ( ( #257 ) ) GLOBAL_UNIT_ASSIGNED_CONTEXT ( ( #229, #171, #41 ) ) REPRESENTATION_CONTEXT ( 'NONE', 'WORKASPACE' ) );
#247 = DIRECTION ( 'NONE',  ( 1.000000000000000000, 0.0000000000000000000, 0.0000000000000000000 ) ) ;
#248 = EDGE_CURVE ( 'NONE', #295, #24, #107, .T. ) ;
#249 = CARTESIAN_POINT ( 'NONE',  ( 0.0000000000000000000, 0.0000000000000000000, 1.500000000000000222 ) ) ;
#250 = FACE_OUTER_BOUND ( 'NONE', #236, .T. ) ;
#251 = DIRECTION ( 'NONE',  ( 1.224646799147353700E-16, 0.0000000000000000000, 1.000000000000000000 ) ) ;
#252 = AXIS2_PLACEMENT_3D ( 'NONE', #205, #291, #114 ) ;
#253 = CARTESIAN_POINT ( 'NONE',  ( 0.06250000000000002776, 7.654042494670959086E-18, 1.485000000000000764 ) ) ;
#254 = ORIENTED_EDGE ( 'NONE', *, *, #65, .T. ) ;
#255 = DIRECTION ( 'NONE',  ( 0.7071067811865462405, 8.659560562354916834E-17, -0.7071067811865486830 ) ) ;
#256 = DIRECTION ( 'NONE',  ( 0.0000000000000000000, 0.0000000000000000000, -1.000000000000000000 ) ) ;
#257 = UNCERTAINTY_MEASURE_WITH_UNIT (LENGTH_MEASURE( 1.000000000000000082E-05 ), #229, 'distance_accuracy_value', 'NONE');
#258 = AXIS2_PLACEMENT_3D ( 'NONE', #93, #124, #294 ) ;
#259 = ORIENTED_EDGE ( 'NONE', *, *, #12, .T. ) ;
#260 = UNCERTAINTY_MEASURE_WITH_UNIT (LENGTH_MEASURE( 1.000000000000000082E-05 ), #98, 'distance_accuracy_value', 'NONE');
#261 = VERTEX_POINT ( 'NONE', #38 ) ;
#262 = ADVANCED_FACE ( 'NONE', ( #293 ), #137, .T. ) ;
#263 = ORIENTED_EDGE ( 'NONE', *, *, #89, .F. ) ;
#264 = PRODUCT_DEFINITION_SHAPE ( 'NONE', 'NONE',  #83 ) ;
#265 = CARTESIAN_POINT ( 'NONE',  ( -0.06250000000000002776, 0.0000000000000000000, 1.500000000000000222 ) ) ;
#266 = CARTESIAN_POINT ( 'NONE',  ( 0.06250000000000002776, 7.654042494670959086E-18, 1.500000000000000222 ) ) ;
#267 = ORIENTED_EDGE ( 'NONE', *, *, #292, .T. ) ;
#268 = DIRECTION ( 'NONE',  ( -0.7071067811865462405, 0.0000000000000000000, -0.7071067811865486830 ) ) ;
#269 = ADVANCED_FACE ( 'NONE', ( #63 ), #80, .T. ) ;
#270 = DIRECTION ( 'NONE',  ( 0.1736481776669313581, 0.0000000000000000000, 0.9848077530122077983 ) ) ;
#271 = DIRECTION ( 'NONE',  ( -1.000000000000000000, 0.0000000000000000000, 1.224646799147353700E-16 ) ) ;
#272 = DIRECTION ( 'NONE',  ( -1.000000000000000000, 0.0000000000000000000, 1.224646799147353700E-16 ) ) ;
#273 = DIRECTION ( 'NONE',  ( 1.000000000000000000, 0.0000000000000000000, -0.0000000000000000000 ) ) ;
#274 = CIRCLE ( 'NONE', #14, 0.007992000000000002574 ) ;
#275 = PRESENTATION_STYLE_ASSIGNMENT (( #96 ) ) ;
#276 = ORIENTED_EDGE ( 'NONE', *, *, #122, .F. ) ;
#277 = ORIENTED_EDGE ( 'NONE', *, *, #115, .T. ) ;
#278 = FILL_AREA_STYLE ('',( #2 ) ) ;
#279 = ADVANCED_FACE ( 'NONE', ( #189 ), #113, .T. ) ;
#280 = EDGE_CURVE ( 'NONE', #242, #295, #235, .T. ) ;
#281 = DIRECTION ( 'NONE',  ( -1.224646799147353700E-16, -0.0000000000000000000, -1.000000000000000000 ) ) ;
#282 = CARTESIAN_POINT ( 'NONE',  ( 0.0000000000000000000, 0.0000000000000000000, 1.500000000000000222 ) ) ;
#283 =( GEOMETRIC_REPRESENTATION_CONTEXT ( 3 ) GLOBAL_UNCERTAINTY_ASSIGNED_CONTEXT ( ( #260 ) ) GLOBAL_UNIT_ASSIGNED_CONTEXT ( ( #98, #92, #42 ) ) REPRESENTATION_CONTEXT ( 'NONE', 'WORKASPACE' ) );
#284 = SURFACE_STYLE_USAGE ( .BOTH. , #78 ) ;
#285 = DIRECTION ( 'NONE',  ( -1.224646799147353700E-16, -0.0000000000000000000, -1.000000000000000000 ) ) ;
#286 = CARTESIAN_POINT ( 'NONE',  ( -0.06250000000000002776, 0.0000000000000000000, 1.485000000000000764 ) ) ;
#287 = CIRCLE ( 'NONE', #160, 0.007992000000000002574 ) ;
#288 = CARTESIAN_POINT ( 'NONE',  ( -0.007992000000000002574, 0.0000000000000000000, 9.787377218785654080E-19 ) ) ;
#289 = DIRECTION ( 'NONE',  ( -1.000000000000000000, 0.0000000000000000000, 1.224646799147353700E-16 ) ) ;
#290 = LINE ( 'NONE', #64, #97 ) ;
#291 = DIRECTION ( 'NONE',  ( -0.0000000000000000000, -0.0000000000000000000, -1.000000000000000000 ) ) ;
#292 = EDGE_CURVE ( 'NONE', #95, #192, #73, .T. ) ;
#293 = FACE_OUTER_BOUND ( 'NONE', #172, .T. ) ;
#294 = DIRECTION ( 'NONE',  ( -1.000000000000000000, 0.0000000000000000000, 0.0000000000000000000 ) ) ;
#295 = VERTEX_POINT ( 'NONE', #253 ) ;
#296 = AXIS2_PLACEMENT_3D ( 'NONE', #299, #94, #191 ) ;
#297 = ORIENTED_EDGE ( 'NONE', *, *, #21, .F. ) ;
#298 = ADVANCED_FACE ( 'NONE', ( #3 ), #243, .T. ) ;
#299 = CARTESIAN_POINT ( 'NONE',  ( 4.079668691629830782E-17, 0.0000000000000000000, 0.3331302294237206141 ) ) ;
ENDSEC;
END-ISO-10303-21;
