ISO-10303-21;
HEADER;
FILE_DESCRIPTION (( 'STEP AP214' ),
    '1' );
FILE_NAME ('Micro_MRT-312-109.STEP',
    '2021-09-02T21:12:18',
    ( '' ),
    ( '' ),
    'SwSTEP 2.0',
    'SolidWorks 2020',
    '' );
FILE_SCHEMA (( 'AUTOMOTIVE_DESIGN' ));
ENDSEC;

DATA;
#1 = EDGE_LOOP ( 'NONE', ( #274, #211, #247 ) ) ;
#2 = CARTESIAN_POINT ( 'NONE',  ( 0.0000000000000000000, 0.0000000000000000000, 2.500000000000000000 ) ) ;
#3 = SURFACE_STYLE_FILL_AREA ( #253 ) ;
#4 = DIRECTION ( 'NONE',  ( 0.0000000000000000000, 0.0000000000000000000, -1.000000000000000000 ) ) ;
#5 = DIRECTION ( 'NONE',  ( 0.0000000000000000000, 0.0000000000000000000, -1.000000000000000000 ) ) ;
#6 = PRODUCT_DEFINITION_FORMATION_WITH_SPECIFIED_SOURCE ( 'ANY', '', #76, .NOT_KNOWN. ) ;
#7 = CARTESIAN_POINT ( 'NONE',  ( -6.698817991336021385E-18, 0.0000000000000000000, 1.707404996040164512E-17 ) ) ;
#8 = AXIS2_PLACEMENT_3D ( 'NONE', #77, #161, #268 ) ;
#9 = CARTESIAN_POINT ( 'NONE',  ( 0.0000000000000000000, 0.0000000000000000000, 2.500000000000000000 ) ) ;
#10 = ADVANCED_FACE ( 'NONE', ( #237 ), #32, .T. ) ;
#11 = AXIS2_PLACEMENT_3D ( 'NONE', #124, #210, #176 ) ;
#12 = DIRECTION ( 'NONE',  ( -0.0000000000000000000, -0.0000000000000000000, -1.000000000000000000 ) ) ;
#13 = EDGE_CURVE ( 'NONE', #254, #250, #74, .T. ) ;
#14 = DIRECTION ( 'NONE',  ( 0.0000000000000000000, 0.0000000000000000000, -1.000000000000000000 ) ) ;
#15 = ORIENTED_EDGE ( 'NONE', *, *, #107, .T. ) ;
#16 = DIMENSIONAL_EXPONENTS ( 1.000000000000000000, 0.0000000000000000000, 0.0000000000000000000, 0.0000000000000000000, 0.0000000000000000000, 0.0000000000000000000, 0.0000000000000000000 ) ;
#17 = CARTESIAN_POINT ( 'NONE',  ( 0.0000000000000000000, 0.0000000000000000000, 2.484999999999999432 ) ) ;
#18 = ORIENTED_EDGE ( 'NONE', *, *, #241, .T. ) ;
#19 = ORIENTED_EDGE ( 'NONE', *, *, #145, .T. ) ;
#20 = ORIENTED_EDGE ( 'NONE', *, *, #34, .F. ) ;
#21 = CARTESIAN_POINT ( 'NONE',  ( 0.1718749999999999167, 0.0000000000000000000, 0.4541420718908947829 ) ) ;
#22 = SURFACE_STYLE_USAGE ( .BOTH. , #207 ) ;
#23 = STYLED_ITEM ( 'NONE', ( #80 ), #273 ) ;
#24 = ORIENTED_EDGE ( 'NONE', *, *, #116, .F. ) ;
#25 = CIRCLE ( 'NONE', #267, 0.1562500000000000000 ) ;
#26 = DIRECTION ( 'NONE',  ( -0.0000000000000000000, -0.0000000000000000000, 1.000000000000000000 ) ) ;
#27 = DIRECTION ( 'NONE',  ( 1.000000000000000000, 0.0000000000000000000, 0.0000000000000000000 ) ) ;
#28 = CARTESIAN_POINT ( 'NONE',  ( 0.1562500000000000000, 1.913510623667739463E-17, 2.500000000000000000 ) ) ;
#29 = PRODUCT_DEFINITION ( 'UNKNOWN', '', #6, #54 ) ;
#30 = CARTESIAN_POINT ( 'NONE',  ( 0.0000000000000000000, 0.0000000000000000000, 0.3655282934593649946 ) ) ;
#31 = CARTESIAN_POINT ( 'NONE',  ( 0.0000000000000000000, 0.0000000000000000000, 0.4541420718908947829 ) ) ;
#32 = CYLINDRICAL_SURFACE ( 'NONE', #223, 0.1562500000000000000 ) ;
#33 = VECTOR ( 'NONE', #256, 39.37007874015748143 ) ;
#34 = EDGE_CURVE ( 'NONE', #191, #229, #264, .T. ) ;
#35 = UNCERTAINTY_MEASURE_WITH_UNIT (LENGTH_MEASURE( 1.000000000000000082E-05 ), #175, 'distance_accuracy_value', 'NONE');
#36 = PRESENTATION_LAYER_ASSIGNMENT (  '', '', ( #89 ) ) ;
#37 = ADVANCED_FACE ( 'NONE', ( #83 ), #106, .T. ) ;
#38 = CARTESIAN_POINT ( 'NONE',  ( -0.1412499999999994871, 0.0000000000000000000, 2.500000000000000000 ) ) ;
#39 = MANIFOLD_SOLID_BREP ( 'Cut-Revolve1', #170 ) ;
#40 = ORIENTED_EDGE ( 'NONE', *, *, #179, .F. ) ;
#41 = CARTESIAN_POINT ( 'NONE',  ( -0.1562500000000000000, 0.0000000000000000000, 2.500000000000000000 ) ) ;
#42 = VERTEX_POINT ( 'NONE', #38 ) ;
#43 = CARTESIAN_POINT ( 'NONE',  ( -0.1412499999999994871, 0.0000000000000000000, 2.500000000000000000 ) ) ;
#44 = DIRECTION ( 'NONE',  ( 0.0000000000000000000, 0.0000000000000000000, 1.000000000000000000 ) ) ;
#45 = CIRCLE ( 'NONE', #102, 0.1093999999999999972 ) ;
#46 = EDGE_LOOP ( 'NONE', ( #123, #18, #60 ) ) ;
#47 = ORIENTED_EDGE ( 'NONE', *, *, #55, .F. ) ;
#48 = CARTESIAN_POINT ( 'NONE',  ( -0.1562500000000000000, 0.0000000000000000000, 0.3655282934593649946 ) ) ;
#49 =( NAMED_UNIT ( * ) SI_UNIT ( $, .STERADIAN. ) SOLID_ANGLE_UNIT ( ) );
#50 = ORIENTED_EDGE ( 'NONE', *, *, #56, .T. ) ;
#51 = DIRECTION ( 'NONE',  ( 0.7071067811865410224, 8.659560562354852739E-17, -0.7071067811865539010 ) ) ;
#52 = AXIS2_PLACEMENT_3D ( 'NONE', #2, #158, #174 ) ;
#53 = DIRECTION ( 'NONE',  ( -0.0000000000000000000, -0.0000000000000000000, 1.000000000000000000 ) ) ;
#54 = PRODUCT_DEFINITION_CONTEXT ( 'detailed design', #95, 'design' ) ;
#55 = EDGE_CURVE ( 'NONE', #132, #82, #182, .T. ) ;
#56 = EDGE_CURVE ( 'NONE', #82, #132, #25, .T. ) ;
#57 =( CONVERSION_BASED_UNIT ( 'INCH', #146 ) LENGTH_UNIT ( ) NAMED_UNIT ( #88 ) );
#58 = AXIS2_PLACEMENT_3D ( 'NONE', #187, #79, #165 ) ;
#59 = CARTESIAN_POINT ( 'NONE',  ( 0.0000000000000000000, 0.0000000000000000000, 2.500000000000000000 ) ) ;
#60 = ORIENTED_EDGE ( 'NONE', *, *, #73, .F. ) ;
#61 = PRESENTATION_STYLE_ASSIGNMENT (( #242 ) ) ;
#62 = DIRECTION ( 'NONE',  ( 1.000000000000000000, 0.0000000000000000000, 0.0000000000000000000 ) ) ;
#63 = AXIS2_PLACEMENT_3D ( 'NONE', #125, #44, #27 ) ;
#64 = CONICAL_SURFACE ( 'NONE', #99, 0.1718749999999999167, 0.1745329251994261477 ) ;
#65 = ORIENTED_EDGE ( 'NONE', *, *, #55, .T. ) ;
#66 = DIRECTION ( 'NONE',  ( 1.000000000000000000, -1.224646799147353207E-16, 0.0000000000000000000 ) ) ;
#67 = LENGTH_MEASURE_WITH_UNIT ( LENGTH_MEASURE( 0.02539999999999999897 ), #269 );
#68 = ORIENTED_EDGE ( 'NONE', *, *, #116, .T. ) ;
#69 = CARTESIAN_POINT ( 'NONE',  ( 0.0000000000000000000, 0.0000000000000000000, 0.4541420718908947829 ) ) ;
#70 = DIRECTION ( 'NONE',  ( 0.1736481776669236143, 0.0000000000000000000, 0.9848077530122091305 ) ) ;
#71 = LENGTH_MEASURE_WITH_UNIT ( LENGTH_MEASURE( 0.02539999999999999897 ), #131 );
#72 = FACE_OUTER_BOUND ( 'NONE', #213, .T. ) ;
#73 = EDGE_CURVE ( 'NONE', #250, #254, #203, .T. ) ;
#74 = CIRCLE ( 'NONE', #243, 0.1077379681795356536 ) ;
#75 = EDGE_CURVE ( 'NONE', #192, #250, #45, .T. ) ;
#76 = PRODUCT ( 'Micro_MRT-312-109', 'Micro_MRT-312-109', '', ( #246 ) ) ;
#77 = CARTESIAN_POINT ( 'NONE',  ( 0.0000000000000000000, 0.0000000000000000000, 2.500000000000000000 ) ) ;
#78 = DIRECTION ( 'NONE',  ( -1.000000000000000000, 0.0000000000000000000, 0.0000000000000000000 ) ) ;
#79 = DIRECTION ( 'NONE',  ( 0.0000000000000000000, 0.0000000000000000000, 1.000000000000000000 ) ) ;
#80 = PRESENTATION_STYLE_ASSIGNMENT (( #22 ) ) ;
#81 = ORIENTED_EDGE ( 'NONE', *, *, #145, .F. ) ;
#82 = VERTEX_POINT ( 'NONE', #189 ) ;
#83 = FACE_OUTER_BOUND ( 'NONE', #108, .T. ) ;
#84 =( NAMED_UNIT ( * ) PLANE_ANGLE_UNIT ( ) SI_UNIT ( $, .RADIAN. ) );
#85 = ORIENTED_EDGE ( 'NONE', *, *, #166, .F. ) ;
#86 = LINE ( 'NONE', #41, #120 ) ;
#87 = APPLICATION_PROTOCOL_DEFINITION ( 'draft international standard', 'automotive_design', 1998, #95 ) ;
#88 = DIMENSIONAL_EXPONENTS ( 1.000000000000000000, 0.0000000000000000000, 0.0000000000000000000, 0.0000000000000000000, 0.0000000000000000000, 0.0000000000000000000, 0.0000000000000000000 ) ;
#89 = STYLED_ITEM ( 'NONE', ( #61 ), #39 ) ;
#90 = ORIENTED_EDGE ( 'NONE', *, *, #222, .T. ) ;
#91 = SPHERICAL_SURFACE ( 'NONE', #139, 0.1093999999999999834 ) ;
#92 = CARTESIAN_POINT ( 'NONE',  ( -0.1718749999999999167, 2.104861686034512516E-17, 0.4541420718908947829 ) ) ;
#93 = DIRECTION ( 'NONE',  ( -1.000000000000000000, 0.0000000000000000000, 0.0000000000000000000 ) ) ;
#94 =( GEOMETRIC_REPRESENTATION_CONTEXT ( 3 ) GLOBAL_UNCERTAINTY_ASSIGNED_CONTEXT ( ( #141 ) ) GLOBAL_UNIT_ASSIGNED_CONTEXT ( ( #57, #119, #147 ) ) REPRESENTATION_CONTEXT ( 'NONE', 'WORKASPACE' ) );
#95 = APPLICATION_CONTEXT ( 'automotive_design' ) ;
#96 = UNCERTAINTY_MEASURE_WITH_UNIT (LENGTH_MEASURE( 1.000000000000000082E-05 ), #190, 'distance_accuracy_value', 'NONE');
#97 =( GEOMETRIC_REPRESENTATION_CONTEXT ( 3 ) GLOBAL_UNCERTAINTY_ASSIGNED_CONTEXT ( ( #96 ) ) GLOBAL_UNIT_ASSIGNED_CONTEXT ( ( #190, #84, #110 ) ) REPRESENTATION_CONTEXT ( 'NONE', 'WORKASPACE' ) );
#98 = AXIS2_PLACEMENT_3D ( 'NONE', #193, #257, #66 ) ;
#99 = AXIS2_PLACEMENT_3D ( 'NONE', #31, #53, #109 ) ;
#100 = LINE ( 'NONE', #43, #143 ) ;
#101 = DIRECTION ( 'NONE',  ( -0.7071067811865410224, 0.0000000000000000000, -0.7071067811865539010 ) ) ;
#102 = AXIS2_PLACEMENT_3D ( 'NONE', #248, #184, #104 ) ;
#103 = EDGE_LOOP ( 'NONE', ( #150, #167, #47, #228 ) ) ;
#104 = DIRECTION ( 'NONE',  ( 0.0000000000000000000, 0.0000000000000000000, 1.000000000000000000 ) ) ;
#105 = EDGE_LOOP ( 'NONE', ( #157, #171, #154, #19 ) ) ;
#106 = PLANE ( 'NONE',  #8 ) ;
#107 = EDGE_CURVE ( 'NONE', #42, #132, #100, .T. ) ;
#108 = EDGE_LOOP ( 'NONE', ( #129, #90 ) ) ;
#109 = DIRECTION ( 'NONE',  ( 1.000000000000000000, 0.0000000000000000000, 0.0000000000000000000 ) ) ;
#110 =( NAMED_UNIT ( * ) SI_UNIT ( $, .STERADIAN. ) SOLID_ANGLE_UNIT ( ) );
#111 = PRESENTATION_LAYER_ASSIGNMENT (  '', '', ( #23 ) ) ;
#112 = VECTOR ( 'NONE', #70, 39.37007874015748854 ) ;
#113 = ORIENTED_EDGE ( 'NONE', *, *, #166, .T. ) ;
#114 = CARTESIAN_POINT ( 'NONE',  ( 0.1077379681795356536, 0.0000000000000000000, 0.09040288936323871705 ) ) ;
#115 = LINE ( 'NONE', #92, #163 ) ;
#116 = EDGE_CURVE ( 'NONE', #132, #191, #86, .T. ) ;
#117 = ADVANCED_FACE ( 'NONE', ( #212 ), #122, .T. ) ;
#118 = ADVANCED_FACE ( 'NONE', ( #226 ), #230, .T. ) ;
#119 =( NAMED_UNIT ( * ) PLANE_ANGLE_UNIT ( ) SI_UNIT ( $, .RADIAN. ) );
#120 = VECTOR ( 'NONE', #12, 39.37007874015748143 ) ;
#121 = AXIS2_PLACEMENT_3D ( 'NONE', #69, #26, #236 ) ;
#122 = SPHERICAL_SURFACE ( 'NONE', #201, 0.1093999999999999834 ) ;
#123 = ORIENTED_EDGE ( 'NONE', *, *, #75, .F. ) ;
#124 = CARTESIAN_POINT ( 'NONE',  ( 0.0000000000000000000, 0.0000000000000000000, 0.3655282934593649946 ) ) ;
#125 = CARTESIAN_POINT ( 'NONE',  ( 0.0000000000000000000, 0.0000000000000000000, 0.0000000000000000000 ) ) ;
#126 = CIRCLE ( 'NONE', #58, 0.1412499999999994871 ) ;
#127 = ORIENTED_EDGE ( 'NONE', *, *, #140, .F. ) ;
#128 = CARTESIAN_POINT ( 'NONE',  ( 0.0000000000000000000, 0.0000000000000000000, 0.09040288936323871705 ) ) ;
#129 = ORIENTED_EDGE ( 'NONE', *, *, #140, .T. ) ;
#130 = CARTESIAN_POINT ( 'NONE',  ( -0.1077379681795356536, 1.616460101222408281E-17, 0.09040288936323871705 ) ) ;
#131 =( LENGTH_UNIT ( ) NAMED_UNIT ( * ) SI_UNIT ( $, .METRE. ) );
#132 = VERTEX_POINT ( 'NONE', #206 ) ;
#133 = CARTESIAN_POINT ( 'NONE',  ( 0.1562500000000000000, 1.913510623667739463E-17, 0.3655282934593649946 ) ) ;
#134 = AXIS2_PLACEMENT_3D ( 'NONE', #30, #5, #62 ) ;
#135 = DIRECTION ( 'NONE',  ( -0.0000000000000000000, -1.000000000000000000, 0.0000000000000000000 ) ) ;
#136 = CONICAL_SURFACE ( 'NONE', #121, 0.1718749999999999167, 0.1745329251994261477 ) ;
#137 = LINE ( 'NONE', #21, #112 ) ;
#138 = DIRECTION ( 'NONE',  ( -0.0000000000000000000, -0.0000000000000000000, 1.000000000000000000 ) ) ;
#139 = AXIS2_PLACEMENT_3D ( 'NONE', #233, #135, #219 ) ;
#140 = EDGE_CURVE ( 'NONE', #42, #235, #126, .T. ) ;
#141 = UNCERTAINTY_MEASURE_WITH_UNIT (LENGTH_MEASURE( 1.000000000000000082E-05 ), #57, 'distance_accuracy_value', 'NONE');
#142 =( GEOMETRIC_REPRESENTATION_CONTEXT ( 3 ) GLOBAL_UNCERTAINTY_ASSIGNED_CONTEXT ( ( #35 ) ) GLOBAL_UNIT_ASSIGNED_CONTEXT ( ( #175, #156, #49 ) ) REPRESENTATION_CONTEXT ( 'NONE', 'WORKASPACE' ) );
#143 = VECTOR ( 'NONE', #101, 39.37007874015748854 ) ;
#144 = EDGE_LOOP ( 'NONE', ( #65, #113, #20, #24 ) ) ;
#145 = EDGE_CURVE ( 'NONE', #229, #191, #240, .T. ) ;
#146 = LENGTH_MEASURE_WITH_UNIT ( LENGTH_MEASURE( 0.02539999999999999897 ), #245 );
#147 =( NAMED_UNIT ( * ) SI_UNIT ( $, .STERADIAN. ) SOLID_ANGLE_UNIT ( ) );
#148 = ADVANCED_FACE ( 'NONE', ( #155 ), #64, .T. ) ;
#149 = DIRECTION ( 'NONE',  ( 0.0000000000000000000, 0.0000000000000000000, -1.000000000000000000 ) ) ;
#150 = ORIENTED_EDGE ( 'NONE', *, *, #222, .F. ) ;
#151 = CARTESIAN_POINT ( 'NONE',  ( 0.0000000000000000000, 0.0000000000000000000, 2.484999999999999432 ) ) ;
#152 = EDGE_LOOP ( 'NONE', ( #40, #127, #15, #232 ) ) ;
#153 = EDGE_CURVE ( 'NONE', #250, #191, #115, .T. ) ;
#154 = ORIENTED_EDGE ( 'NONE', *, *, #234, .T. ) ;
#155 = FACE_OUTER_BOUND ( 'NONE', #188, .T. ) ;
#156 =( NAMED_UNIT ( * ) PLANE_ANGLE_UNIT ( ) SI_UNIT ( $, .RADIAN. ) );
#157 = ORIENTED_EDGE ( 'NONE', *, *, #153, .F. ) ;
#158 = DIRECTION ( 'NONE',  ( 0.0000000000000000000, 0.0000000000000000000, 1.000000000000000000 ) ) ;
#159 = LINE ( 'NONE', #214, #251 ) ;
#160 = CARTESIAN_POINT ( 'NONE',  ( 0.0000000000000000000, 0.0000000000000000000, 2.500000000000000000 ) ) ;
#161 = DIRECTION ( 'NONE',  ( 0.0000000000000000000, 0.0000000000000000000, 1.000000000000000000 ) ) ;
#162 = DIMENSIONAL_EXPONENTS ( 1.000000000000000000, 0.0000000000000000000, 0.0000000000000000000, 0.0000000000000000000, 0.0000000000000000000, 0.0000000000000000000, 0.0000000000000000000 ) ;
#163 = VECTOR ( 'NONE', #198, 39.37007874015748854 ) ;
#164 = DIRECTION ( 'NONE',  ( 1.000000000000000000, 0.0000000000000000000, 0.0000000000000000000 ) ) ;
#165 = DIRECTION ( 'NONE',  ( 1.000000000000000000, 0.0000000000000000000, 0.0000000000000000000 ) ) ;
#166 = EDGE_CURVE ( 'NONE', #82, #229, #221, .T. ) ;
#167 = ORIENTED_EDGE ( 'NONE', *, *, #179, .T. ) ;
#168 = SHAPE_DEFINITION_REPRESENTATION ( #260, #273 ) ;
#169 = FILL_AREA_STYLE ('',( #252 ) ) ;
#170 = CLOSED_SHELL ( 'NONE', ( #181, #148, #118, #10, #259, #37, #183, #261, #117 ) ) ;
#171 = ORIENTED_EDGE ( 'NONE', *, *, #73, .T. ) ;
#172 = CYLINDRICAL_SURFACE ( 'NONE', #173, 0.1562500000000000000 ) ;
#173 = AXIS2_PLACEMENT_3D ( 'NONE', #160, #275, #239 ) ;
#174 = DIRECTION ( 'NONE',  ( 1.000000000000000000, 0.0000000000000000000, 0.0000000000000000000 ) ) ;
#175 =( CONVERSION_BASED_UNIT ( 'INCH', #67 ) LENGTH_UNIT ( ) NAMED_UNIT ( #162 ) );
#176 = DIRECTION ( 'NONE',  ( 1.000000000000000000, 0.0000000000000000000, 0.0000000000000000000 ) ) ;
#177 = COLOUR_RGB ( '',0.7921568627450980005, 0.8196078431372548767, 0.9333333333333333481 ) ;
#178 = AXIS2_PLACEMENT_3D ( 'NONE', #59, #149, #227 ) ;
#179 = EDGE_CURVE ( 'NONE', #235, #82, #159, .T. ) ;
#180 = CONICAL_SURFACE ( 'NONE', #225, 0.1412499999999994871, 0.7853981633974391752 ) ;
#181 = ADVANCED_FACE ( 'NONE', ( #238 ), #91, .T. ) ;
#182 = CIRCLE ( 'NONE', #224, 0.1562500000000000000 ) ;
#183 = ADVANCED_FACE ( 'NONE', ( #196 ), #180, .T. ) ;
#184 = DIRECTION ( 'NONE',  ( 0.0000000000000000000, 1.000000000000000000, 0.0000000000000000000 ) ) ;
#185 = CARTESIAN_POINT ( 'NONE',  ( 0.0000000000000000000, 0.0000000000000000000, 0.1093999999999999972 ) ) ;
#186 = COLOUR_RGB ( '',0.7921568627450980005, 0.8196078431372548767, 0.9333333333333333481 ) ;
#187 = CARTESIAN_POINT ( 'NONE',  ( 0.0000000000000000000, 0.0000000000000000000, 2.500000000000000000 ) ) ;
#188 = EDGE_LOOP ( 'NONE', ( #271, #208, #216, #195 ) ) ;
#189 = CARTESIAN_POINT ( 'NONE',  ( 0.1562500000000000000, 1.913510623667739463E-17, 2.484999999999999432 ) ) ;
#190 =( CONVERSION_BASED_UNIT ( 'INCH', #71 ) LENGTH_UNIT ( ) NAMED_UNIT ( #16 ) );
#191 = VERTEX_POINT ( 'NONE', #48 ) ;
#192 = VERTEX_POINT ( 'NONE', #7 ) ;
#193 = CARTESIAN_POINT ( 'NONE',  ( 0.0000000000000000000, 0.0000000000000000000, 0.1093999999999999972 ) ) ;
#194 = CIRCLE ( 'NONE', #52, 0.1412499999999994871 ) ;
#195 = ORIENTED_EDGE ( 'NONE', *, *, #234, .F. ) ;
#196 = FACE_OUTER_BOUND ( 'NONE', #152, .T. ) ;
#197 = APPLICATION_PROTOCOL_DEFINITION ( 'draft international standard', 'automotive_design', 1998, #199 ) ;
#198 = DIRECTION ( 'NONE',  ( -0.1736481776669236143, 2.126576849575689023E-17, 0.9848077530122091305 ) ) ;
#199 = APPLICATION_CONTEXT ( 'automotive_design' ) ;
#200 = CARTESIAN_POINT ( 'NONE',  ( 0.0000000000000000000, 0.0000000000000000000, 2.500000000000000000 ) ) ;
#201 = AXIS2_PLACEMENT_3D ( 'NONE', #185, #266, #78 ) ;
#202 = MECHANICAL_DESIGN_GEOMETRIC_PRESENTATION_REPRESENTATION (  '', ( #23 ), #97 ) ;
#203 = CIRCLE ( 'NONE', #258, 0.1077379681795356536 ) ;
#204 = DIRECTION ( 'NONE',  ( -0.0000000000000000000, -0.0000000000000000000, 1.000000000000000000 ) ) ;
#205 = SURFACE_SIDE_STYLE ('',( #231 ) ) ;
#206 = CARTESIAN_POINT ( 'NONE',  ( -0.1562500000000000000, 0.0000000000000000000, 2.484999999999999432 ) ) ;
#207 = SURFACE_SIDE_STYLE ('',( #3 ) ) ;
#208 = ORIENTED_EDGE ( 'NONE', *, *, #153, .T. ) ;
#209 = MECHANICAL_DESIGN_GEOMETRIC_PRESENTATION_REPRESENTATION (  '', ( #89 ), #94 ) ;
#210 = DIRECTION ( 'NONE',  ( 0.0000000000000000000, 0.0000000000000000000, -1.000000000000000000 ) ) ;
#211 = ORIENTED_EDGE ( 'NONE', *, *, #75, .T. ) ;
#212 = FACE_OUTER_BOUND ( 'NONE', #1, .T. ) ;
#213 = EDGE_LOOP ( 'NONE', ( #85, #50, #68, #81 ) ) ;
#214 = CARTESIAN_POINT ( 'NONE',  ( 0.1412499999999994871, 1.729813603795630110E-17, 2.500000000000000000 ) ) ;
#215 = PRODUCT_RELATED_PRODUCT_CATEGORY ( 'part', '', ( #76 ) ) ;
#216 = ORIENTED_EDGE ( 'NONE', *, *, #34, .T. ) ;
#217 = CARTESIAN_POINT ( 'NONE',  ( 0.1412499999999994871, 1.821662113731684786E-17, 2.500000000000000000 ) ) ;
#218 = CIRCLE ( 'NONE', #98, 0.1093999999999999834 ) ;
#219 = DIRECTION ( 'NONE',  ( -1.000000000000000000, 0.0000000000000000000, 0.0000000000000000000 ) ) ;
#220 = DIRECTION ( 'NONE',  ( 1.000000000000000000, 0.0000000000000000000, 0.0000000000000000000 ) ) ;
#221 = LINE ( 'NONE', #28, #33 ) ;
#222 = EDGE_CURVE ( 'NONE', #235, #42, #194, .T. ) ;
#223 = AXIS2_PLACEMENT_3D ( 'NONE', #9, #265, #263 ) ;
#224 = AXIS2_PLACEMENT_3D ( 'NONE', #151, #14, #244 ) ;
#225 = AXIS2_PLACEMENT_3D ( 'NONE', #200, #4, #93 ) ;
#226 = FACE_OUTER_BOUND ( 'NONE', #103, .T. ) ;
#227 = DIRECTION ( 'NONE',  ( -1.000000000000000000, 0.0000000000000000000, 0.0000000000000000000 ) ) ;
#228 = ORIENTED_EDGE ( 'NONE', *, *, #107, .F. ) ;
#229 = VERTEX_POINT ( 'NONE', #133 ) ;
#230 = CONICAL_SURFACE ( 'NONE', #178, 0.1412499999999994871, 0.7853981633974391752 ) ;
#231 = SURFACE_STYLE_FILL_AREA ( #169 ) ;
#232 = ORIENTED_EDGE ( 'NONE', *, *, #56, .F. ) ;
#233 = CARTESIAN_POINT ( 'NONE',  ( 0.0000000000000000000, 0.0000000000000000000, 0.1093999999999999972 ) ) ;
#234 = EDGE_CURVE ( 'NONE', #254, #229, #137, .T. ) ;
#235 = VERTEX_POINT ( 'NONE', #217 ) ;
#236 = DIRECTION ( 'NONE',  ( 1.000000000000000000, 0.0000000000000000000, 0.0000000000000000000 ) ) ;
#237 = FACE_OUTER_BOUND ( 'NONE', #144, .T. ) ;
#238 = FACE_OUTER_BOUND ( 'NONE', #46, .T. ) ;
#239 = DIRECTION ( 'NONE',  ( -1.000000000000000000, 0.0000000000000000000, 0.0000000000000000000 ) ) ;
#240 = CIRCLE ( 'NONE', #11, 0.1562500000000000000 ) ;
#241 = EDGE_CURVE ( 'NONE', #192, #254, #218, .T. ) ;
#242 = SURFACE_STYLE_USAGE ( .BOTH. , #205 ) ;
#243 = AXIS2_PLACEMENT_3D ( 'NONE', #262, #138, #220 ) ;
#244 = DIRECTION ( 'NONE',  ( 1.000000000000000000, 0.0000000000000000000, 0.0000000000000000000 ) ) ;
#245 =( LENGTH_UNIT ( ) NAMED_UNIT ( * ) SI_UNIT ( $, .METRE. ) );
#246 = PRODUCT_CONTEXT ( 'NONE', #199, 'mechanical' ) ;
#247 = ORIENTED_EDGE ( 'NONE', *, *, #13, .F. ) ;
#248 = CARTESIAN_POINT ( 'NONE',  ( 0.0000000000000000000, 0.0000000000000000000, 0.1093999999999999972 ) ) ;
#249 = FILL_AREA_STYLE_COLOUR ( '', #177 ) ;
#250 = VERTEX_POINT ( 'NONE', #130 ) ;
#251 = VECTOR ( 'NONE', #51, 39.37007874015748854 ) ;
#252 = FILL_AREA_STYLE_COLOUR ( '', #186 ) ;
#253 = FILL_AREA_STYLE ('',( #249 ) ) ;
#254 = VERTEX_POINT ( 'NONE', #114 ) ;
#255 = FACE_OUTER_BOUND ( 'NONE', #105, .T. ) ;
#256 = DIRECTION ( 'NONE',  ( -0.0000000000000000000, -0.0000000000000000000, -1.000000000000000000 ) ) ;
#257 = DIRECTION ( 'NONE',  ( -1.224646799147353207E-16, -1.000000000000000000, -0.0000000000000000000 ) ) ;
#258 = AXIS2_PLACEMENT_3D ( 'NONE', #128, #204, #272 ) ;
#259 = ADVANCED_FACE ( 'NONE', ( #72 ), #172, .T. ) ;
#260 = PRODUCT_DEFINITION_SHAPE ( 'NONE', 'NONE',  #29 ) ;
#261 = ADVANCED_FACE ( 'NONE', ( #255 ), #136, .T. ) ;
#262 = CARTESIAN_POINT ( 'NONE',  ( 0.0000000000000000000, 0.0000000000000000000, 0.09040288936323871705 ) ) ;
#263 = DIRECTION ( 'NONE',  ( -1.000000000000000000, 0.0000000000000000000, 0.0000000000000000000 ) ) ;
#264 = CIRCLE ( 'NONE', #134, 0.1562500000000000000 ) ;
#265 = DIRECTION ( 'NONE',  ( -0.0000000000000000000, -0.0000000000000000000, -1.000000000000000000 ) ) ;
#266 = DIRECTION ( 'NONE',  ( -0.0000000000000000000, -1.000000000000000000, 0.0000000000000000000 ) ) ;
#267 = AXIS2_PLACEMENT_3D ( 'NONE', #17, #270, #164 ) ;
#268 = DIRECTION ( 'NONE',  ( 1.000000000000000000, 0.0000000000000000000, -0.0000000000000000000 ) ) ;
#269 =( LENGTH_UNIT ( ) NAMED_UNIT ( * ) SI_UNIT ( $, .METRE. ) );
#270 = DIRECTION ( 'NONE',  ( 0.0000000000000000000, 0.0000000000000000000, -1.000000000000000000 ) ) ;
#271 = ORIENTED_EDGE ( 'NONE', *, *, #13, .T. ) ;
#272 = DIRECTION ( 'NONE',  ( 1.000000000000000000, 0.0000000000000000000, 0.0000000000000000000 ) ) ;
#273 = ADVANCED_BREP_SHAPE_REPRESENTATION ( 'Micro_MRT-312-109', ( #39, #63 ), #142 ) ;
#274 = ORIENTED_EDGE ( 'NONE', *, *, #241, .F. ) ;
#275 = DIRECTION ( 'NONE',  ( -0.0000000000000000000, -0.0000000000000000000, -1.000000000000000000 ) ) ;
ENDSEC;
END-ISO-10303-21;
