ISO-10303-21;
HEADER;
FILE_DESCRIPTION (( 'STEP AP214' ),
    '1' );
FILE_NAME ('Micro_KC-125-190-093.STEP',
    '2021-09-03T19:10:23',
    ( '' ),
    ( '' ),
    'SwSTEP 2.0',
    'SolidWorks 2020',
    '' );
FILE_SCHEMA (( 'AUTOMOTIVE_DESIGN' ));
ENDSEC;

DATA;
#1 = CARTESIAN_POINT ( 'NONE',  ( 0.0000000000000000000, 0.0000000000000000000, 0.0000000000000000000 ) ) ;
#2 = DIRECTION ( 'NONE',  ( 0.0000000000000000000, 0.0000000000000000000, 1.000000000000000000 ) ) ;
#3 = FACE_OUTER_BOUND ( 'NONE', #210, .T. ) ;
#4 = ORIENTED_EDGE ( 'NONE', *, *, #296, .F. ) ;
#5 = EDGE_CURVE ( 'NONE', #177, #326, #140, .T. ) ;
#6 = FACE_OUTER_BOUND ( 'NONE', #111, .T. ) ;
#7 =( CONVERSION_BASED_UNIT ( 'INCH', #183 ) LENGTH_UNIT ( ) NAMED_UNIT ( #27 ) );
#8 = ORIENTED_EDGE ( 'NONE', *, *, #163, .T. ) ;
#9 = DIRECTION ( 'NONE',  ( 0.0000000000000000000, 0.0000000000000000000, 1.000000000000000000 ) ) ;
#10 = PRODUCT_CONTEXT ( 'NONE', #139, 'mechanical' ) ;
#11 = DIRECTION ( 'NONE',  ( 1.000000000000000000, 0.0000000000000000000, 0.0000000000000000000 ) ) ;
#12 = VERTEX_POINT ( 'NONE', #82 ) ;
#13 = PLANE ( 'NONE',  #346 ) ;
#14 =( LENGTH_UNIT ( ) NAMED_UNIT ( * ) SI_UNIT ( $, .METRE. ) );
#15 = EDGE_LOOP ( 'NONE', ( #365, #270 ) ) ;
#16 = AXIS2_PLACEMENT_3D ( 'NONE', #301, #343, #244 ) ;
#17 = DIRECTION ( 'NONE',  ( -1.000000000000000000, 0.0000000000000000000, 0.0000000000000000000 ) ) ;
#18 = ORIENTED_EDGE ( 'NONE', *, *, #178, .F. ) ;
#19 = CARTESIAN_POINT ( 'NONE',  ( 0.0000000000000000000, 0.0000000000000000000, 0.09299999999999999933 ) ) ;
#20 = CARTESIAN_POINT ( 'NONE',  ( 0.06250000000000000000, 7.654042494670956004E-18, 1.500000000000000222 ) ) ;
#21 = DIRECTION ( 'NONE',  ( -0.0000000000000000000, -0.0000000000000000000, -1.000000000000000000 ) ) ;
#22 = ADVANCED_FACE ( 'NONE', ( #25 ), #216, .T. ) ;
#23 = DIRECTION ( 'NONE',  ( -0.0000000000000000000, -0.0000000000000000000, -1.000000000000000000 ) ) ;
#24 = AXIS2_PLACEMENT_3D ( 'NONE', #360, #329, #356 ) ;
#25 = FACE_OUTER_BOUND ( 'NONE', #47, .T. ) ;
#26 = DIRECTION ( 'NONE',  ( -0.0000000000000000000, -0.0000000000000000000, -1.000000000000000000 ) ) ;
#27 = DIMENSIONAL_EXPONENTS ( 1.000000000000000000, 0.0000000000000000000, 0.0000000000000000000, 0.0000000000000000000, 0.0000000000000000000, 0.0000000000000000000, 0.0000000000000000000 ) ;
#28 = AXIS2_PLACEMENT_3D ( 'NONE', #292, #32, #359 ) ;
#29 = DIRECTION ( 'NONE',  ( 0.0000000000000000000, 0.0000000000000000000, 1.000000000000000000 ) ) ;
#30 = EDGE_CURVE ( 'NONE', #64, #160, #259, .T. ) ;
#31 = CARTESIAN_POINT ( 'NONE',  ( 0.0000000000000000000, 0.0000000000000000000, 1.500000000000000222 ) ) ;
#32 = DIRECTION ( 'NONE',  ( 0.0000000000000000000, 0.0000000000000000000, 1.000000000000000000 ) ) ;
#33 = AXIS2_PLACEMENT_3D ( 'NONE', #369, #98, #335 ) ;
#34 = ORIENTED_EDGE ( 'NONE', *, *, #5, .T. ) ;
#35 = DIRECTION ( 'NONE',  ( -0.0000000000000000000, -0.0000000000000000000, -1.000000000000000000 ) ) ;
#36 = LENGTH_MEASURE_WITH_UNIT ( LENGTH_MEASURE( 0.02539999999999999897 ), #14 );
#37 = ORIENTED_EDGE ( 'NONE', *, *, #305, .F. ) ;
#38 = DIRECTION ( 'NONE',  ( -0.0000000000000000000, -0.0000000000000000000, -1.000000000000000000 ) ) ;
#39 = DIRECTION ( 'NONE',  ( 0.0000000000000000000, 0.0000000000000000000, 1.000000000000000000 ) ) ;
#40 = EDGE_LOOP ( 'NONE', ( #291, #8 ) ) ;
#41 = CIRCLE ( 'NONE', #317, 0.03100000000000001713 ) ;
#42 = CARTESIAN_POINT ( 'NONE',  ( -0.03100000000000001019, 0.0000000000000000000, 0.09299999999999999933 ) ) ;
#43 = ORIENTED_EDGE ( 'NONE', *, *, #316, .F. ) ;
#44 = ADVANCED_FACE ( 'NONE', ( #80 ), #286, .T. ) ;
#45 = CIRCLE ( 'NONE', #138, 0.03100000000000001019 ) ;
#46 = CARTESIAN_POINT ( 'NONE',  ( -0.04750000000000064587, 0.0000000000000000000, 1.500000000000000222 ) ) ;
#47 = EDGE_LOOP ( 'NONE', ( #59, #294, #126, #153 ) ) ;
#48 = FILL_AREA_STYLE ('',( #254 ) ) ;
#49 = COLOUR_RGB ( '',0.7921568627450980005, 0.8196078431372548767, 0.9333333333333333481 ) ;
#50 = CARTESIAN_POINT ( 'NONE',  ( 0.06250000000000001388, 7.654042494670957545E-18, 0.09299999999999999933 ) ) ;
#51 = ORIENTED_EDGE ( 'NONE', *, *, #95, .F. ) ;
#52 = CARTESIAN_POINT ( 'NONE',  ( 0.0000000000000000000, 0.0000000000000000000, 1.500000000000000222 ) ) ;
#53 = AXIS2_PLACEMENT_3D ( 'NONE', #236, #328, #11 ) ;
#54 =( GEOMETRIC_REPRESENTATION_CONTEXT ( 3 ) GLOBAL_UNCERTAINTY_ASSIGNED_CONTEXT ( ( #154 ) ) GLOBAL_UNIT_ASSIGNED_CONTEXT ( ( #123, #67, #200 ) ) REPRESENTATION_CONTEXT ( 'NONE', 'WORKASPACE' ) );
#55 = DIRECTION ( 'NONE',  ( 1.000000000000000000, 0.0000000000000000000, -0.0000000000000000000 ) ) ;
#56 =( LENGTH_UNIT ( ) NAMED_UNIT ( * ) SI_UNIT ( $, .METRE. ) );
#57 = DIRECTION ( 'NONE',  ( 0.0000000000000000000, 0.0000000000000000000, -1.000000000000000000 ) ) ;
#58 = EDGE_CURVE ( 'NONE', #64, #302, #232, .T. ) ;
#59 = ORIENTED_EDGE ( 'NONE', *, *, #30, .F. ) ;
#60 = CARTESIAN_POINT ( 'NONE',  ( -0.06250000000000001388, 0.0000000000000000000, 0.09299999999999999933 ) ) ;
#61 = ORIENTED_EDGE ( 'NONE', *, *, #58, .T. ) ;
#62 = DIRECTION ( 'NONE',  ( 1.000000000000000000, 0.0000000000000000000, 0.0000000000000000000 ) ) ;
#63 = CONICAL_SURFACE ( 'NONE', #220, 0.04750000000000064587, 0.7853981633974457255 ) ;
#64 = VERTEX_POINT ( 'NONE', #377 ) ;
#65 = UNCERTAINTY_MEASURE_WITH_UNIT (LENGTH_MEASURE( 1.000000000000000082E-05 ), #225, 'distance_accuracy_value', 'NONE');
#66 = LINE ( 'NONE', #175, #287 ) ;
#67 =( NAMED_UNIT ( * ) PLANE_ANGLE_UNIT ( ) SI_UNIT ( $, .RADIAN. ) );
#68 = ORIENTED_EDGE ( 'NONE', *, *, #58, .F. ) ;
#69 = SURFACE_STYLE_USAGE ( .BOTH. , #73 ) ;
#70 = ORIENTED_EDGE ( 'NONE', *, *, #246, .F. ) ;
#71 = DIRECTION ( 'NONE',  ( -0.7071067811865456854, 0.0000000000000000000, -0.7071067811865493491 ) ) ;
#72 =( GEOMETRIC_REPRESENTATION_CONTEXT ( 3 ) GLOBAL_UNCERTAINTY_ASSIGNED_CONTEXT ( ( #106 ) ) GLOBAL_UNIT_ASSIGNED_CONTEXT ( ( #7, #186, #143 ) ) REPRESENTATION_CONTEXT ( 'NONE', 'WORKASPACE' ) );
#73 = SURFACE_SIDE_STYLE ('',( #374 ) ) ;
#74 = AXIS2_PLACEMENT_3D ( 'NONE', #373, #132, #131 ) ;
#75 = EDGE_CURVE ( 'NONE', #302, #353, #45, .T. ) ;
#76 = EDGE_LOOP ( 'NONE', ( #361, #239, #184, #241 ) ) ;
#77 = CYLINDRICAL_SURFACE ( 'NONE', #173, 0.06250000000000000000 ) ;
#78 = ADVANCED_FACE ( 'NONE', ( #347 ), #77, .T. ) ;
#79 = STYLED_ITEM ( 'NONE', ( #190 ), #362 ) ;
#80 = FACE_OUTER_BOUND ( 'NONE', #235, .T. ) ;
#81 = PRODUCT ( 'Micro_KC-125-190-093', 'Micro_KC-125-190-093', '', ( #10 ) ) ;
#82 = CARTESIAN_POINT ( 'NONE',  ( -0.06250000000000000000, 0.0000000000000000000, 1.485000000000000764 ) ) ;
#83 = EDGE_CURVE ( 'NONE', #118, #85, #358, .T. ) ;
#84 = CYLINDRICAL_SURFACE ( 'NONE', #282, 0.06250000000000000000 ) ;
#85 = VERTEX_POINT ( 'NONE', #263 ) ;
#86 = DIRECTION ( 'NONE',  ( 1.000000000000000000, 0.0000000000000000000, -0.0000000000000000000 ) ) ;
#87 = AXIS2_PLACEMENT_3D ( 'NONE', #256, #318, #108 ) ;
#88 = ORIENTED_EDGE ( 'NONE', *, *, #169, .F. ) ;
#89 = FACE_OUTER_BOUND ( 'NONE', #265, .T. ) ;
#90 = ORIENTED_EDGE ( 'NONE', *, *, #169, .T. ) ;
#91 = PRODUCT_DEFINITION ( 'UNKNOWN', '', #129, #327 ) ;
#92 = CARTESIAN_POINT ( 'NONE',  ( -0.06250000000000000000, 0.0000000000000000000, 0.2214999999999998359 ) ) ;
#93 = EDGE_LOOP ( 'NONE', ( #168, #151, #90, #115 ) ) ;
#94 = DIRECTION ( 'NONE',  ( -1.000000000000000000, 0.0000000000000000000, 0.0000000000000000000 ) ) ;
#95 = EDGE_CURVE ( 'NONE', #12, #118, #268, .T. ) ;
#96 = LINE ( 'NONE', #20, #130 ) ;
#97 = AXIS2_PLACEMENT_3D ( 'NONE', #290, #146, #114 ) ;
#98 = DIRECTION ( 'NONE',  ( 0.0000000000000000000, 0.0000000000000000000, -1.000000000000000000 ) ) ;
#99 = VECTOR ( 'NONE', #224, 39.37007874015748143 ) ;
#100 = CARTESIAN_POINT ( 'NONE',  ( 0.0000000000000000000, 0.0000000000000000000, 0.1899999999999999745 ) ) ;
#101 = CARTESIAN_POINT ( 'NONE',  ( 0.0000000000000000000, 0.0000000000000000000, 1.485000000000000764 ) ) ;
#102 = ADVANCED_FACE ( 'NONE', ( #6 ), #63, .T. ) ;
#103 = CIRCLE ( 'NONE', #16, 0.06250000000000000000 ) ;
#104 = DIRECTION ( 'NONE',  ( -0.0000000000000000000, -0.0000000000000000000, -1.000000000000000000 ) ) ;
#105 = DIRECTION ( 'NONE',  ( 1.000000000000000000, 0.0000000000000000000, 0.0000000000000000000 ) ) ;
#106 = UNCERTAINTY_MEASURE_WITH_UNIT (LENGTH_MEASURE( 1.000000000000000082E-05 ), #7, 'distance_accuracy_value', 'NONE');
#107 = DIMENSIONAL_EXPONENTS ( 1.000000000000000000, 0.0000000000000000000, 0.0000000000000000000, 0.0000000000000000000, 0.0000000000000000000, 0.0000000000000000000, 0.0000000000000000000 ) ;
#108 = DIRECTION ( 'NONE',  ( 1.000000000000000000, 0.0000000000000000000, 0.0000000000000000000 ) ) ;
#109 = DIRECTION ( 'NONE',  ( -1.000000000000000000, 0.0000000000000000000, 0.0000000000000000000 ) ) ;
#110 = DIRECTION ( 'NONE',  ( -0.0000000000000000000, -0.0000000000000000000, -1.000000000000000000 ) ) ;
#111 = EDGE_LOOP ( 'NONE', ( #357, #311, #37, #162 ) ) ;
#112 = VECTOR ( 'NONE', #324, 39.37007874015748143 ) ;
#113 = DIRECTION ( 'NONE',  ( -1.000000000000000000, 0.0000000000000000000, 0.0000000000000000000 ) ) ;
#114 = DIRECTION ( 'NONE',  ( 1.000000000000000000, 0.0000000000000000000, 0.0000000000000000000 ) ) ;
#115 = ORIENTED_EDGE ( 'NONE', *, *, #378, .T. ) ;
#116 = CARTESIAN_POINT ( 'NONE',  ( 0.0000000000000000000, 0.0000000000000000000, 0.0000000000000000000 ) ) ;
#117 = SURFACE_STYLE_FILL_AREA ( #272 ) ;
#118 = VERTEX_POINT ( 'NONE', #92 ) ;
#119 = SURFACE_STYLE_USAGE ( .BOTH. , #176 ) ;
#120 = ORIENTED_EDGE ( 'NONE', *, *, #307, .T. ) ;
#121 = CARTESIAN_POINT ( 'NONE',  ( 0.0000000000000000000, 0.0000000000000000000, 1.500000000000000222 ) ) ;
#122 = VECTOR ( 'NONE', #202, 39.37007874015748143 ) ;
#123 =( CONVERSION_BASED_UNIT ( 'INCH', #36 ) LENGTH_UNIT ( ) NAMED_UNIT ( #229 ) );
#124 = ORIENTED_EDGE ( 'NONE', *, *, #278, .T. ) ;
#125 = CARTESIAN_POINT ( 'NONE',  ( -0.04750000000000064587, 0.0000000000000000000, 1.500000000000000222 ) ) ;
#126 = ORIENTED_EDGE ( 'NONE', *, *, #83, .T. ) ;
#127 = EDGE_CURVE ( 'NONE', #160, #85, #155, .T. ) ;
#128 = CARTESIAN_POINT ( 'NONE',  ( -0.06250000000000000000, 0.0000000000000000000, 0.0000000000000000000 ) ) ;
#129 = PRODUCT_DEFINITION_FORMATION_WITH_SPECIFIED_SOURCE ( 'ANY', '', #81, .NOT_KNOWN. ) ;
#130 = VECTOR ( 'NONE', #215, 39.37007874015748143 ) ;
#131 = DIRECTION ( 'NONE',  ( -1.000000000000000000, 0.0000000000000000000, 0.0000000000000000000 ) ) ;
#132 = DIRECTION ( 'NONE',  ( -0.0000000000000000000, -0.0000000000000000000, -1.000000000000000000 ) ) ;
#133 = ADVANCED_BREP_SHAPE_REPRESENTATION ( 'Micro_KC-125-190-093', ( #362, #97 ), #72 ) ;
#134 = ORIENTED_EDGE ( 'NONE', *, *, #267, .F. ) ;
#135 = LENGTH_MEASURE_WITH_UNIT ( LENGTH_MEASURE( 0.02539999999999999897 ), #248 );
#136 = CARTESIAN_POINT ( 'NONE',  ( 0.0000000000000000000, 0.0000000000000000000, 0.09299999999999999933 ) ) ;
#137 = AXIS2_PLACEMENT_3D ( 'NONE', #368, #39, #223 ) ;
#138 = AXIS2_PLACEMENT_3D ( 'NONE', #136, #104, #228 ) ;
#139 = APPLICATION_CONTEXT ( 'automotive_design' ) ;
#140 = CIRCLE ( 'NONE', #253, 0.06250000000000000000 ) ;
#141 = EDGE_CURVE ( 'NONE', #64, #118, #238, .T. ) ;
#142 = FACE_OUTER_BOUND ( 'NONE', #195, .T. ) ;
#143 =( NAMED_UNIT ( * ) SI_UNIT ( $, .STERADIAN. ) SOLID_ANGLE_UNIT ( ) );
#144 = ADVANCED_FACE ( 'NONE', ( #89 ), #13, .F. ) ;
#145 = DIRECTION ( 'NONE',  ( -1.000000000000000000, 0.0000000000000000000, 0.0000000000000000000 ) ) ;
#146 = DIRECTION ( 'NONE',  ( 0.0000000000000000000, 0.0000000000000000000, 1.000000000000000000 ) ) ;
#147 = ORIENTED_EDGE ( 'NONE', *, *, #285, .T. ) ;
#148 = ADVANCED_FACE ( 'NONE', ( #174 ), #182, .T. ) ;
#149 = AXIS2_PLACEMENT_3D ( 'NONE', #19, #342, #281 ) ;
#150 = DIRECTION ( 'NONE',  ( -0.0000000000000000000, -0.0000000000000000000, -1.000000000000000000 ) ) ;
#151 = ORIENTED_EDGE ( 'NONE', *, *, #316, .T. ) ;
#152 = FACE_OUTER_BOUND ( 'NONE', #299, .T. ) ;
#153 = ORIENTED_EDGE ( 'NONE', *, *, #127, .F. ) ;
#154 = UNCERTAINTY_MEASURE_WITH_UNIT (LENGTH_MEASURE( 1.000000000000000082E-05 ), #123, 'distance_accuracy_value', 'NONE');
#155 = LINE ( 'NONE', #320, #275 ) ;
#156 = APPLICATION_CONTEXT ( 'automotive_design' ) ;
#157 = CARTESIAN_POINT ( 'NONE',  ( 0.0000000000000000000, 0.0000000000000000000, 0.0000000000000000000 ) ) ;
#158 = CIRCLE ( 'NONE', #74, 0.03100000000000001019 ) ;
#159 = DIRECTION ( 'NONE',  ( 1.000000000000000000, 0.0000000000000000000, 0.0000000000000000000 ) ) ;
#160 = VERTEX_POINT ( 'NONE', #288 ) ;
#161 = CARTESIAN_POINT ( 'NONE',  ( 0.03100000000000001713, 3.796405077356796551E-18, 0.0000000000000000000 ) ) ;
#162 = ORIENTED_EDGE ( 'NONE', *, *, #278, .F. ) ;
#163 = EDGE_CURVE ( 'NONE', #277, #336, #295, .T. ) ;
#164 = CARTESIAN_POINT ( 'NONE',  ( 0.06250000000000000000, 7.654042494670956004E-18, 1.485000000000000764 ) ) ;
#165 = ORIENTED_EDGE ( 'NONE', *, *, #307, .F. ) ;
#166 = CIRCLE ( 'NONE', #266, 0.06250000000000000000 ) ;
#167 = LINE ( 'NONE', #192, #370 ) ;
#168 = ORIENTED_EDGE ( 'NONE', *, *, #262, .F. ) ;
#169 = EDGE_CURVE ( 'NONE', #203, #326, #66, .T. ) ;
#170 = AXIS2_PLACEMENT_3D ( 'NONE', #243, #38, #62 ) ;
#171 = ADVANCED_FACE ( 'NONE', ( #142 ), #84, .T. ) ;
#172 = STYLED_ITEM ( 'NONE', ( #213 ), #133 ) ;
#173 = AXIS2_PLACEMENT_3D ( 'NONE', #315, #35, #94 ) ;
#174 = FACE_OUTER_BOUND ( 'NONE', #40, .T. ) ;
#175 = CARTESIAN_POINT ( 'NONE',  ( -0.06250000000000000000, 0.0000000000000000000, 1.500000000000000222 ) ) ;
#176 = SURFACE_SIDE_STYLE ('',( #117 ) ) ;
#177 = VERTEX_POINT ( 'NONE', #233 ) ;
#178 = EDGE_CURVE ( 'NONE', #277, #333, #208, .T. ) ;
#179 = FACE_OUTER_BOUND ( 'NONE', #214, .T. ) ;
#180 = ORIENTED_EDGE ( 'NONE', *, *, #262, .T. ) ;
#181 = MECHANICAL_DESIGN_GEOMETRIC_PRESENTATION_REPRESENTATION (  '', ( #79 ), #379 ) ;
#182 = PLANE ( 'NONE',  #366 ) ;
#183 = LENGTH_MEASURE_WITH_UNIT ( LENGTH_MEASURE( 0.02539999999999999897 ), #56 );
#184 = ORIENTED_EDGE ( 'NONE', *, *, #127, .T. ) ;
#185 = CARTESIAN_POINT ( 'NONE',  ( 0.0000000000000000000, 0.0000000000000000000, 0.2214999999999998359 ) ) ;
#186 =( NAMED_UNIT ( * ) PLANE_ANGLE_UNIT ( ) SI_UNIT ( $, .RADIAN. ) );
#187 = ORIENTED_EDGE ( 'NONE', *, *, #95, .T. ) ;
#188 = CARTESIAN_POINT ( 'NONE',  ( 0.04750000000000064587, 6.735557395310482421E-18, 1.500000000000000222 ) ) ;
#189 = CIRCLE ( 'NONE', #24, 0.06250000000000000000 ) ;
#190 = PRESENTATION_STYLE_ASSIGNMENT (( #69 ) ) ;
#191 = ORIENTED_EDGE ( 'NONE', *, *, #334, .F. ) ;
#192 = CARTESIAN_POINT ( 'NONE',  ( 0.06250000000000000000, 7.654042494670956004E-18, 1.500000000000000222 ) ) ;
#193 = PRESENTATION_LAYER_ASSIGNMENT (  '', '', ( #172 ) ) ;
#194 = FACE_OUTER_BOUND ( 'NONE', #261, .T. ) ;
#195 = EDGE_LOOP ( 'NONE', ( #191, #250, #187, #338 ) ) ;
#196 = AXIS2_PLACEMENT_3D ( 'NONE', #350, #29, #332 ) ;
#197 = EDGE_CURVE ( 'NONE', #336, #277, #242, .T. ) ;
#198 = CONICAL_SURFACE ( 'NONE', #33, 0.04750000000000064587, 0.7853981633974457255 ) ;
#199 = CARTESIAN_POINT ( 'NONE',  ( 0.0000000000000000000, 0.0000000000000000000, 0.1899999999999999745 ) ) ;
#200 =( NAMED_UNIT ( * ) SI_UNIT ( $, .STERADIAN. ) SOLID_ANGLE_UNIT ( ) );
#201 = AXIS2_PLACEMENT_3D ( 'NONE', #218, #337, #17 ) ;
#202 = DIRECTION ( 'NONE',  ( -0.7071067811865489050, 8.659560562354950115E-17, 0.7071067811865461294 ) ) ;
#203 = VERTEX_POINT ( 'NONE', #60 ) ;
#204 = VECTOR ( 'NONE', #23, 39.37007874015748143 ) ;
#205 = CARTESIAN_POINT ( 'NONE',  ( -0.06250000000000000000, 0.0000000000000000000, 1.500000000000000222 ) ) ;
#206 = ORIENTED_EDGE ( 'NONE', *, *, #75, .F. ) ;
#207 = PRODUCT_DEFINITION_SHAPE ( 'NONE', 'NONE',  #91 ) ;
#208 = LINE ( 'NONE', #355, #112 ) ;
#209 = FILL_AREA_STYLE_COLOUR ( '', #49 ) ;
#210 = EDGE_LOOP ( 'NONE', ( #245, #252, #344, #51 ) ) ;
#211 = CLOSED_SHELL ( 'NONE', ( #44, #354, #22, #102, #375, #171, #148, #341, #313, #227, #217, #144, #78 ) ) ;
#212 = DIRECTION ( 'NONE',  ( -1.000000000000000000, 0.0000000000000000000, 0.0000000000000000000 ) ) ;
#213 = PRESENTATION_STYLE_ASSIGNMENT (( #119 ) ) ;
#214 = EDGE_LOOP ( 'NONE', ( #70, #43 ) ) ;
#215 = DIRECTION ( 'NONE',  ( -0.0000000000000000000, -0.0000000000000000000, -1.000000000000000000 ) ) ;
#216 = CONICAL_SURFACE ( 'NONE', #87, 0.03100000000000001713, 0.7853981633974502774 ) ;
#217 = ADVANCED_FACE ( 'NONE', ( #363, #179 ), #297, .T. ) ;
#218 = CARTESIAN_POINT ( 'NONE',  ( 0.0000000000000000000, 0.0000000000000000000, 0.09299999999999999933 ) ) ;
#219 = FACE_OUTER_BOUND ( 'NONE', #330, .T. ) ;
#220 = AXIS2_PLACEMENT_3D ( 'NONE', #121, #57, #113 ) ;
#221 = PRODUCT_RELATED_PRODUCT_CATEGORY ( 'part', '', ( #81 ) ) ;
#222 = ORIENTED_EDGE ( 'NONE', *, *, #378, .F. ) ;
#223 = DIRECTION ( 'NONE',  ( 1.000000000000000000, 0.0000000000000000000, 0.0000000000000000000 ) ) ;
#224 = DIRECTION ( 'NONE',  ( -0.0000000000000000000, -0.0000000000000000000, -1.000000000000000000 ) ) ;
#225 =( CONVERSION_BASED_UNIT ( 'INCH', #135 ) LENGTH_UNIT ( ) NAMED_UNIT ( #107 ) );
#226 = ORIENTED_EDGE ( 'NONE', *, *, #197, .F. ) ;
#227 = ADVANCED_FACE ( 'NONE', ( #152 ), #240, .T. ) ;
#228 = DIRECTION ( 'NONE',  ( -1.000000000000000000, 0.0000000000000000000, 0.0000000000000000000 ) ) ;
#229 = DIMENSIONAL_EXPONENTS ( 1.000000000000000000, 0.0000000000000000000, 0.0000000000000000000, 0.0000000000000000000, 0.0000000000000000000, 0.0000000000000000000, 0.0000000000000000000 ) ;
#230 = EDGE_CURVE ( 'NONE', #85, #118, #339, .T. ) ;
#231 = AXIS2_PLACEMENT_3D ( 'NONE', #260, #269, #212 ) ;
#232 = LINE ( 'NONE', #284, #204 ) ;
#233 = CARTESIAN_POINT ( 'NONE',  ( 0.06250000000000000000, 7.654042494670956004E-18, 0.0000000000000000000 ) ) ;
#234 = DIRECTION ( 'NONE',  ( -0.0000000000000000000, -0.0000000000000000000, -1.000000000000000000 ) ) ;
#235 = EDGE_LOOP ( 'NONE', ( #372, #180, #34, #88 ) ) ;
#236 = CARTESIAN_POINT ( 'NONE',  ( 0.0000000000000000000, 0.0000000000000000000, 1.500000000000000222 ) ) ;
#237 = VERTEX_POINT ( 'NONE', #50 ) ;
#238 = LINE ( 'NONE', #289, #122 ) ;
#239 = ORIENTED_EDGE ( 'NONE', *, *, #285, .F. ) ;
#240 = CYLINDRICAL_SURFACE ( 'NONE', #231, 0.03100000000000001713 ) ;
#241 = ORIENTED_EDGE ( 'NONE', *, *, #230, .T. ) ;
#242 = CIRCLE ( 'NONE', #196, 0.04750000000000064587 ) ;
#243 = CARTESIAN_POINT ( 'NONE',  ( 0.0000000000000000000, 0.0000000000000000000, 0.2214999999999998359 ) ) ;
#244 = DIRECTION ( 'NONE',  ( 1.000000000000000000, 0.0000000000000000000, 0.0000000000000000000 ) ) ;
#245 = ORIENTED_EDGE ( 'NONE', *, *, #305, .T. ) ;
#246 = EDGE_CURVE ( 'NONE', #203, #237, #255, .T. ) ;
#247 = DIRECTION ( 'NONE',  ( -0.0000000000000000000, -0.0000000000000000000, -1.000000000000000000 ) ) ;
#248 =( LENGTH_UNIT ( ) NAMED_UNIT ( * ) SI_UNIT ( $, .METRE. ) );
#249 = AXIS2_PLACEMENT_3D ( 'NONE', #157, #309, #340 ) ;
#250 = ORIENTED_EDGE ( 'NONE', *, *, #296, .T. ) ;
#251 = LINE ( 'NONE', #125, #376 ) ;
#252 = ORIENTED_EDGE ( 'NONE', *, *, #334, .T. ) ;
#253 = AXIS2_PLACEMENT_3D ( 'NONE', #1, #319, #105 ) ;
#254 = FILL_AREA_STYLE_COLOUR ( '', #274 ) ;
#255 = CIRCLE ( 'NONE', #201, 0.06250000000000001388 ) ;
#256 = CARTESIAN_POINT ( 'NONE',  ( 0.0000000000000000000, 0.0000000000000000000, 0.1899999999999999745 ) ) ;
#257 = DIRECTION ( 'NONE',  ( -0.0000000000000000000, -0.0000000000000000000, -1.000000000000000000 ) ) ;
#258 = AXIS2_PLACEMENT_3D ( 'NONE', #264, #234, #352 ) ;
#259 = CIRCLE ( 'NONE', #314, 0.03100000000000001713 ) ;
#260 = CARTESIAN_POINT ( 'NONE',  ( 0.0000000000000000000, 0.0000000000000000000, 0.0000000000000000000 ) ) ;
#261 = EDGE_LOOP ( 'NONE', ( #18, #226, #124, #4 ) ) ;
#262 = EDGE_CURVE ( 'NONE', #237, #177, #96, .T. ) ;
#263 = CARTESIAN_POINT ( 'NONE',  ( 0.06250000000000000000, 7.654042494670956004E-18, 0.2214999999999998359 ) ) ;
#264 = CARTESIAN_POINT ( 'NONE',  ( 0.0000000000000000000, 0.0000000000000000000, 1.500000000000000222 ) ) ;
#265 = EDGE_LOOP ( 'NONE', ( #222, #273 ) ) ;
#266 = AXIS2_PLACEMENT_3D ( 'NONE', #101, #279, #159 ) ;
#267 = EDGE_CURVE ( 'NONE', #353, #302, #158, .T. ) ;
#268 = LINE ( 'NONE', #205, #310 ) ;
#269 = DIRECTION ( 'NONE',  ( -0.0000000000000000000, -0.0000000000000000000, -1.000000000000000000 ) ) ;
#270 = ORIENTED_EDGE ( 'NONE', *, *, #267, .T. ) ;
#271 = DIRECTION ( 'NONE',  ( 0.7071067811865489050, 0.0000000000000000000, 0.7071067811865461294 ) ) ;
#272 = FILL_AREA_STYLE ('',( #209 ) ) ;
#273 = ORIENTED_EDGE ( 'NONE', *, *, #5, .F. ) ;
#274 = COLOUR_RGB ( '',0.7921568627450980005, 0.8196078431372548767, 0.9333333333333333481 ) ;
#275 = VECTOR ( 'NONE', #271, 39.37007874015748143 ) ;
#276 = DIRECTION ( 'NONE',  ( 1.000000000000000000, 0.0000000000000000000, 0.0000000000000000000 ) ) ;
#277 = VERTEX_POINT ( 'NONE', #188 ) ;
#278 = EDGE_CURVE ( 'NONE', #336, #12, #251, .T. ) ;
#279 = DIRECTION ( 'NONE',  ( 0.0000000000000000000, 0.0000000000000000000, -1.000000000000000000 ) ) ;
#280 = CYLINDRICAL_SURFACE ( 'NONE', #258, 0.06250000000000000000 ) ;
#281 = DIRECTION ( 'NONE',  ( -1.000000000000000000, 0.0000000000000000000, 0.0000000000000000000 ) ) ;
#282 = AXIS2_PLACEMENT_3D ( 'NONE', #31, #110, #145 ) ;
#283 = LINE ( 'NONE', #161, #99 ) ;
#284 = CARTESIAN_POINT ( 'NONE',  ( -0.03100000000000001713, 0.0000000000000000000, 0.0000000000000000000 ) ) ;
#285 = EDGE_CURVE ( 'NONE', #160, #64, #41, .T. ) ;
#286 = CYLINDRICAL_SURFACE ( 'NONE', #323, 0.06250000000000000000 ) ;
#287 = VECTOR ( 'NONE', #150, 39.37007874015748143 ) ;
#288 = CARTESIAN_POINT ( 'NONE',  ( 0.03100000000000001713, 0.0000000000000000000, 0.1899999999999999745 ) ) ;
#289 = CARTESIAN_POINT ( 'NONE',  ( -0.03100000000000001713, 3.796405077356796551E-18, 0.1899999999999999745 ) ) ;
#290 = CARTESIAN_POINT ( 'NONE',  ( 0.0000000000000000000, 0.0000000000000000000, 0.0000000000000000000 ) ) ;
#291 = ORIENTED_EDGE ( 'NONE', *, *, #197, .T. ) ;
#292 = CARTESIAN_POINT ( 'NONE',  ( 0.06250000000000001388, 0.0000000000000000000, 0.09299999999999999933 ) ) ;
#293 = MECHANICAL_DESIGN_GEOMETRIC_PRESENTATION_REPRESENTATION (  '', ( #172 ), #54 ) ;
#294 = ORIENTED_EDGE ( 'NONE', *, *, #141, .T. ) ;
#295 = CIRCLE ( 'NONE', #53, 0.04750000000000064587 ) ;
#296 = EDGE_CURVE ( 'NONE', #333, #12, #103, .T. ) ;
#297 = PLANE ( 'NONE',  #28 ) ;
#298 = APPLICATION_PROTOCOL_DEFINITION ( 'draft international standard', 'automotive_design', 1998, #139 ) ;
#299 = EDGE_LOOP ( 'NONE', ( #165, #147, #61, #134 ) ) ;
#300 = DIRECTION ( 'NONE',  ( -0.0000000000000000000, -0.0000000000000000000, -1.000000000000000000 ) ) ;
#301 = CARTESIAN_POINT ( 'NONE',  ( 0.0000000000000000000, 0.0000000000000000000, 1.485000000000000764 ) ) ;
#302 = VERTEX_POINT ( 'NONE', #42 ) ;
#303 = CONICAL_SURFACE ( 'NONE', #137, 0.03100000000000001713, 0.7853981633974502774 ) ;
#304 = DIRECTION ( 'NONE',  ( -1.000000000000000000, 0.0000000000000000000, 0.0000000000000000000 ) ) ;
#305 = EDGE_CURVE ( 'NONE', #12, #333, #166, .T. ) ;
#306 = CARTESIAN_POINT ( 'NONE',  ( 0.03100000000000001019, 3.796405077356796551E-18, 0.09299999999999999933 ) ) ;
#307 = EDGE_CURVE ( 'NONE', #160, #353, #283, .T. ) ;
#308 = CYLINDRICAL_SURFACE ( 'NONE', #249, 0.03100000000000001713 ) ;
#309 = DIRECTION ( 'NONE',  ( -0.0000000000000000000, -0.0000000000000000000, -1.000000000000000000 ) ) ;
#310 = VECTOR ( 'NONE', #367, 39.37007874015748143 ) ;
#311 = ORIENTED_EDGE ( 'NONE', *, *, #178, .T. ) ;
#312 =( NAMED_UNIT ( * ) SI_UNIT ( $, .STERADIAN. ) SOLID_ANGLE_UNIT ( ) );
#313 = ADVANCED_FACE ( 'NONE', ( #371 ), #303, .T. ) ;
#314 = AXIS2_PLACEMENT_3D ( 'NONE', #199, #257, #349 ) ;
#315 = CARTESIAN_POINT ( 'NONE',  ( 0.0000000000000000000, 0.0000000000000000000, 1.500000000000000222 ) ) ;
#316 = EDGE_CURVE ( 'NONE', #237, #203, #348, .T. ) ;
#317 = AXIS2_PLACEMENT_3D ( 'NONE', #100, #21, #304 ) ;
#318 = DIRECTION ( 'NONE',  ( 0.0000000000000000000, 0.0000000000000000000, 1.000000000000000000 ) ) ;
#319 = DIRECTION ( 'NONE',  ( 0.0000000000000000000, 0.0000000000000000000, 1.000000000000000000 ) ) ;
#320 = CARTESIAN_POINT ( 'NONE',  ( 0.03100000000000001713, 0.0000000000000000000, 0.1899999999999999745 ) ) ;
#321 = CARTESIAN_POINT ( 'NONE',  ( 0.0000000000000000000, 0.0000000000000000000, 1.500000000000000222 ) ) ;
#322 = ORIENTED_EDGE ( 'NONE', *, *, #30, .T. ) ;
#323 = AXIS2_PLACEMENT_3D ( 'NONE', #52, #26, #109 ) ;
#324 = DIRECTION ( 'NONE',  ( 0.7071067811865456854, 8.659560562354911904E-17, -0.7071067811865493491 ) ) ;
#325 = SHAPE_DEFINITION_REPRESENTATION ( #207, #133 ) ;
#326 = VERTEX_POINT ( 'NONE', #128 ) ;
#327 = PRODUCT_DEFINITION_CONTEXT ( 'detailed design', #156, 'design' ) ;
#328 = DIRECTION ( 'NONE',  ( 0.0000000000000000000, 0.0000000000000000000, 1.000000000000000000 ) ) ;
#329 = DIRECTION ( 'NONE',  ( 0.0000000000000000000, 0.0000000000000000000, 1.000000000000000000 ) ) ;
#330 = EDGE_LOOP ( 'NONE', ( #322, #120, #206, #68 ) ) ;
#331 = AXIS2_PLACEMENT_3D ( 'NONE', #185, #300, #276 ) ;
#332 = DIRECTION ( 'NONE',  ( 1.000000000000000000, 0.0000000000000000000, 0.0000000000000000000 ) ) ;
#333 = VERTEX_POINT ( 'NONE', #164 ) ;
#334 = EDGE_CURVE ( 'NONE', #333, #85, #167, .T. ) ;
#335 = DIRECTION ( 'NONE',  ( -1.000000000000000000, 0.0000000000000000000, 0.0000000000000000000 ) ) ;
#336 = VERTEX_POINT ( 'NONE', #46 ) ;
#337 = DIRECTION ( 'NONE',  ( -0.0000000000000000000, -0.0000000000000000000, -1.000000000000000000 ) ) ;
#338 = ORIENTED_EDGE ( 'NONE', *, *, #230, .F. ) ;
#339 = CIRCLE ( 'NONE', #331, 0.06250000000000000000 ) ;
#340 = DIRECTION ( 'NONE',  ( -1.000000000000000000, 0.0000000000000000000, 0.0000000000000000000 ) ) ;
#341 = ADVANCED_FACE ( 'NONE', ( #194 ), #198, .T. ) ;
#342 = DIRECTION ( 'NONE',  ( -0.0000000000000000000, -0.0000000000000000000, -1.000000000000000000 ) ) ;
#343 = DIRECTION ( 'NONE',  ( 0.0000000000000000000, 0.0000000000000000000, -1.000000000000000000 ) ) ;
#344 = ORIENTED_EDGE ( 'NONE', *, *, #83, .F. ) ;
#345 =( NAMED_UNIT ( * ) PLANE_ANGLE_UNIT ( ) SI_UNIT ( $, .RADIAN. ) );
#346 = AXIS2_PLACEMENT_3D ( 'NONE', #116, #9, #86 ) ;
#347 = FACE_OUTER_BOUND ( 'NONE', #93, .T. ) ;
#348 = CIRCLE ( 'NONE', #149, 0.06250000000000001388 ) ;
#349 = DIRECTION ( 'NONE',  ( -1.000000000000000000, 0.0000000000000000000, 0.0000000000000000000 ) ) ;
#350 = CARTESIAN_POINT ( 'NONE',  ( 0.0000000000000000000, 0.0000000000000000000, 1.500000000000000222 ) ) ;
#351 = PRESENTATION_LAYER_ASSIGNMENT (  '', '', ( #79 ) ) ;
#352 = DIRECTION ( 'NONE',  ( -1.000000000000000000, 0.0000000000000000000, 0.0000000000000000000 ) ) ;
#353 = VERTEX_POINT ( 'NONE', #306 ) ;
#354 = ADVANCED_FACE ( 'NONE', ( #219 ), #308, .T. ) ;
#355 = CARTESIAN_POINT ( 'NONE',  ( 0.04750000000000064587, 5.817072295950006528E-18, 1.500000000000000222 ) ) ;
#356 = DIRECTION ( 'NONE',  ( 1.000000000000000000, 0.0000000000000000000, 0.0000000000000000000 ) ) ;
#357 = ORIENTED_EDGE ( 'NONE', *, *, #163, .F. ) ;
#358 = CIRCLE ( 'NONE', #170, 0.06250000000000000000 ) ;
#359 = DIRECTION ( 'NONE',  ( 1.000000000000000000, 0.0000000000000000000, -0.0000000000000000000 ) ) ;
#360 = CARTESIAN_POINT ( 'NONE',  ( 0.0000000000000000000, 0.0000000000000000000, 0.0000000000000000000 ) ) ;
#361 = ORIENTED_EDGE ( 'NONE', *, *, #141, .F. ) ;
#362 = MANIFOLD_SOLID_BREP ( 'Cut-Revolve1', #211 ) ;
#363 = FACE_BOUND ( 'NONE', #15, .T. ) ;
#364 = APPLICATION_PROTOCOL_DEFINITION ( 'draft international standard', 'automotive_design', 1998, #156 ) ;
#365 = ORIENTED_EDGE ( 'NONE', *, *, #75, .T. ) ;
#366 = AXIS2_PLACEMENT_3D ( 'NONE', #321, #2, #55 ) ;
#367 = DIRECTION ( 'NONE',  ( -0.0000000000000000000, -0.0000000000000000000, -1.000000000000000000 ) ) ;
#368 = CARTESIAN_POINT ( 'NONE',  ( 0.0000000000000000000, 0.0000000000000000000, 0.1899999999999999745 ) ) ;
#369 = CARTESIAN_POINT ( 'NONE',  ( 0.0000000000000000000, 0.0000000000000000000, 1.500000000000000222 ) ) ;
#370 = VECTOR ( 'NONE', #247, 39.37007874015748143 ) ;
#371 = FACE_OUTER_BOUND ( 'NONE', #76, .T. ) ;
#372 = ORIENTED_EDGE ( 'NONE', *, *, #246, .T. ) ;
#373 = CARTESIAN_POINT ( 'NONE',  ( 0.0000000000000000000, 0.0000000000000000000, 0.09299999999999999933 ) ) ;
#374 = SURFACE_STYLE_FILL_AREA ( #48 ) ;
#375 = ADVANCED_FACE ( 'NONE', ( #3 ), #280, .T. ) ;
#376 = VECTOR ( 'NONE', #71, 39.37007874015748143 ) ;
#377 = CARTESIAN_POINT ( 'NONE',  ( -0.03100000000000001713, 5.725223786013877433E-18, 0.1899999999999999745 ) ) ;
#378 = EDGE_CURVE ( 'NONE', #326, #177, #189, .T. ) ;
#379 =( GEOMETRIC_REPRESENTATION_CONTEXT ( 3 ) GLOBAL_UNCERTAINTY_ASSIGNED_CONTEXT ( ( #65 ) ) GLOBAL_UNIT_ASSIGNED_CONTEXT ( ( #225, #345, #312 ) ) REPRESENTATION_CONTEXT ( 'NONE', 'WORKASPACE' ) );
ENDSEC;
END-ISO-10303-21;
