ISO-10303-21;
HEADER;
FILE_DESCRIPTION (( 'STEP AP214' ),
    '1' );
FILE_NAME ('82948.STEP',
    '2023-06-23T07:24:48',
    ( '' ),
    ( '' ),
    'SwSTEP 2.0',
    'SolidWorks 2023',
    '' );
FILE_SCHEMA (( 'AUTOMOTIVE_DESIGN' ));
ENDSEC;

DATA;
#1 =( NAMED_UNIT ( * ) SI_UNIT ( $, .STERADIAN. ) SOLID_ANGLE_UNIT ( ) );
#2 = EDGE_CURVE ( 'NONE', #259, #40, #221, .T. ) ;
#3 = VECTOR ( 'NONE', #136, 39.37007874015748143 ) ;
#4 = DIRECTION ( 'NONE',  ( 0.000000000000000000, 0.000000000000000000, -1.000000000000000000 ) ) ;
#5 = PRODUCT ( '82948', '82948', '', ( #64 ) ) ;
#6 =( LENGTH_UNIT ( ) NAMED_UNIT ( * ) SI_UNIT ( $, .METRE. ) );
#7 = COLOUR_RGB ( '',1.000000000000000000, 0.000000000000000000, 0.000000000000000000 ) ;
#8 = EDGE_CURVE ( 'NONE', #191, #210, #152, .T. ) ;
#9 = PRODUCT_RELATED_PRODUCT_CATEGORY ( 'part', '', ( #5 ) ) ;
#10 =( GEOMETRIC_REPRESENTATION_CONTEXT ( 3 ) GLOBAL_UNCERTAINTY_ASSIGNED_CONTEXT ( ( #76 ) ) GLOBAL_UNIT_ASSIGNED_CONTEXT ( ( #306, #75, #1 ) ) REPRESENTATION_CONTEXT ( 'NONE', 'WORKASPACE' ) );
#11 = MECHANICAL_DESIGN_GEOMETRIC_PRESENTATION_REPRESENTATION (  '', ( #83 ), #215 ) ;
#12 = UNCERTAINTY_MEASURE_WITH_UNIT (LENGTH_MEASURE( 1.000000000000000082E-05 ), #154, 'distance_accuracy_value', 'NONE');
#13 = CARTESIAN_POINT ( 'NONE',  ( -0.3750000000000005551, 6.000000000000000888, 0.000000000000000000 ) ) ;
#14 = VERTEX_POINT ( 'NONE', #288 ) ;
#15 = CYLINDRICAL_SURFACE ( 'NONE', #141, 0.3750000000000001665 ) ;
#16 = DIRECTION ( 'NONE',  ( 5.598385367530760089E-17, -1.000000000000000000, 0.000000000000000000 ) ) ;
#17 = DIRECTION ( 'NONE',  ( 0.000000000000000000, 0.000000000000000000, -1.000000000000000000 ) ) ;
#18 = FACE_OUTER_BOUND ( 'NONE', #63, .T. ) ;
#19 = CARTESIAN_POINT ( 'NONE',  ( 4.592425496802575451E-17, 0.000000000000000000, 0.3750000000000000555 ) ) ;
#20 = ORIENTED_EDGE ( 'NONE', *, *, #59, .T. ) ;
#21 = DIRECTION ( 'NONE',  ( 0.000000000000000000, 0.000000000000000000, -1.000000000000000000 ) ) ;
#22 =( GEOMETRIC_REPRESENTATION_CONTEXT ( 3 ) GLOBAL_UNCERTAINTY_ASSIGNED_CONTEXT ( ( #28 ) ) GLOBAL_UNIT_ASSIGNED_CONTEXT ( ( #186, #279, #208 ) ) REPRESENTATION_CONTEXT ( 'NONE', 'WORKASPACE' ) );
#23 = SURFACE_STYLE_USAGE ( .BOTH. , #293 ) ;
#24 = AXIS2_PLACEMENT_3D ( 'NONE', #258, #280, #107 ) ;
#25 = FILL_AREA_STYLE ('',( #112 ) ) ;
#26 = FILL_AREA_STYLE ('',( #170 ) ) ;
#27 = VECTOR ( 'NONE', #305, 39.37007874015748143 ) ;
#28 = UNCERTAINTY_MEASURE_WITH_UNIT (LENGTH_MEASURE( 1.000000000000000082E-05 ), #186, 'distance_accuracy_value', 'NONE');
#29 = CLOSED_SHELL ( 'NONE', ( #184, #47, #51, #80 ) ) ;
#30 = SURFACE_STYLE_USAGE ( .BOTH. , #37 ) ;
#31 = CARTESIAN_POINT ( 'NONE',  ( -2.449293598294707400E-16, 6.000000000000000888, 0.000000000000000000 ) ) ;
#32 = ORIENTED_EDGE ( 'NONE', *, *, #59, .F. ) ;
#33 = PRESENTATION_STYLE_ASSIGNMENT (( #276 ) ) ;
#34 = ADVANCED_FACE ( 'NONE', ( #95 ), #169, .T. ) ;
#35 = FACE_OUTER_BOUND ( 'NONE', #87, .T. ) ;
#36 = ORIENTED_EDGE ( 'NONE', *, *, #148, .T. ) ;
#37 = SURFACE_SIDE_STYLE ('',( #106 ) ) ;
#38 =( GEOMETRIC_REPRESENTATION_CONTEXT ( 3 ) GLOBAL_UNCERTAINTY_ASSIGNED_CONTEXT ( ( #12 ) ) GLOBAL_UNIT_ASSIGNED_CONTEXT ( ( #154, #234, #57 ) ) REPRESENTATION_CONTEXT ( 'NONE', 'WORKASPACE' ) );
#39 = CYLINDRICAL_SURFACE ( 'NONE', #253, 0.3750000000000001665 ) ;
#40 = VERTEX_POINT ( 'NONE', #13 ) ;
#41 = CARTESIAN_POINT ( 'NONE',  ( 0.000000000000000000, 1.625000000000000222, 0.000000000000000000 ) ) ;
#42 =( LENGTH_UNIT ( ) NAMED_UNIT ( * ) SI_UNIT ( $, .METRE. ) );
#43 = PRODUCT_DEFINITION_SHAPE ( 'NONE', 'NONE',  #176 ) ;
#44 = PRESENTATION_STYLE_ASSIGNMENT (( #264 ) ) ;
#45 = MECHANICAL_DESIGN_GEOMETRIC_PRESENTATION_REPRESENTATION (  '', ( #271 ), #22 ) ;
#46 = DIRECTION ( 'NONE',  ( 0.000000000000000000, 0.000000000000000000, -1.000000000000000000 ) ) ;
#47 = ADVANCED_FACE ( 'NONE', ( #86 ), #278, .F. ) ;
#48 = DIRECTION ( 'NONE',  ( -1.000000000000000000, 0.000000000000000000, 0.000000000000000000 ) ) ;
#49 = CARTESIAN_POINT ( 'NONE',  ( 0.000000000000000000, 0.000000000000000000, 0.000000000000000000 ) ) ;
#50 = COLOUR_RGB ( '',1.000000000000000000, 0.000000000000000000, 0.000000000000000000 ) ;
#51 = ADVANCED_FACE ( 'NONE', ( #35 ), #39, .T. ) ;
#52 = DIMENSIONAL_EXPONENTS ( 1.000000000000000000, 0.000000000000000000, 0.000000000000000000, 0.000000000000000000, 0.000000000000000000, 0.000000000000000000, 0.000000000000000000 ) ;
#53 = DIRECTION ( 'NONE',  ( -5.598385367530760089E-17, 1.000000000000000000, -0.000000000000000000 ) ) ;
#54 = ORIENTED_EDGE ( 'NONE', *, *, #103, .T. ) ;
#55 = MECHANICAL_DESIGN_GEOMETRIC_PRESENTATION_REPRESENTATION (  '', ( #151 ), #173 ) ;
#56 = AXIS2_PLACEMENT_3D ( 'NONE', #41, #70, #111 ) ;
#57 =( NAMED_UNIT ( * ) SI_UNIT ( $, .STERADIAN. ) SOLID_ANGLE_UNIT ( ) );
#58 = DIRECTION ( 'NONE',  ( -0.000000000000000000, -1.000000000000000000, -0.000000000000000000 ) ) ;
#59 = EDGE_CURVE ( 'NONE', #281, #256, #300, .T. ) ;
#60 = ORIENTED_EDGE ( 'NONE', *, *, #255, .T. ) ;
#61 = ORIENTED_EDGE ( 'NONE', *, *, #235, .F. ) ;
#62 = CARTESIAN_POINT ( 'NONE',  ( -2.449293598294707400E-16, 6.000000000000000888, 0.000000000000000000 ) ) ;
#63 = EDGE_LOOP ( 'NONE', ( #157, #302, #60, #113 ) ) ;
#64 = PRODUCT_CONTEXT ( 'NONE', #251, 'mechanical' ) ;
#65 = AXIS2_PLACEMENT_3D ( 'NONE', #108, #58, #218 ) ;
#66 = FILL_AREA_STYLE_COLOUR ( '', #72 ) ;
#67 = ORIENTED_EDGE ( 'NONE', *, *, #239, .F. ) ;
#68 = LENGTH_MEASURE_WITH_UNIT ( LENGTH_MEASURE( 0.02539999999999999897 ), #189 );
#69 = SURFACE_SIDE_STYLE ('',( #291 ) ) ;
#70 = DIRECTION ( 'NONE',  ( -5.598385367530760089E-17, 1.000000000000000000, -0.000000000000000000 ) ) ;
#71 = CARTESIAN_POINT ( 'NONE',  ( 0.3750000000000000555, 6.000000000000000888, 4.592425496802577300E-17 ) ) ;
#72 = COLOUR_RGB ( '',1.000000000000000000, 0.000000000000000000, 0.000000000000000000 ) ;
#73 = PRESENTATION_STYLE_ASSIGNMENT (( #197 ) ) ;
#74 = FILL_AREA_STYLE ('',( #162 ) ) ;
#75 =( NAMED_UNIT ( * ) PLANE_ANGLE_UNIT ( ) SI_UNIT ( $, .RADIAN. ) );
#76 = UNCERTAINTY_MEASURE_WITH_UNIT (LENGTH_MEASURE( 1.000000000000000082E-05 ), #306, 'distance_accuracy_value', 'NONE');
#77 = PRESENTATION_LAYER_ASSIGNMENT (  '', '', ( #90 ) ) ;
#78 = UNCERTAINTY_MEASURE_WITH_UNIT (LENGTH_MEASURE( 1.000000000000000082E-05 ), #127, 'distance_accuracy_value', 'NONE');
#79 = ORIENTED_EDGE ( 'NONE', *, *, #247, .T. ) ;
#80 = ADVANCED_FACE ( 'NONE', ( #303 ), #130, .F. ) ;
#81 = UNCERTAINTY_MEASURE_WITH_UNIT (LENGTH_MEASURE( 1.000000000000000082E-05 ), #92, 'distance_accuracy_value', 'NONE');
#82 = ORIENTED_EDGE ( 'NONE', *, *, #212, .F. ) ;
#83 = STYLED_ITEM ( 'NONE', ( #268 ), #307 ) ;
#84 =( NAMED_UNIT ( * ) PLANE_ANGLE_UNIT ( ) SI_UNIT ( $, .RADIAN. ) );
#85 = EDGE_LOOP ( 'NONE', ( #185, #277 ) ) ;
#86 = FACE_OUTER_BOUND ( 'NONE', #153, .T. ) ;
#87 = EDGE_LOOP ( 'NONE', ( #220, #285, #54, #217 ) ) ;
#88 = PLANE ( 'NONE',  #166 ) ;
#89 = EDGE_LOOP ( 'NONE', ( #20, #137 ) ) ;
#90 = STYLED_ITEM ( 'NONE', ( #73 ), #174 ) ;
#91 = SURFACE_STYLE_USAGE ( .BOTH. , #260 ) ;
#92 =( CONVERSION_BASED_UNIT ( 'INCH', #202 ) LENGTH_UNIT ( ) NAMED_UNIT ( #52 ) );
#93 =( NAMED_UNIT ( * ) PLANE_ANGLE_UNIT ( ) SI_UNIT ( $, .RADIAN. ) );
#94 = SURFACE_SIDE_STYLE ('',( #249 ) ) ;
#95 = FACE_OUTER_BOUND ( 'NONE', #85, .T. ) ;
#96 = DIMENSIONAL_EXPONENTS ( 1.000000000000000000, 0.000000000000000000, 0.000000000000000000, 0.000000000000000000, 0.000000000000000000, 0.000000000000000000, 0.000000000000000000 ) ;
#97 = AXIS2_PLACEMENT_3D ( 'NONE', #290, #230, #4 ) ;
#98 = DIMENSIONAL_EXPONENTS ( 1.000000000000000000, 0.000000000000000000, 0.000000000000000000, 0.000000000000000000, 0.000000000000000000, 0.000000000000000000, 0.000000000000000000 ) ;
#99 =( LENGTH_UNIT ( ) NAMED_UNIT ( * ) SI_UNIT ( $, .METRE. ) );
#100 = DIMENSIONAL_EXPONENTS ( 1.000000000000000000, 0.000000000000000000, 0.000000000000000000, 0.000000000000000000, 0.000000000000000000, 0.000000000000000000, 0.000000000000000000 ) ;
#101 = AXIS2_PLACEMENT_3D ( 'NONE', #287, #243, #48 ) ;
#102 = AXIS2_PLACEMENT_3D ( 'NONE', #104, #172, #286 ) ;
#103 = EDGE_CURVE ( 'NONE', #304, #40, #283, .T. ) ;
#104 = CARTESIAN_POINT ( 'NONE',  ( 0.000000000000000000, 0.000000000000000000, 0.000000000000000000 ) ) ;
#105 = UNCERTAINTY_MEASURE_WITH_UNIT (LENGTH_MEASURE( 1.000000000000000082E-05 ), #223, 'distance_accuracy_value', 'NONE');
#106 = SURFACE_STYLE_FILL_AREA ( #211 ) ;
#107 = DIRECTION ( 'NONE',  ( -1.000000000000000000, -5.598385367530760089E-17, 0.000000000000000000 ) ) ;
#108 = CARTESIAN_POINT ( 'NONE',  ( 0.000000000000000000, 0.000000000000000000, 0.000000000000000000 ) ) ;
#109 = ORIENTED_EDGE ( 'NONE', *, *, #235, .T. ) ;
#110 = PRESENTATION_STYLE_ASSIGNMENT (( #30 ) ) ;
#111 = DIRECTION ( 'NONE',  ( -1.000000000000000000, 0.000000000000000000, 0.000000000000000000 ) ) ;
#112 = FILL_AREA_STYLE_COLOUR ( '', #50 ) ;
#113 = ORIENTED_EDGE ( 'NONE', *, *, #118, .F. ) ;
#114 = AXIS2_PLACEMENT_3D ( 'NONE', #270, #139, #309 ) ;
#115 = CARTESIAN_POINT ( 'NONE',  ( -0.3750000000000000555, 1.625000000000000222, 0.000000000000000000 ) ) ;
#116 = MECHANICAL_DESIGN_GEOMETRIC_PRESENTATION_REPRESENTATION (  '', ( #145 ), #10 ) ;
#117 = DIRECTION ( 'NONE',  ( 0.000000000000000000, 0.000000000000000000, -1.000000000000000000 ) ) ;
#118 = EDGE_CURVE ( 'NONE', #256, #281, #131, .T. ) ;
#119 =( CONVERSION_BASED_UNIT ( 'INCH', #194 ) LENGTH_UNIT ( ) NAMED_UNIT ( #120 ) );
#120 = DIMENSIONAL_EXPONENTS ( 1.000000000000000000, 0.000000000000000000, 0.000000000000000000, 0.000000000000000000, 0.000000000000000000, 0.000000000000000000, 0.000000000000000000 ) ;
#121 =( LENGTH_UNIT ( ) NAMED_UNIT ( * ) SI_UNIT ( $, .METRE. ) );
#122 = CYLINDRICAL_SURFACE ( 'NONE', #206, 0.3750000000000000555 ) ;
#123 = COLOUR_RGB ( '',0.7921568627450980005, 0.8196078431372548767, 0.9333333333333333481 ) ;
#124 = DIMENSIONAL_EXPONENTS ( 1.000000000000000000, 0.000000000000000000, 0.000000000000000000, 0.000000000000000000, 0.000000000000000000, 0.000000000000000000, 0.000000000000000000 ) ;
#125 = FILL_AREA_STYLE_COLOUR ( '', #294 ) ;
#126 = UNCERTAINTY_MEASURE_WITH_UNIT (LENGTH_MEASURE( 1.000000000000000082E-05 ), #119, 'distance_accuracy_value', 'NONE');
#127 =( CONVERSION_BASED_UNIT ( 'INCH', #273 ) LENGTH_UNIT ( ) NAMED_UNIT ( #98 ) );
#128 = AXIS2_PLACEMENT_3D ( 'NONE', #129, #133, #17 ) ;
#129 = CARTESIAN_POINT ( 'NONE',  ( 0.000000000000000000, 0.000000000000000000, 0.000000000000000000 ) ) ;
#130 = PLANE ( 'NONE',  #182 ) ;
#131 = CIRCLE ( 'NONE', #65, 0.3750000000000000555 ) ;
#132 = DIRECTION ( 'NONE',  ( -1.000000000000000000, 0.000000000000000000, 0.000000000000000000 ) ) ;
#133 = DIRECTION ( 'NONE',  ( -0.000000000000000000, -1.000000000000000000, -0.000000000000000000 ) ) ;
#134 = ORIENTED_EDGE ( 'NONE', *, *, #255, .F. ) ;
#135 = CARTESIAN_POINT ( 'NONE',  ( 4.592425496802575451E-17, 0.000000000000000000, 0.3750000000000000555 ) ) ;
#136 = DIRECTION ( 'NONE',  ( -0.000000000000000000, -1.000000000000000000, -0.000000000000000000 ) ) ;
#137 = ORIENTED_EDGE ( 'NONE', *, *, #118, .T. ) ;
#138 = CARTESIAN_POINT ( 'NONE',  ( 0.000000000000000000, 0.000000000000000000, -0.3750000000000000555 ) ) ;
#139 = DIRECTION ( 'NONE',  ( -5.598385367530760089E-17, 1.000000000000000000, -0.000000000000000000 ) ) ;
#140 = ADVANCED_FACE ( 'NONE', ( #297 ), #88, .T. ) ;
#141 = AXIS2_PLACEMENT_3D ( 'NONE', #62, #53, #132 ) ;
#142 = CARTESIAN_POINT ( 'NONE',  ( 0.000000000000000000, 1.625000000000000000, -0.3750000000000000555 ) ) ;
#143 = CYLINDRICAL_SURFACE ( 'NONE', #199, 0.3750000000000000555 ) ;
#144 = LINE ( 'NONE', #138, #275 ) ;
#145 = STYLED_ITEM ( 'NONE', ( #195 ), #164 ) ;
#146 = PRODUCT_DEFINITION_CONTEXT ( 'detailed design', #274, 'design' ) ;
#147 = DIMENSIONAL_EXPONENTS ( 1.000000000000000000, 0.000000000000000000, 0.000000000000000000, 0.000000000000000000, 0.000000000000000000, 0.000000000000000000, 0.000000000000000000 ) ;
#148 = EDGE_CURVE ( 'NONE', #191, #256, #263, .T. ) ;
#149 = EDGE_CURVE ( 'NONE', #210, #191, #192, .T. ) ;
#150 = LENGTH_MEASURE_WITH_UNIT ( LENGTH_MEASURE( 0.02539999999999999897 ), #299 );
#151 = STYLED_ITEM ( 'NONE', ( #44 ), #34 ) ;
#152 = CIRCLE ( 'NONE', #180, 0.3750000000000000555 ) ;
#153 = EDGE_LOOP ( 'NONE', ( #82, #67 ) ) ;
#154 =( CONVERSION_BASED_UNIT ( 'INCH', #231 ) LENGTH_UNIT ( ) NAMED_UNIT ( #147 ) );
#155 = DIRECTION ( 'NONE',  ( 0.000000000000000000, -0.000000000000000000, 1.000000000000000000 ) ) ;
#156 = EDGE_LOOP ( 'NONE', ( #109, #214 ) ) ;
#157 = ORIENTED_EDGE ( 'NONE', *, *, #148, .F. ) ;
#158 = CIRCLE ( 'NONE', #101, 0.3750000000000000555 ) ;
#159 = CARTESIAN_POINT ( 'NONE',  ( 0.000000000000000000, 0.000000000000000000, -0.3750000000000000555 ) ) ;
#160 = SURFACE_STYLE_FILL_AREA ( #209 ) ;
#161 = ORIENTED_EDGE ( 'NONE', *, *, #103, .F. ) ;
#162 = FILL_AREA_STYLE_COLOUR ( '', #7 ) ;
#163 = DIRECTION ( 'NONE',  ( 0.000000000000000000, 0.000000000000000000, -1.000000000000000000 ) ) ;
#164 = ADVANCED_FACE ( 'NONE', ( #244 ), #143, .T. ) ;
#165 = CARTESIAN_POINT ( 'NONE',  ( 0.3749999999999998890, 6.000000000000000888, 4.592425496802576684E-17 ) ) ;
#166 = AXIS2_PLACEMENT_3D ( 'NONE', #49, #193, #46 ) ;
#167 = SURFACE_STYLE_FILL_AREA ( #74 ) ;
#168 = SURFACE_STYLE_FILL_AREA ( #25 ) ;
#169 = PLANE ( 'NONE',  #272 ) ;
#170 = FILL_AREA_STYLE_COLOUR ( '', #252 ) ;
#171 =( GEOMETRIC_REPRESENTATION_CONTEXT ( 3 ) GLOBAL_UNCERTAINTY_ASSIGNED_CONTEXT ( ( #81 ) ) GLOBAL_UNIT_ASSIGNED_CONTEXT ( ( #92, #219, #241 ) ) REPRESENTATION_CONTEXT ( 'NONE', 'WORKASPACE' ) );
#172 = DIRECTION ( 'NONE',  ( 0.000000000000000000, 0.000000000000000000, 1.000000000000000000 ) ) ;
#173 =( GEOMETRIC_REPRESENTATION_CONTEXT ( 3 ) GLOBAL_UNCERTAINTY_ASSIGNED_CONTEXT ( ( #78 ) ) GLOBAL_UNIT_ASSIGNED_CONTEXT ( ( #127, #84, #181 ) ) REPRESENTATION_CONTEXT ( 'NONE', 'WORKASPACE' ) );
#174 = MANIFOLD_SOLID_BREP ( 'Revolve - Tool Body (Straight Shanked)', #29 ) ;
#175 =( GEOMETRIC_REPRESENTATION_CONTEXT ( 3 ) GLOBAL_UNCERTAINTY_ASSIGNED_CONTEXT ( ( #105 ) ) GLOBAL_UNIT_ASSIGNED_CONTEXT ( ( #223, #265, #226 ) ) REPRESENTATION_CONTEXT ( 'NONE', 'WORKASPACE' ) );
#176 = PRODUCT_DEFINITION ( 'UNKNOWN', '', #229, #146 ) ;
#177 = MANIFOLD_SOLID_BREP ( 'Revolve - Cutting Edge', #232 ) ;
#178 = CARTESIAN_POINT ( 'NONE',  ( 4.592425496802575451E-17, 1.625000000000000000, 0.3750000000000000555 ) ) ;
#179 = EDGE_LOOP ( 'NONE', ( #298, #79, #61, #161 ) ) ;
#180 = AXIS2_PLACEMENT_3D ( 'NONE', #245, #198, #117 ) ;
#181 =( NAMED_UNIT ( * ) SI_UNIT ( $, .STERADIAN. ) SOLID_ANGLE_UNIT ( ) );
#182 = AXIS2_PLACEMENT_3D ( 'NONE', #237, #16, #301 ) ;
#183 = EDGE_LOOP ( 'NONE', ( #240, #36, #32, #134 ) ) ;
#184 = ADVANCED_FACE ( 'NONE', ( #236 ), #15, .T. ) ;
#185 = ORIENTED_EDGE ( 'NONE', *, *, #149, .F. ) ;
#186 =( CONVERSION_BASED_UNIT ( 'INCH', #150 ) LENGTH_UNIT ( ) NAMED_UNIT ( #124 ) );
#187 = CARTESIAN_POINT ( 'NONE',  ( -0.3750000000000004441, 6.000000000000000888, 0.000000000000000000 ) ) ;
#188 = SHAPE_DEFINITION_REPRESENTATION ( #43, #222 ) ;
#189 =( LENGTH_UNIT ( ) NAMED_UNIT ( * ) SI_UNIT ( $, .METRE. ) );
#190 = DIRECTION ( 'NONE',  ( -5.598385367530760089E-17, 1.000000000000000000, -0.000000000000000000 ) ) ;
#191 = VERTEX_POINT ( 'NONE', #178 ) ;
#192 = CIRCLE ( 'NONE', #97, 0.3750000000000000555 ) ;
#193 = DIRECTION ( 'NONE',  ( 0.000000000000000000, -1.000000000000000000, -0.000000000000000000 ) ) ;
#194 = LENGTH_MEASURE_WITH_UNIT ( LENGTH_MEASURE( 0.02539999999999999897 ), #42 );
#195 = PRESENTATION_STYLE_ASSIGNMENT (( #23 ) ) ;
#196 = CARTESIAN_POINT ( 'NONE',  ( -2.449293598294707400E-16, 6.000000000000000888, 0.000000000000000000 ) ) ;
#197 = SURFACE_STYLE_USAGE ( .BOTH. , #94 ) ;
#198 = DIRECTION ( 'NONE',  ( -0.000000000000000000, -1.000000000000000000, -0.000000000000000000 ) ) ;
#199 = AXIS2_PLACEMENT_3D ( 'NONE', #225, #269, #163 ) ;
#200 = LINE ( 'NONE', #165, #27 ) ;
#201 = FILL_AREA_STYLE ('',( #125 ) ) ;
#202 = LENGTH_MEASURE_WITH_UNIT ( LENGTH_MEASURE( 0.02539999999999999897 ), #266 );
#203 = PRESENTATION_LAYER_ASSIGNMENT (  '', '', ( #151 ) ) ;
#204 = CIRCLE ( 'NONE', #56, 0.3750000000000000555 ) ;
#205 = APPLICATION_PROTOCOL_DEFINITION ( 'draft international standard', 'automotive_design', 1998, #251 ) ;
#206 = AXIS2_PLACEMENT_3D ( 'NONE', #228, #289, #21 ) ;
#207 = DIRECTION ( 'NONE',  ( -5.598385367530760089E-17, 1.000000000000000000, -0.000000000000000000 ) ) ;
#208 =( NAMED_UNIT ( * ) SI_UNIT ( $, .STERADIAN. ) SOLID_ANGLE_UNIT ( ) );
#209 = FILL_AREA_STYLE ('',( #66 ) ) ;
#210 = VERTEX_POINT ( 'NONE', #142 ) ;
#211 = FILL_AREA_STYLE ('',( #257 ) ) ;
#212 = EDGE_CURVE ( 'NONE', #304, #14, #204, .T. ) ;
#213 = VECTOR ( 'NONE', #190, 39.37007874015748143 ) ;
#214 = ORIENTED_EDGE ( 'NONE', *, *, #2, .T. ) ;
#215 =( GEOMETRIC_REPRESENTATION_CONTEXT ( 3 ) GLOBAL_UNCERTAINTY_ASSIGNED_CONTEXT ( ( #126 ) ) GLOBAL_UNIT_ASSIGNED_CONTEXT ( ( #119, #93, #262 ) ) REPRESENTATION_CONTEXT ( 'NONE', 'WORKASPACE' ) );
#216 = DIRECTION ( 'NONE',  ( -1.000000000000000000, 0.000000000000000000, 0.000000000000000000 ) ) ;
#217 = ORIENTED_EDGE ( 'NONE', *, *, #2, .F. ) ;
#218 = DIRECTION ( 'NONE',  ( 0.000000000000000000, 0.000000000000000000, -1.000000000000000000 ) ) ;
#219 =( NAMED_UNIT ( * ) PLANE_ANGLE_UNIT ( ) SI_UNIT ( $, .RADIAN. ) );
#220 = ORIENTED_EDGE ( 'NONE', *, *, #247, .F. ) ;
#221 = CIRCLE ( 'NONE', #114, 0.3750000000000002776 ) ;
#222 = ADVANCED_BREP_SHAPE_REPRESENTATION ( '82948', ( #177, #174, #102 ), #175 ) ;
#223 =( CONVERSION_BASED_UNIT ( 'INCH', #68 ) LENGTH_UNIT ( ) NAMED_UNIT ( #96 ) );
#224 = LENGTH_MEASURE_WITH_UNIT ( LENGTH_MEASURE( 0.02539999999999999897 ), #99 );
#225 = CARTESIAN_POINT ( 'NONE',  ( 0.000000000000000000, 0.000000000000000000, 0.000000000000000000 ) ) ;
#226 =( NAMED_UNIT ( * ) SI_UNIT ( $, .STERADIAN. ) SOLID_ANGLE_UNIT ( ) );
#227 = PRESENTATION_LAYER_ASSIGNMENT (  '', '', ( #271 ) ) ;
#228 = CARTESIAN_POINT ( 'NONE',  ( 0.000000000000000000, 0.000000000000000000, 0.000000000000000000 ) ) ;
#229 = PRODUCT_DEFINITION_FORMATION_WITH_SPECIFIED_SOURCE ( 'ANY', '', #5, .NOT_KNOWN. ) ;
#230 = DIRECTION ( 'NONE',  ( -0.000000000000000000, -1.000000000000000000, -0.000000000000000000 ) ) ;
#231 = LENGTH_MEASURE_WITH_UNIT ( LENGTH_MEASURE( 0.02539999999999999897 ), #121 );
#232 = CLOSED_SHELL ( 'NONE', ( #164, #34, #307, #140 ) ) ;
#233 = CARTESIAN_POINT ( 'NONE',  ( 0.000000000000000000, 1.625000000000000000, 0.000000000000000000 ) ) ;
#234 =( NAMED_UNIT ( * ) PLANE_ANGLE_UNIT ( ) SI_UNIT ( $, .RADIAN. ) );
#235 = EDGE_CURVE ( 'NONE', #40, #259, #296, .T. ) ;
#236 = FACE_OUTER_BOUND ( 'NONE', #179, .T. ) ;
#237 = CARTESIAN_POINT ( 'NONE',  ( 0.3750000000000000555, 6.000000000000000888, 0.000000000000000000 ) ) ;
#238 = MECHANICAL_DESIGN_GEOMETRIC_PRESENTATION_REPRESENTATION (  '', ( #250 ), #171 ) ;
#239 = EDGE_CURVE ( 'NONE', #14, #304, #158, .T. ) ;
#240 = ORIENTED_EDGE ( 'NONE', *, *, #149, .T. ) ;
#241 =( NAMED_UNIT ( * ) SI_UNIT ( $, .STERADIAN. ) SOLID_ANGLE_UNIT ( ) );
#242 = AXIS2_PLACEMENT_3D ( 'NONE', #196, #308, #282 ) ;
#243 = DIRECTION ( 'NONE',  ( -5.598385367530760089E-17, 1.000000000000000000, -0.000000000000000000 ) ) ;
#244 = FACE_OUTER_BOUND ( 'NONE', #183, .T. ) ;
#245 = CARTESIAN_POINT ( 'NONE',  ( 0.000000000000000000, 1.625000000000000000, 0.000000000000000000 ) ) ;
#246 = APPLICATION_PROTOCOL_DEFINITION ( 'draft international standard', 'automotive_design', 1998, #274 ) ;
#247 = EDGE_CURVE ( 'NONE', #14, #259, #200, .T. ) ;
#248 = DIRECTION ( 'NONE',  ( -0.000000000000000000, -1.000000000000000000, -0.000000000000000000 ) ) ;
#249 = SURFACE_STYLE_FILL_AREA ( #26 ) ;
#250 = STYLED_ITEM ( 'NONE', ( #33 ), #140 ) ;
#251 = APPLICATION_CONTEXT ( 'automotive_design' ) ;
#252 = COLOUR_RGB ( '',0.7921568627450980005, 0.8196078431372548767, 0.9333333333333333481 ) ;
#253 = AXIS2_PLACEMENT_3D ( 'NONE', #31, #207, #216 ) ;
#254 = DIRECTION ( 'NONE',  ( 0.000000000000000000, 1.000000000000000000, 0.000000000000000000 ) ) ;
#255 = EDGE_CURVE ( 'NONE', #210, #281, #144, .T. ) ;
#256 = VERTEX_POINT ( 'NONE', #135 ) ;
#257 = FILL_AREA_STYLE_COLOUR ( '', #123 ) ;
#258 = CARTESIAN_POINT ( 'NONE',  ( 5.876609760634223074E-34, 1.625000000000000000, 0.000000000000000000 ) ) ;
#259 = VERTEX_POINT ( 'NONE', #71 ) ;
#260 = SURFACE_SIDE_STYLE ('',( #167 ) ) ;
#261 = SURFACE_SIDE_STYLE ('',( #160 ) ) ;
#262 =( NAMED_UNIT ( * ) SI_UNIT ( $, .STERADIAN. ) SOLID_ANGLE_UNIT ( ) );
#263 = LINE ( 'NONE', #19, #3 ) ;
#264 = SURFACE_STYLE_USAGE ( .BOTH. , #69 ) ;
#265 =( NAMED_UNIT ( * ) PLANE_ANGLE_UNIT ( ) SI_UNIT ( $, .RADIAN. ) );
#266 =( LENGTH_UNIT ( ) NAMED_UNIT ( * ) SI_UNIT ( $, .METRE. ) );
#267 = PRESENTATION_LAYER_ASSIGNMENT (  '', '', ( #83 ) ) ;
#268 = PRESENTATION_STYLE_ASSIGNMENT (( #91 ) ) ;
#269 = DIRECTION ( 'NONE',  ( -0.000000000000000000, -1.000000000000000000, -0.000000000000000000 ) ) ;
#270 = CARTESIAN_POINT ( 'NONE',  ( -2.449293598294707400E-16, 6.000000000000000888, 0.000000000000000000 ) ) ;
#271 = STYLED_ITEM ( 'NONE', ( #110 ), #177 ) ;
#272 = AXIS2_PLACEMENT_3D ( 'NONE', #233, #254, #155 ) ;
#273 = LENGTH_MEASURE_WITH_UNIT ( LENGTH_MEASURE( 0.02539999999999999897 ), #6 );
#274 = APPLICATION_CONTEXT ( 'automotive_design' ) ;
#275 = VECTOR ( 'NONE', #248, 39.37007874015748143 ) ;
#276 = SURFACE_STYLE_USAGE ( .BOTH. , #261 ) ;
#277 = ORIENTED_EDGE ( 'NONE', *, *, #8, .F. ) ;
#278 = PLANE ( 'NONE',  #24 ) ;
#279 =( NAMED_UNIT ( * ) PLANE_ANGLE_UNIT ( ) SI_UNIT ( $, .RADIAN. ) );
#280 = DIRECTION ( 'NONE',  ( -5.598385367530760089E-17, 1.000000000000000000, 0.000000000000000000 ) ) ;
#281 = VERTEX_POINT ( 'NONE', #159 ) ;
#282 = DIRECTION ( 'NONE',  ( -1.000000000000000000, 0.000000000000000000, 0.000000000000000000 ) ) ;
#283 = LINE ( 'NONE', #187, #213 ) ;
#284 = PRESENTATION_LAYER_ASSIGNMENT (  '', '', ( #250 ) ) ;
#285 = ORIENTED_EDGE ( 'NONE', *, *, #239, .T. ) ;
#286 = DIRECTION ( 'NONE',  ( 1.000000000000000000, 0.000000000000000000, 0.000000000000000000 ) ) ;
#287 = CARTESIAN_POINT ( 'NONE',  ( 0.000000000000000000, 1.625000000000000222, 0.000000000000000000 ) ) ;
#288 = CARTESIAN_POINT ( 'NONE',  ( 0.3750000000000000555, 1.625000000000000222, 4.592425496802577300E-17 ) ) ;
#289 = DIRECTION ( 'NONE',  ( -0.000000000000000000, -1.000000000000000000, -0.000000000000000000 ) ) ;
#290 = CARTESIAN_POINT ( 'NONE',  ( 0.000000000000000000, 1.625000000000000000, 0.000000000000000000 ) ) ;
#291 = SURFACE_STYLE_FILL_AREA ( #201 ) ;
#292 = MECHANICAL_DESIGN_GEOMETRIC_PRESENTATION_REPRESENTATION (  '', ( #90 ), #38 ) ;
#293 = SURFACE_SIDE_STYLE ('',( #168 ) ) ;
#294 = COLOUR_RGB ( '',1.000000000000000000, 0.000000000000000000, 0.000000000000000000 ) ;
#295 = PRESENTATION_LAYER_ASSIGNMENT (  '', '', ( #145 ) ) ;
#296 = CIRCLE ( 'NONE', #242, 0.3750000000000002776 ) ;
#297 = FACE_OUTER_BOUND ( 'NONE', #89, .T. ) ;
#298 = ORIENTED_EDGE ( 'NONE', *, *, #212, .T. ) ;
#299 =( LENGTH_UNIT ( ) NAMED_UNIT ( * ) SI_UNIT ( $, .METRE. ) );
#300 = CIRCLE ( 'NONE', #128, 0.3750000000000000555 ) ;
#301 = DIRECTION ( 'NONE',  ( 1.000000000000000000, 5.598385367530760089E-17, 0.000000000000000000 ) ) ;
#302 = ORIENTED_EDGE ( 'NONE', *, *, #8, .T. ) ;
#303 = FACE_OUTER_BOUND ( 'NONE', #156, .T. ) ;
#304 = VERTEX_POINT ( 'NONE', #115 ) ;
#305 = DIRECTION ( 'NONE',  ( -5.598385367530760089E-17, 1.000000000000000000, -0.000000000000000000 ) ) ;
#306 =( CONVERSION_BASED_UNIT ( 'INCH', #224 ) LENGTH_UNIT ( ) NAMED_UNIT ( #100 ) );
#307 = ADVANCED_FACE ( 'NONE', ( #18 ), #122, .T. ) ;
#308 = DIRECTION ( 'NONE',  ( -5.598385367530760089E-17, 1.000000000000000000, -0.000000000000000000 ) ) ;
#309 = DIRECTION ( 'NONE',  ( -1.000000000000000000, 0.000000000000000000, 0.000000000000000000 ) ) ;
ENDSEC;
END-ISO-10303-21;
