ISO-10303-21;
HEADER;
FILE_DESCRIPTION (( 'STEP AP214' ),
    '1' );
FILE_NAME ('Micro_RMEM-012-2.STEP',
    '2021-09-01T23:57:05',
    ( '' ),
    ( '' ),
    'SwSTEP 2.0',
    'SolidWorks 2020',
    '' );
FILE_SCHEMA (( 'AUTOMOTIVE_DESIGN' ));
ENDSEC;

DATA;
#1 = FACE_OUTER_BOUND ( 'NONE', #203, .T. ) ;
#2 = ADVANCED_FACE ( 'NONE', ( #9 ), #241, .T. ) ;
#3 = VECTOR ( 'NONE', #148, 39.37007874015748143 ) ;
#4 = DIRECTION ( 'NONE',  ( -1.000000000000000000, 0.0000000000000000000, 0.0000000000000000000 ) ) ;
#5 =( GEOMETRIC_REPRESENTATION_CONTEXT ( 3 ) GLOBAL_UNCERTAINTY_ASSIGNED_CONTEXT ( ( #14 ) ) GLOBAL_UNIT_ASSIGNED_CONTEXT ( ( #150, #128, #26 ) ) REPRESENTATION_CONTEXT ( 'NONE', 'WORKASPACE' ) );
#6 = ADVANCED_FACE ( 'NONE', ( #263 ), #247, .T. ) ;
#7 = ORIENTED_EDGE ( 'NONE', *, *, #24, .F. ) ;
#8 = CIRCLE ( 'NONE', #172, 0.05905500000000000332 ) ;
#9 = FACE_OUTER_BOUND ( 'NONE', #235, .T. ) ;
#10 = ORIENTED_EDGE ( 'NONE', *, *, #168, .T. ) ;
#11 = EDGE_LOOP ( 'NONE', ( #7, #70, #131, #61 ) ) ;
#12 = LINE ( 'NONE', #38, #207 ) ;
#13 = CARTESIAN_POINT ( 'NONE',  ( 0.05905500000000000332, 7.232151672364695422E-18, 1.496062999999999921 ) ) ;
#14 = UNCERTAINTY_MEASURE_WITH_UNIT (LENGTH_MEASURE( 1.000000000000000082E-05 ), #150, 'distance_accuracy_value', 'NONE');
#15 = AXIS2_PLACEMENT_3D ( 'NONE', #91, #179, #64 ) ;
#16 = EDGE_LOOP ( 'NONE', ( #53, #119, #219, #208 ) ) ;
#17 = EDGE_CURVE ( 'NONE', #190, #41, #147, .T. ) ;
#18 = FILL_AREA_STYLE_COLOUR ( '', #74 ) ;
#19 = VERTEX_POINT ( 'NONE', #273 ) ;
#20 =( NAMED_UNIT ( * ) PLANE_ANGLE_UNIT ( ) SI_UNIT ( $, .RADIAN. ) );
#21 = DIRECTION ( 'NONE',  ( -1.000000000000000000, 0.0000000000000000000, 1.224646799147353454E-16 ) ) ;
#22 = VECTOR ( 'NONE', #169, 39.37007874015748143 ) ;
#23 = DIRECTION ( 'NONE',  ( -1.000000000000000000, 0.0000000000000000000, 0.0000000000000000000 ) ) ;
#24 = EDGE_CURVE ( 'NONE', #89, #19, #158, .T. ) ;
#25 = APPLICATION_PROTOCOL_DEFINITION ( 'draft international standard', 'automotive_design', 1998, #75 ) ;
#26 =( NAMED_UNIT ( * ) SI_UNIT ( $, .STERADIAN. ) SOLID_ANGLE_UNIT ( ) );
#27 = PRODUCT_DEFINITION ( 'UNKNOWN', '', #211, #199 ) ;
#28 = CIRCLE ( 'NONE', #290, 0.02359837799999999972 ) ;
#29 = APPLICATION_PROTOCOL_DEFINITION ( 'draft international standard', 'automotive_design', 1998, #187 ) ;
#30 = ORIENTED_EDGE ( 'NONE', *, *, #17, .T. ) ;
#31 = ORIENTED_EDGE ( 'NONE', *, *, #253, .F. ) ;
#32 = ORIENTED_EDGE ( 'NONE', *, *, #285, .T. ) ;
#33 = EDGE_CURVE ( 'NONE', #294, #105, #289, .T. ) ;
#34 = AXIS2_PLACEMENT_3D ( 'NONE', #197, #183, #88 ) ;
#35 = AXIS2_PLACEMENT_3D ( 'NONE', #95, #146, #21 ) ;
#36 = DIRECTION ( 'NONE',  ( 0.0000000000000000000, 0.0000000000000000000, -1.000000000000000000 ) ) ;
#37 = ORIENTED_EDGE ( 'NONE', *, *, #218, .T. ) ;
#38 = CARTESIAN_POINT ( 'NONE',  ( 0.02359837799999999972, 2.889967808276932184E-18, -2.889967808276932184E-18 ) ) ;
#39 = SURFACE_STYLE_FILL_AREA ( #237 ) ;
#40 = ADVANCED_FACE ( 'NONE', ( #240 ), #270, .T. ) ;
#41 = VERTEX_POINT ( 'NONE', #164 ) ;
#42 = CARTESIAN_POINT ( 'NONE',  ( 0.02359837799999999972, 2.889967808276932184E-18, 0.0000000000000000000 ) ) ;
#43 = VECTOR ( 'NONE', #49, 39.37007874015748143 ) ;
#44 = EDGE_LOOP ( 'NONE', ( #259, #66, #58, #166 ) ) ;
#45 = LENGTH_MEASURE_WITH_UNIT ( LENGTH_MEASURE( 0.02539999999999999897 ), #182 );
#46 = EDGE_CURVE ( 'NONE', #41, #190, #256, .T. ) ;
#47 = DIRECTION ( 'NONE',  ( -1.224646799147353207E-16, -0.0000000000000000000, -1.000000000000000000 ) ) ;
#48 = ADVANCED_FACE ( 'NONE', ( #233 ), #251, .T. ) ;
#49 = DIRECTION ( 'NONE',  ( -1.224646799147353207E-16, -0.0000000000000000000, -1.000000000000000000 ) ) ;
#50 = CARTESIAN_POINT ( 'NONE',  ( 0.0000000000000000000, 0.0000000000000000000, 1.496062999999999921 ) ) ;
#51 = CARTESIAN_POINT ( 'NONE',  ( 0.0000000000000000000, 0.0000000000000000000, 1.481062999999999574 ) ) ;
#52 = AXIS2_PLACEMENT_3D ( 'NONE', #73, #63, #274 ) ;
#53 = ORIENTED_EDGE ( 'NONE', *, *, #198, .F. ) ;
#54 = AXIS2_PLACEMENT_3D ( 'NONE', #236, #268, #4 ) ;
#55 = ORIENTED_EDGE ( 'NONE', *, *, #46, .T. ) ;
#56 = CARTESIAN_POINT ( 'NONE',  ( 0.0000000000000000000, 0.0000000000000000000, 1.496062999999999921 ) ) ;
#57 = DIRECTION ( 'NONE',  ( 0.0000000000000000000, 0.0000000000000000000, -1.000000000000000000 ) ) ;
#58 = ORIENTED_EDGE ( 'NONE', *, *, #33, .F. ) ;
#59 =( GEOMETRIC_REPRESENTATION_CONTEXT ( 3 ) GLOBAL_UNCERTAINTY_ASSIGNED_CONTEXT ( ( #244 ) ) GLOBAL_UNIT_ASSIGNED_CONTEXT ( ( #227, #20, #79 ) ) REPRESENTATION_CONTEXT ( 'NONE', 'WORKASPACE' ) );
#60 =( NAMED_UNIT ( * ) SI_UNIT ( $, .STERADIAN. ) SOLID_ANGLE_UNIT ( ) );
#61 = ORIENTED_EDGE ( 'NONE', *, *, #170, .T. ) ;
#62 = DIRECTION ( 'NONE',  ( -0.7071067811865482389, 0.0000000000000000000, -0.7071067811865469066 ) ) ;
#63 = DIRECTION ( 'NONE',  ( -1.224646799147353207E-16, -0.0000000000000000000, -1.000000000000000000 ) ) ;
#64 = DIRECTION ( 'NONE',  ( 1.000000000000000000, 0.0000000000000000000, 0.0000000000000000000 ) ) ;
#65 = CLOSED_SHELL ( 'NONE', ( #99, #138, #85, #206, #2, #40, #278, #48, #6, #264 ) ) ;
#66 = ORIENTED_EDGE ( 'NONE', *, *, #253, .T. ) ;
#67 = DIRECTION ( 'NONE',  ( -1.224646799147353207E-16, -0.0000000000000000000, -1.000000000000000000 ) ) ;
#68 = ORIENTED_EDGE ( 'NONE', *, *, #168, .F. ) ;
#69 = COLOUR_RGB ( '',0.7921568627450980005, 0.8196078431372548767, 0.9333333333333333481 ) ;
#70 = ORIENTED_EDGE ( 'NONE', *, *, #285, .F. ) ;
#71 = CARTESIAN_POINT ( 'NONE',  ( -0.02359837799999999972, 0.0000000000000000000, 2.889967808276932184E-18 ) ) ;
#72 = EDGE_CURVE ( 'NONE', #161, #84, #134, .T. ) ;
#73 = CARTESIAN_POINT ( 'NONE',  ( 4.294719930916207473E-17, 0.0000000000000000000, 0.3506904957336562934 ) ) ;
#74 = COLOUR_RGB ( '',0.7921568627450980005, 0.8196078431372548767, 0.9333333333333333481 ) ;
#75 = APPLICATION_CONTEXT ( 'automotive_design' ) ;
#76 = DIMENSIONAL_EXPONENTS ( 1.000000000000000000, 0.0000000000000000000, 0.0000000000000000000, 0.0000000000000000000, 0.0000000000000000000, 0.0000000000000000000, 0.0000000000000000000 ) ;
#77 = LENGTH_MEASURE_WITH_UNIT ( LENGTH_MEASURE( 0.02539999999999999897 ), #209 );
#78 = LINE ( 'NONE', #104, #102 ) ;
#79 =( NAMED_UNIT ( * ) SI_UNIT ( $, .STERADIAN. ) SOLID_ANGLE_UNIT ( ) );
#80 = CONICAL_SURFACE ( 'NONE', #165, 0.04405499999999973326, 0.7853981633974491672 ) ;
#81 = SURFACE_STYLE_USAGE ( .BOTH. , #205 ) ;
#82 = ORIENTED_EDGE ( 'NONE', *, *, #72, .F. ) ;
#83 = CARTESIAN_POINT ( 'NONE',  ( -0.05905500000000000332, 0.0000000000000000000, 1.496062999999999921 ) ) ;
#84 = VERTEX_POINT ( 'NONE', #106 ) ;
#85 = ADVANCED_FACE ( 'NONE', ( #284 ), #142, .T. ) ;
#86 = DIRECTION ( 'NONE',  ( 1.000000000000000000, 0.0000000000000000000, 0.0000000000000000000 ) ) ;
#87 = SURFACE_SIDE_STYLE ('',( #39 ) ) ;
#88 = DIRECTION ( 'NONE',  ( -1.000000000000000000, 0.0000000000000000000, 0.0000000000000000000 ) ) ;
#89 = VERTEX_POINT ( 'NONE', #262 ) ;
#90 = AXIS2_PLACEMENT_3D ( 'NONE', #210, #149, #279 ) ;
#91 = CARTESIAN_POINT ( 'NONE',  ( 1.832145090332389117E-17, 0.0000000000000000000, 0.1496059999999999890 ) ) ;
#92 = DIRECTION ( 'NONE',  ( 1.000000000000000000, 0.0000000000000000000, 0.0000000000000000000 ) ) ;
#93 = DIRECTION ( 'NONE',  ( -1.000000000000000000, 0.0000000000000000000, 0.0000000000000000000 ) ) ;
#94 = DIRECTION ( 'NONE',  ( -1.000000000000000000, 0.0000000000000000000, 1.224646799147353454E-16 ) ) ;
#95 = CARTESIAN_POINT ( 'NONE',  ( 3.539189826045236673E-34, 0.0000000000000000000, 2.889967808276932184E-18 ) ) ;
#96 = ORIENTED_EDGE ( 'NONE', *, *, #238, .T. ) ;
#97 = CARTESIAN_POINT ( 'NONE',  ( 0.0000000000000000000, 0.0000000000000000000, 1.496062999999999921 ) ) ;
#98 = AXIS2_PLACEMENT_3D ( 'NONE', #271, #249, #101 ) ;
#99 = ADVANCED_FACE ( 'NONE', ( #109 ), #293, .T. ) ;
#100 = AXIS2_PLACEMENT_3D ( 'NONE', #160, #287, #144 ) ;
#101 = DIRECTION ( 'NONE',  ( 1.000000000000000000, 0.0000000000000000000, -0.0000000000000000000 ) ) ;
#102 = VECTOR ( 'NONE', #62, 39.37007874015748143 ) ;
#103 = CARTESIAN_POINT ( 'NONE',  ( 0.05905500000000004496, 7.232151672364700045E-18, 0.3506904957336562934 ) ) ;
#104 = CARTESIAN_POINT ( 'NONE',  ( -0.04405499999999973326, 0.0000000000000000000, 1.496062999999999921 ) ) ;
#105 = VERTEX_POINT ( 'NONE', #42 ) ;
#106 = CARTESIAN_POINT ( 'NONE',  ( 0.04405499999999973326, 6.313666573004162521E-18, 1.496062999999999921 ) ) ;
#107 = ORIENTED_EDGE ( 'NONE', *, *, #191, .F. ) ;
#108 = ORIENTED_EDGE ( 'NONE', *, *, #257, .T. ) ;
#109 = FACE_OUTER_BOUND ( 'NONE', #44, .T. ) ;
#110 = UNCERTAINTY_MEASURE_WITH_UNIT (LENGTH_MEASURE( 1.000000000000000082E-05 ), #118, 'distance_accuracy_value', 'NONE');
#111 = MANIFOLD_SOLID_BREP ( 'Cut-Revolve1', #65 ) ;
#112 = EDGE_LOOP ( 'NONE', ( #31, #32, #194, #226 ) ) ;
#113 = VECTOR ( 'NONE', #141, 39.37007874015747433 ) ;
#114 = CONICAL_SURFACE ( 'NONE', #15, 0.02359837799999999972, 0.1745329251994338360 ) ;
#115 = FACE_OUTER_BOUND ( 'NONE', #195, .T. ) ;
#116 = DIRECTION ( 'NONE',  ( -0.0000000000000000000, -0.0000000000000000000, -1.000000000000000000 ) ) ;
#117 = ORIENTED_EDGE ( 'NONE', *, *, #163, .T. ) ;
#118 =( CONVERSION_BASED_UNIT ( 'INCH', #202 ) LENGTH_UNIT ( ) NAMED_UNIT ( #171 ) );
#119 = ORIENTED_EDGE ( 'NONE', *, *, #24, .T. ) ;
#120 = MECHANICAL_DESIGN_GEOMETRIC_PRESENTATION_REPRESENTATION (  '', ( #239 ), #5 ) ;
#121 = DIRECTION ( 'NONE',  ( 0.0000000000000000000, 0.0000000000000000000, 1.000000000000000000 ) ) ;
#122 = SHAPE_DEFINITION_REPRESENTATION ( #200, #214 ) ;
#123 = LINE ( 'NONE', #83, #3 ) ;
#124 = PRESENTATION_STYLE_ASSIGNMENT (( #81 ) ) ;
#125 = DIRECTION ( 'NONE',  ( 1.000000000000000000, 0.0000000000000000000, 0.0000000000000000000 ) ) ;
#126 = AXIS2_PLACEMENT_3D ( 'NONE', #56, #155, #86 ) ;
#127 = DIRECTION ( 'NONE',  ( -1.224646799147353207E-16, -0.0000000000000000000, -1.000000000000000000 ) ) ;
#128 =( NAMED_UNIT ( * ) PLANE_ANGLE_UNIT ( ) SI_UNIT ( $, .RADIAN. ) );
#129 = AXIS2_PLACEMENT_3D ( 'NONE', #291, #245, #145 ) ;
#130 = AXIS2_PLACEMENT_3D ( 'NONE', #225, #57, #215 ) ;
#131 = ORIENTED_EDGE ( 'NONE', *, *, #222, .T. ) ;
#132 = ORIENTED_EDGE ( 'NONE', *, *, #191, .T. ) ;
#133 = DIMENSIONAL_EXPONENTS ( 1.000000000000000000, 0.0000000000000000000, 0.0000000000000000000, 0.0000000000000000000, 0.0000000000000000000, 0.0000000000000000000, 0.0000000000000000000 ) ;
#134 = CIRCLE ( 'NONE', #126, 0.04405499999999973326 ) ;
#135 = PRESENTATION_STYLE_ASSIGNMENT (( #140 ) ) ;
#136 = ORIENTED_EDGE ( 'NONE', *, *, #46, .F. ) ;
#137 = DIRECTION ( 'NONE',  ( -1.000000000000000000, 0.0000000000000000000, 0.0000000000000000000 ) ) ;
#138 = ADVANCED_FACE ( 'NONE', ( #265 ), #114, .T. ) ;
#139 = ORIENTED_EDGE ( 'NONE', *, *, #163, .F. ) ;
#140 = SURFACE_STYLE_USAGE ( .BOTH. , #87 ) ;
#141 = DIRECTION ( 'NONE',  ( -0.1736481776669311639, 2.126576849575782392E-17, 0.9848077530122080203 ) ) ;
#142 = CONICAL_SURFACE ( 'NONE', #130, 0.04405499999999973326, 0.7853981633974491672 ) ;
#143 = LINE ( 'NONE', #71, #43 ) ;
#144 = DIRECTION ( 'NONE',  ( 1.000000000000000000, 0.0000000000000000000, 0.0000000000000000000 ) ) ;
#145 = DIRECTION ( 'NONE',  ( -1.000000000000000000, 0.0000000000000000000, 1.224646799147353454E-16 ) ) ;
#146 = DIRECTION ( 'NONE',  ( -1.224646799147353207E-16, -0.0000000000000000000, -1.000000000000000000 ) ) ;
#147 = CIRCLE ( 'NONE', #281, 0.05905500000000000332 ) ;
#148 = DIRECTION ( 'NONE',  ( -0.0000000000000000000, -0.0000000000000000000, -1.000000000000000000 ) ) ;
#149 = DIRECTION ( 'NONE',  ( 0.0000000000000000000, 0.0000000000000000000, 1.000000000000000000 ) ) ;
#150 =( CONVERSION_BASED_UNIT ( 'INCH', #77 ) LENGTH_UNIT ( ) NAMED_UNIT ( #133 ) );
#151 = STYLED_ITEM ( 'NONE', ( #135 ), #111 ) ;
#152 = CARTESIAN_POINT ( 'NONE',  ( 4.294719930916207473E-17, 0.0000000000000000000, 0.3506904957336562934 ) ) ;
#153 = ORIENTED_EDGE ( 'NONE', *, *, #232, .F. ) ;
#154 = DIRECTION ( 'NONE',  ( -0.0000000000000000000, -0.0000000000000000000, -1.000000000000000000 ) ) ;
#155 = DIRECTION ( 'NONE',  ( 0.0000000000000000000, 0.0000000000000000000, 1.000000000000000000 ) ) ;
#156 = DIRECTION ( 'NONE',  ( -1.224646799147353207E-16, -0.0000000000000000000, -1.000000000000000000 ) ) ;
#157 =( GEOMETRIC_REPRESENTATION_CONTEXT ( 3 ) GLOBAL_UNCERTAINTY_ASSIGNED_CONTEXT ( ( #110 ) ) GLOBAL_UNIT_ASSIGNED_CONTEXT ( ( #118, #196, #60 ) ) REPRESENTATION_CONTEXT ( 'NONE', 'WORKASPACE' ) );
#158 = LINE ( 'NONE', #177, #113 ) ;
#159 = CARTESIAN_POINT ( 'NONE',  ( 0.02359837800000001706, 0.0000000000000000000, 0.1496059999999999890 ) ) ;
#160 = CARTESIAN_POINT ( 'NONE',  ( 1.832145090332389117E-17, 0.0000000000000000000, 0.1496059999999999890 ) ) ;
#161 = VERTEX_POINT ( 'NONE', #243 ) ;
#162 = DIRECTION ( 'NONE',  ( -1.000000000000000000, 0.0000000000000000000, 1.224646799147353454E-16 ) ) ;
#163 = EDGE_CURVE ( 'NONE', #190, #213, #221, .T. ) ;
#164 = CARTESIAN_POINT ( 'NONE',  ( -0.05905500000000000332, 0.0000000000000000000, 1.481062999999999574 ) ) ;
#165 = AXIS2_PLACEMENT_3D ( 'NONE', #97, #292, #23 ) ;
#166 = ORIENTED_EDGE ( 'NONE', *, *, #260, .F. ) ;
#167 = CARTESIAN_POINT ( 'NONE',  ( 0.04405499999999973326, 5.395181473643630390E-18, 1.496062999999999921 ) ) ;
#168 = EDGE_CURVE ( 'NONE', #161, #41, #78, .T. ) ;
#169 = DIRECTION ( 'NONE',  ( 0.1736481776669313304, 0.0000000000000000000, 0.9848077530122077983 ) ) ;
#170 = EDGE_CURVE ( 'NONE', #213, #19, #8, .T. ) ;
#171 = DIMENSIONAL_EXPONENTS ( 1.000000000000000000, 0.0000000000000000000, 0.0000000000000000000, 0.0000000000000000000, 0.0000000000000000000, 0.0000000000000000000, 0.0000000000000000000 ) ;
#172 = AXIS2_PLACEMENT_3D ( 'NONE', #152, #127, #229 ) ;
#173 = FILL_AREA_STYLE ('',( #252 ) ) ;
#174 = ORIENTED_EDGE ( 'NONE', *, *, #33, .T. ) ;
#175 = VECTOR ( 'NONE', #220, 39.37007874015748143 ) ;
#176 = CARTESIAN_POINT ( 'NONE',  ( 0.0000000000000000000, 0.0000000000000000000, 0.0000000000000000000 ) ) ;
#177 = CARTESIAN_POINT ( 'NONE',  ( -0.02359837799999998584, 2.889967808276932184E-18, 0.1496059999999999890 ) ) ;
#178 = ORIENTED_EDGE ( 'NONE', *, *, #17, .F. ) ;
#179 = DIRECTION ( 'NONE',  ( 1.224646799147353207E-16, 0.0000000000000000000, 1.000000000000000000 ) ) ;
#180 = CARTESIAN_POINT ( 'NONE',  ( 3.539189826045236673E-34, 0.0000000000000000000, 2.889967808276932184E-18 ) ) ;
#181 = DIRECTION ( 'NONE',  ( 0.0000000000000000000, 0.0000000000000000000, 1.000000000000000000 ) ) ;
#182 =( LENGTH_UNIT ( ) NAMED_UNIT ( * ) SI_UNIT ( $, .METRE. ) );
#183 = DIRECTION ( 'NONE',  ( -0.0000000000000000000, -0.0000000000000000000, -1.000000000000000000 ) ) ;
#184 = VECTOR ( 'NONE', #116, 39.37007874015748143 ) ;
#185 = SURFACE_STYLE_FILL_AREA ( #173 ) ;
#186 = AXIS2_PLACEMENT_3D ( 'NONE', #223, #181, #272 ) ;
#187 = APPLICATION_CONTEXT ( 'automotive_design' ) ;
#188 = PRESENTATION_LAYER_ASSIGNMENT (  '', '', ( #151 ) ) ;
#189 = AXIS2_PLACEMENT_3D ( 'NONE', #269, #121, #242 ) ;
#190 = VERTEX_POINT ( 'NONE', #216 ) ;
#191 = EDGE_CURVE ( 'NONE', #41, #19, #123, .T. ) ;
#192 =( LENGTH_UNIT ( ) NAMED_UNIT ( * ) SI_UNIT ( $, .METRE. ) );
#193 = CYLINDRICAL_SURFACE ( 'NONE', #255, 0.05905500000000000332 ) ;
#194 = ORIENTED_EDGE ( 'NONE', *, *, #260, .T. ) ;
#195 = EDGE_LOOP ( 'NONE', ( #283, #82, #10, #178 ) ) ;
#196 =( NAMED_UNIT ( * ) PLANE_ANGLE_UNIT ( ) SI_UNIT ( $, .RADIAN. ) );
#197 = CARTESIAN_POINT ( 'NONE',  ( 0.0000000000000000000, 0.0000000000000000000, 1.496062999999999921 ) ) ;
#198 = EDGE_CURVE ( 'NONE', #89, #267, #261, .T. ) ;
#199 = PRODUCT_DEFINITION_CONTEXT ( 'detailed design', #187, 'design' ) ;
#200 = PRODUCT_DEFINITION_SHAPE ( 'NONE', 'NONE',  #27 ) ;
#201 = ORIENTED_EDGE ( 'NONE', *, *, #72, .T. ) ;
#202 = LENGTH_MEASURE_WITH_UNIT ( LENGTH_MEASURE( 0.02539999999999999897 ), #192 );
#203 = EDGE_LOOP ( 'NONE', ( #174, #37 ) ) ;
#204 = DIRECTION ( 'NONE',  ( -1.224646799147353207E-16, -0.0000000000000000000, -1.000000000000000000 ) ) ;
#205 = SURFACE_SIDE_STYLE ('',( #185 ) ) ;
#206 = ADVANCED_FACE ( 'NONE', ( #231 ), #193, .T. ) ;
#207 = VECTOR ( 'NONE', #47, 39.37007874015748143 ) ;
#208 = ORIENTED_EDGE ( 'NONE', *, *, #222, .F. ) ;
#209 =( LENGTH_UNIT ( ) NAMED_UNIT ( * ) SI_UNIT ( $, .METRE. ) );
#210 = CARTESIAN_POINT ( 'NONE',  ( 0.0000000000000000000, 0.0000000000000000000, 0.0000000000000000000 ) ) ;
#211 = PRODUCT_DEFINITION_FORMATION_WITH_SPECIFIED_SOURCE ( 'ANY', '', #254, .NOT_KNOWN. ) ;
#212 = MECHANICAL_DESIGN_GEOMETRIC_PRESENTATION_REPRESENTATION (  '', ( #151 ), #157 ) ;
#213 = VERTEX_POINT ( 'NONE', #103 ) ;
#214 = ADVANCED_BREP_SHAPE_REPRESENTATION ( 'Micro_RMEM-012-2', ( #111, #90 ), #59 ) ;
#215 = DIRECTION ( 'NONE',  ( -1.000000000000000000, 0.0000000000000000000, 0.0000000000000000000 ) ) ;
#216 = CARTESIAN_POINT ( 'NONE',  ( 0.05905500000000000332, 7.232151672364695422E-18, 1.481062999999999574 ) ) ;
#217 = EDGE_LOOP ( 'NONE', ( #55, #117, #153, #107 ) ) ;
#218 = EDGE_CURVE ( 'NONE', #105, #294, #266, .T. ) ;
#219 = ORIENTED_EDGE ( 'NONE', *, *, #232, .T. ) ;
#220 = DIRECTION ( 'NONE',  ( 0.7071067811865482389, 8.659560562354941486E-17, -0.7071067811865469066 ) ) ;
#221 = LINE ( 'NONE', #13, #184 ) ;
#222 = EDGE_CURVE ( 'NONE', #267, #213, #246, .T. ) ;
#223 = CARTESIAN_POINT ( 'NONE',  ( 0.0000000000000000000, 0.0000000000000000000, 1.496062999999999921 ) ) ;
#224 = PLANE ( 'NONE',  #98 ) ;
#225 = CARTESIAN_POINT ( 'NONE',  ( 0.0000000000000000000, 0.0000000000000000000, 1.496062999999999921 ) ) ;
#226 = ORIENTED_EDGE ( 'NONE', *, *, #218, .F. ) ;
#227 =( CONVERSION_BASED_UNIT ( 'INCH', #45 ) LENGTH_UNIT ( ) NAMED_UNIT ( #76 ) );
#228 = CARTESIAN_POINT ( 'NONE',  ( 0.02359837800000001706, 0.0000000000000000000, 0.1496059999999999890 ) ) ;
#229 = DIRECTION ( 'NONE',  ( 1.000000000000000000, 0.0000000000000000000, 0.0000000000000000000 ) ) ;
#230 = PRESENTATION_LAYER_ASSIGNMENT (  '', '', ( #239 ) ) ;
#231 = FACE_OUTER_BOUND ( 'NONE', #217, .T. ) ;
#232 = EDGE_CURVE ( 'NONE', #19, #213, #282, .T. ) ;
#233 = FACE_OUTER_BOUND ( 'NONE', #11, .T. ) ;
#234 = ORIENTED_EDGE ( 'NONE', *, *, #170, .F. ) ;
#235 = EDGE_LOOP ( 'NONE', ( #139, #30, #132, #234 ) ) ;
#236 = CARTESIAN_POINT ( 'NONE',  ( 1.832145090332389117E-17, 0.0000000000000000000, 0.1496059999999999890 ) ) ;
#237 = FILL_AREA_STYLE ('',( #18 ) ) ;
#238 = EDGE_CURVE ( 'NONE', #84, #161, #248, .T. ) ;
#239 = STYLED_ITEM ( 'NONE', ( #124 ), #214 ) ;
#240 = FACE_OUTER_BOUND ( 'NONE', #296, .T. ) ;
#241 = CYLINDRICAL_SURFACE ( 'NONE', #34, 0.05905500000000000332 ) ;
#242 = DIRECTION ( 'NONE',  ( 1.000000000000000000, 0.0000000000000000000, 0.0000000000000000000 ) ) ;
#243 = CARTESIAN_POINT ( 'NONE',  ( -0.04405499999999973326, 0.0000000000000000000, 1.496062999999999921 ) ) ;
#244 = UNCERTAINTY_MEASURE_WITH_UNIT (LENGTH_MEASURE( 1.000000000000000082E-05 ), #227, 'distance_accuracy_value', 'NONE');
#245 = DIRECTION ( 'NONE',  ( -1.224646799147353207E-16, -0.0000000000000000000, -1.000000000000000000 ) ) ;
#246 = LINE ( 'NONE', #228, #22 ) ;
#247 = CYLINDRICAL_SURFACE ( 'NONE', #129, 0.02359837799999999972 ) ;
#248 = CIRCLE ( 'NONE', #189, 0.04405499999999973326 ) ;
#249 = DIRECTION ( 'NONE',  ( 0.0000000000000000000, 0.0000000000000000000, 1.000000000000000000 ) ) ;
#250 = LINE ( 'NONE', #167, #175 ) ;
#251 = CONICAL_SURFACE ( 'NONE', #100, 0.02359837799999999972, 0.1745329251994338360 ) ;
#252 = FILL_AREA_STYLE_COLOUR ( '', #69 ) ;
#253 = EDGE_CURVE ( 'NONE', #267, #105, #12, .T. ) ;
#254 = PRODUCT ( 'Micro_RMEM-012-2', 'Micro_RMEM-012-2', '', ( #258 ) ) ;
#255 = AXIS2_PLACEMENT_3D ( 'NONE', #50, #154, #137 ) ;
#256 = CIRCLE ( 'NONE', #299, 0.05905500000000000332 ) ;
#257 = EDGE_CURVE ( 'NONE', #84, #190, #250, .T. ) ;
#258 = PRODUCT_CONTEXT ( 'NONE', #75, 'mechanical' ) ;
#259 = ORIENTED_EDGE ( 'NONE', *, *, #198, .T. ) ;
#260 = EDGE_CURVE ( 'NONE', #89, #294, #143, .T. ) ;
#261 = CIRCLE ( 'NONE', #54, 0.02359837799999999972 ) ;
#262 = CARTESIAN_POINT ( 'NONE',  ( -0.02359837799999998584, 5.061059740320813803E-18, 0.1496059999999999890 ) ) ;
#263 = FACE_OUTER_BOUND ( 'NONE', #112, .T. ) ;
#264 = ADVANCED_FACE ( 'NONE', ( #1 ), #224, .F. ) ;
#265 = FACE_OUTER_BOUND ( 'NONE', #16, .T. ) ;
#266 = CIRCLE ( 'NONE', #35, 0.02359837799999999972 ) ;
#267 = VERTEX_POINT ( 'NONE', #159 ) ;
#268 = DIRECTION ( 'NONE',  ( -1.224646799147353207E-16, -0.0000000000000000000, -1.000000000000000000 ) ) ;
#269 = CARTESIAN_POINT ( 'NONE',  ( 0.0000000000000000000, 0.0000000000000000000, 1.496062999999999921 ) ) ;
#270 = PLANE ( 'NONE',  #186 ) ;
#271 = CARTESIAN_POINT ( 'NONE',  ( 0.0000000000000000000, 0.0000000000000000000, 0.0000000000000000000 ) ) ;
#272 = DIRECTION ( 'NONE',  ( 1.000000000000000000, 0.0000000000000000000, -0.0000000000000000000 ) ) ;
#273 = CARTESIAN_POINT ( 'NONE',  ( -0.05905499999999996169, 0.0000000000000000000, 0.3506904957336562934 ) ) ;
#274 = DIRECTION ( 'NONE',  ( 1.000000000000000000, 0.0000000000000000000, 0.0000000000000000000 ) ) ;
#275 = DIRECTION ( 'NONE',  ( 0.0000000000000000000, 0.0000000000000000000, -1.000000000000000000 ) ) ;
#276 = AXIS2_PLACEMENT_3D ( 'NONE', #180, #156, #94 ) ;
#277 = AXIS2_PLACEMENT_3D ( 'NONE', #176, #67, #162 ) ;
#278 = ADVANCED_FACE ( 'NONE', ( #115 ), #80, .T. ) ;
#279 = DIRECTION ( 'NONE',  ( 1.000000000000000000, 0.0000000000000000000, 0.0000000000000000000 ) ) ;
#280 = EDGE_LOOP ( 'NONE', ( #286, #108, #136, #68 ) ) ;
#281 = AXIS2_PLACEMENT_3D ( 'NONE', #288, #36, #92 ) ;
#282 = CIRCLE ( 'NONE', #52, 0.05905500000000000332 ) ;
#283 = ORIENTED_EDGE ( 'NONE', *, *, #257, .F. ) ;
#284 = FACE_OUTER_BOUND ( 'NONE', #280, .T. ) ;
#285 = EDGE_CURVE ( 'NONE', #267, #89, #28, .T. ) ;
#286 = ORIENTED_EDGE ( 'NONE', *, *, #238, .F. ) ;
#287 = DIRECTION ( 'NONE',  ( 1.224646799147353207E-16, 0.0000000000000000000, 1.000000000000000000 ) ) ;
#288 = CARTESIAN_POINT ( 'NONE',  ( 0.0000000000000000000, 0.0000000000000000000, 1.481062999999999574 ) ) ;
#289 = CIRCLE ( 'NONE', #276, 0.02359837799999999972 ) ;
#290 = AXIS2_PLACEMENT_3D ( 'NONE', #295, #204, #93 ) ;
#291 = CARTESIAN_POINT ( 'NONE',  ( 0.0000000000000000000, 0.0000000000000000000, 0.0000000000000000000 ) ) ;
#292 = DIRECTION ( 'NONE',  ( 0.0000000000000000000, 0.0000000000000000000, -1.000000000000000000 ) ) ;
#293 = CYLINDRICAL_SURFACE ( 'NONE', #277, 0.02359837799999999972 ) ;
#294 = VERTEX_POINT ( 'NONE', #298 ) ;
#295 = CARTESIAN_POINT ( 'NONE',  ( 1.832145090332389117E-17, 0.0000000000000000000, 0.1496059999999999890 ) ) ;
#296 = EDGE_LOOP ( 'NONE', ( #201, #96 ) ) ;
#297 = PRODUCT_RELATED_PRODUCT_CATEGORY ( 'part', '', ( #254 ) ) ;
#298 = CARTESIAN_POINT ( 'NONE',  ( -0.02359837799999999972, 0.0000000000000000000, 5.779935616553864367E-18 ) ) ;
#299 = AXIS2_PLACEMENT_3D ( 'NONE', #51, #275, #125 ) ;
ENDSEC;
END-ISO-10303-21;
