ISO-10303-21;
HEADER;
FILE_DESCRIPTION (( 'STEP AP214' ),
    '1' );
FILE_NAME ('Micro_RTCM-050-1.STEP',
    '2021-09-03T18:21:52',
    ( '' ),
    ( '' ),
    'SwSTEP 2.0',
    'SolidWorks 2020',
    '' );
FILE_SCHEMA (( 'AUTOMOTIVE_DESIGN' ));
ENDSEC;

DATA;
#1 = DIRECTION ( 'NONE',  ( -1.000000000000000000, 0.0000000000000000000, 0.0000000000000000000 ) ) ;
#2 = CONICAL_SURFACE ( 'NONE', #163, 0.08342499999999994365, 0.7853981633974420618 ) ;
#3 = CARTESIAN_POINT ( 'NONE',  ( 0.0000000000000000000, 0.0000000000000000000, 1.953503999999999685 ) ) ;
#4 = FILL_AREA_STYLE_COLOUR ( '', #180 ) ;
#5 = STYLED_ITEM ( 'NONE', ( #149 ), #242 ) ;
#6 = CIRCLE ( 'NONE', #110, 0.003936999999999995191 ) ;
#7 = AXIS2_PLACEMENT_3D ( 'NONE', #154, #230, #99 ) ;
#8 = DIMENSIONAL_EXPONENTS ( 1.000000000000000000, 0.0000000000000000000, 0.0000000000000000000, 0.0000000000000000000, 0.0000000000000000000, 0.0000000000000000000, 0.0000000000000000000 ) ;
#9 = PLANE ( 'NONE',  #98 ) ;
#10 = ORIENTED_EDGE ( 'NONE', *, *, #115, .F. ) ;
#11 =( GEOMETRIC_REPRESENTATION_CONTEXT ( 3 ) GLOBAL_UNCERTAINTY_ASSIGNED_CONTEXT ( ( #24 ) ) GLOBAL_UNIT_ASSIGNED_CONTEXT ( ( #64, #124, #31 ) ) REPRESENTATION_CONTEXT ( 'NONE', 'WORKASPACE' ) );
#12 = DIRECTION ( 'NONE',  ( 1.000000000000000000, 0.0000000000000000000, -0.0000000000000000000 ) ) ;
#13 = EDGE_LOOP ( 'NONE', ( #202, #33, #239, #59 ) ) ;
#14 = DIRECTION ( 'NONE',  ( -1.000000000000000000, 0.0000000000000000000, 0.0000000000000000000 ) ) ;
#15 = DIRECTION ( 'NONE',  ( -0.0000000000000000000, -0.0000000000000000000, -1.000000000000000000 ) ) ;
#16 = CARTESIAN_POINT ( 'NONE',  ( 0.0000000000000000000, 0.0000000000000000000, 1.968503999999999809 ) ) ;
#17 = SURFACE_STYLE_FILL_AREA ( #137 ) ;
#18 = CARTESIAN_POINT ( 'NONE',  ( 0.0000000000000000000, 0.0000000000000000000, 1.953503999999999685 ) ) ;
#19 = DIRECTION ( 'NONE',  ( 0.0000000000000000000, 0.0000000000000000000, 1.000000000000000000 ) ) ;
#20 = CARTESIAN_POINT ( 'NONE',  ( 0.0000000000000000000, 0.0000000000000000000, 0.0000000000000000000 ) ) ;
#21 = AXIS2_PLACEMENT_3D ( 'NONE', #228, #65, #12 ) ;
#22 = PRODUCT_DEFINITION ( 'UNKNOWN', '', #195, #184 ) ;
#23 = PRODUCT ( 'Micro_RTCM-050-1', 'Micro_RTCM-050-1', '', ( #112 ) ) ;
#24 = UNCERTAINTY_MEASURE_WITH_UNIT (LENGTH_MEASURE( 1.000000000000000082E-05 ), #64, 'distance_accuracy_value', 'NONE');
#25 = VECTOR ( 'NONE', #156, 39.37007874015748854 ) ;
#26 = EDGE_CURVE ( 'NONE', #203, #30, #47, .T. ) ;
#27 = AXIS2_PLACEMENT_3D ( 'NONE', #173, #94, #135 ) ;
#28 =( NAMED_UNIT ( * ) SI_UNIT ( $, .STERADIAN. ) SOLID_ANGLE_UNIT ( ) );
#29 = LINE ( 'NONE', #147, #199 ) ;
#30 = VERTEX_POINT ( 'NONE', #194 ) ;
#31 =( NAMED_UNIT ( * ) SI_UNIT ( $, .STERADIAN. ) SOLID_ANGLE_UNIT ( ) );
#32 = DIRECTION ( 'NONE',  ( 0.0000000000000000000, 0.0000000000000000000, -1.000000000000000000 ) ) ;
#33 = ORIENTED_EDGE ( 'NONE', *, *, #96, .F. ) ;
#34 = CARTESIAN_POINT ( 'NONE',  ( 0.0000000000000000000, 0.0000000000000000000, 1.968503999999999809 ) ) ;
#35 = CARTESIAN_POINT ( 'NONE',  ( 0.0000000000000000000, 0.0000000000000000000, 0.3526340167055667107 ) ) ;
#36 = AXIS2_PLACEMENT_3D ( 'NONE', #213, #113, #229 ) ;
#37 = CARTESIAN_POINT ( 'NONE',  ( 0.0000000000000000000, 0.0000000000000000000, 0.0000000000000000000 ) ) ;
#38 = DIRECTION ( 'NONE',  ( -1.000000000000000000, 0.0000000000000000000, 0.0000000000000000000 ) ) ;
#39 = CIRCLE ( 'NONE', #179, 0.08342499999999994365 ) ;
#40 =( GEOMETRIC_REPRESENTATION_CONTEXT ( 3 ) GLOBAL_UNCERTAINTY_ASSIGNED_CONTEXT ( ( #175 ) ) GLOBAL_UNIT_ASSIGNED_CONTEXT ( ( #46, #178, #56 ) ) REPRESENTATION_CONTEXT ( 'NONE', 'WORKASPACE' ) );
#41 = DIMENSIONAL_EXPONENTS ( 1.000000000000000000, 0.0000000000000000000, 0.0000000000000000000, 0.0000000000000000000, 0.0000000000000000000, 0.0000000000000000000, 0.0000000000000000000 ) ;
#42 = ORIENTED_EDGE ( 'NONE', *, *, #66, .T. ) ;
#43 = ORIENTED_EDGE ( 'NONE', *, *, #177, .F. ) ;
#44 = VERTEX_POINT ( 'NONE', #93 ) ;
#45 = DIRECTION ( 'NONE',  ( 1.000000000000000000, 0.0000000000000000000, 0.0000000000000000000 ) ) ;
#46 =( CONVERSION_BASED_UNIT ( 'INCH', #200 ) LENGTH_UNIT ( ) NAMED_UNIT ( #8 ) );
#47 = LINE ( 'NONE', #207, #77 ) ;
#48 = EDGE_CURVE ( 'NONE', #122, #245, #211, .T. ) ;
#49 = ORIENTED_EDGE ( 'NONE', *, *, #66, .F. ) ;
#50 = DIRECTION ( 'NONE',  ( -0.0000000000000000000, -0.0000000000000000000, -1.000000000000000000 ) ) ;
#51 = CARTESIAN_POINT ( 'NONE',  ( 0.003936999999999995191, 0.0000000000000000000, 0.0000000000000000000 ) ) ;
#52 = DIRECTION ( 'NONE',  ( -0.0000000000000000000, -0.0000000000000000000, -1.000000000000000000 ) ) ;
#53 = CONICAL_SURFACE ( 'NONE', #205, 0.003936999999999995191, 0.2617993877991504625 ) ;
#54 = DIRECTION ( 'NONE',  ( 0.0000000000000000000, 0.0000000000000000000, -1.000000000000000000 ) ) ;
#55 = EDGE_CURVE ( 'NONE', #30, #120, #116, .T. ) ;
#56 =( NAMED_UNIT ( * ) SI_UNIT ( $, .STERADIAN. ) SOLID_ANGLE_UNIT ( ) );
#57 = ADVANCED_FACE ( 'NONE', ( #130 ), #150, .T. ) ;
#58 = APPLICATION_CONTEXT ( 'automotive_design' ) ;
#59 = ORIENTED_EDGE ( 'NONE', *, *, #102, .T. ) ;
#60 = SURFACE_STYLE_USAGE ( .BOTH. , #63 ) ;
#61 = EDGE_LOOP ( 'NONE', ( #70, #222, #190, #43 ) ) ;
#62 = LENGTH_MEASURE_WITH_UNIT ( LENGTH_MEASURE( 0.02539999999999999897 ), #168 );
#63 = SURFACE_SIDE_STYLE ('',( #223 ) ) ;
#64 =( CONVERSION_BASED_UNIT ( 'INCH', #62 ) LENGTH_UNIT ( ) NAMED_UNIT ( #41 ) );
#65 = DIRECTION ( 'NONE',  ( 0.0000000000000000000, 0.0000000000000000000, 1.000000000000000000 ) ) ;
#66 = EDGE_CURVE ( 'NONE', #203, #141, #6, .T. ) ;
#67 = VERTEX_POINT ( 'NONE', #76 ) ;
#68 = APPLICATION_CONTEXT ( 'automotive_design' ) ;
#69 = CARTESIAN_POINT ( 'NONE',  ( -0.003936999999999995191, 6.267864782716068801E-18, 0.0000000000000000000 ) ) ;
#70 = ORIENTED_EDGE ( 'NONE', *, *, #236, .T. ) ;
#71 = AXIS2_PLACEMENT_3D ( 'NONE', #20, #172, #174 ) ;
#72 = VECTOR ( 'NONE', #131, 39.37007874015748854 ) ;
#73 = FACE_OUTER_BOUND ( 'NONE', #13, .T. ) ;
#74 = FACE_OUTER_BOUND ( 'NONE', #126, .T. ) ;
#75 = LINE ( 'NONE', #231, #25 ) ;
#76 = CARTESIAN_POINT ( 'NONE',  ( 0.09842500000000001248, 1.205358612060782468E-17, 1.953503999999999685 ) ) ;
#77 = VECTOR ( 'NONE', #210, 39.37007874015748854 ) ;
#78 = CARTESIAN_POINT ( 'NONE',  ( 0.0000000000000000000, 0.0000000000000000000, 1.968503999999999809 ) ) ;
#79 = EDGE_CURVE ( 'NONE', #245, #122, #39, .T. ) ;
#80 = PRESENTATION_LAYER_ASSIGNMENT (  '', '', ( #119 ) ) ;
#81 = SURFACE_STYLE_USAGE ( .BOTH. , #248 ) ;
#82 = ORIENTED_EDGE ( 'NONE', *, *, #115, .T. ) ;
#83 = ORIENTED_EDGE ( 'NONE', *, *, #48, .F. ) ;
#84 =( NAMED_UNIT ( * ) PLANE_ANGLE_UNIT ( ) SI_UNIT ( $, .RADIAN. ) );
#85 = EDGE_LOOP ( 'NONE', ( #49, #87, #107, #220 ) ) ;
#86 = CARTESIAN_POINT ( 'NONE',  ( 0.09842500000000001248, 1.205358612060782468E-17, 1.968503999999999809 ) ) ;
#87 = ORIENTED_EDGE ( 'NONE', *, *, #26, .T. ) ;
#88 = PLANE ( 'NONE',  #21 ) ;
#89 = DIRECTION ( 'NONE',  ( -0.0000000000000000000, -0.0000000000000000000, -1.000000000000000000 ) ) ;
#90 = CIRCLE ( 'NONE', #111, 0.09842500000000001248 ) ;
#91 = DIRECTION ( 'NONE',  ( 1.000000000000000000, 0.0000000000000000000, 0.0000000000000000000 ) ) ;
#92 = DIRECTION ( 'NONE',  ( 1.000000000000000000, 0.0000000000000000000, 0.0000000000000000000 ) ) ;
#93 = CARTESIAN_POINT ( 'NONE',  ( -0.09842500000000001248, 0.0000000000000000000, 1.953503999999999685 ) ) ;
#94 = DIRECTION ( 'NONE',  ( -0.0000000000000000000, -0.0000000000000000000, -1.000000000000000000 ) ) ;
#95 = COLOUR_RGB ( '',0.7921568627450980005, 0.8196078431372548767, 0.9333333333333333481 ) ;
#96 = EDGE_CURVE ( 'NONE', #141, #203, #142, .T. ) ;
#97 = AXIS2_PLACEMENT_3D ( 'NONE', #35, #52, #249 ) ;
#98 = AXIS2_PLACEMENT_3D ( 'NONE', #125, #191, #106 ) ;
#99 = DIRECTION ( 'NONE',  ( 1.000000000000000000, 0.0000000000000000000, 0.0000000000000000000 ) ) ;
#100 = CIRCLE ( 'NONE', #144, 0.09842500000000001248 ) ;
#101 = ORIENTED_EDGE ( 'NONE', *, *, #134, .F. ) ;
#102 = EDGE_CURVE ( 'NONE', #120, #30, #216, .T. ) ;
#103 = LINE ( 'NONE', #182, #157 ) ;
#104 = ORIENTED_EDGE ( 'NONE', *, *, #177, .T. ) ;
#105 = FILL_AREA_STYLE ('',( #238 ) ) ;
#106 = DIRECTION ( 'NONE',  ( 1.000000000000000000, 0.0000000000000000000, -0.0000000000000000000 ) ) ;
#107 = ORIENTED_EDGE ( 'NONE', *, *, #55, .T. ) ;
#108 = FACE_OUTER_BOUND ( 'NONE', #181, .T. ) ;
#109 = LINE ( 'NONE', #86, #217 ) ;
#110 = AXIS2_PLACEMENT_3D ( 'NONE', #37, #89, #1 ) ;
#111 = AXIS2_PLACEMENT_3D ( 'NONE', #18, #32, #91 ) ;
#112 = PRODUCT_CONTEXT ( 'NONE', #68, 'mechanical' ) ;
#113 = DIRECTION ( 'NONE',  ( -0.0000000000000000000, -0.0000000000000000000, -1.000000000000000000 ) ) ;
#114 = DIRECTION ( 'NONE',  ( 1.000000000000000000, 0.0000000000000000000, 0.0000000000000000000 ) ) ;
#115 = EDGE_CURVE ( 'NONE', #67, #44, #100, .T. ) ;
#116 = CIRCLE ( 'NONE', #27, 0.09842500000000001248 ) ;
#117 = EDGE_CURVE ( 'NONE', #141, #120, #75, .T. ) ;
#118 = PRESENTATION_LAYER_ASSIGNMENT (  '', '', ( #5 ) ) ;
#119 = STYLED_ITEM ( 'NONE', ( #235 ), #197 ) ;
#120 = VERTEX_POINT ( 'NONE', #171 ) ;
#121 = LENGTH_MEASURE_WITH_UNIT ( LENGTH_MEASURE( 0.02539999999999999897 ), #123 );
#122 = VERTEX_POINT ( 'NONE', #233 ) ;
#123 =( LENGTH_UNIT ( ) NAMED_UNIT ( * ) SI_UNIT ( $, .METRE. ) );
#124 =( NAMED_UNIT ( * ) PLANE_ANGLE_UNIT ( ) SI_UNIT ( $, .RADIAN. ) );
#125 = CARTESIAN_POINT ( 'NONE',  ( 0.0000000000000000000, 0.0000000000000000000, 1.968503999999999809 ) ) ;
#126 = EDGE_LOOP ( 'NONE', ( #148, #82, #104, #225 ) ) ;
#127 = DIRECTION ( 'NONE',  ( 0.0000000000000000000, 0.0000000000000000000, 1.000000000000000000 ) ) ;
#128 = EDGE_LOOP ( 'NONE', ( #101, #83, #183, #10 ) ) ;
#129 = FACE_OUTER_BOUND ( 'NONE', #85, .T. ) ;
#130 = FACE_OUTER_BOUND ( 'NONE', #201, .T. ) ;
#131 = DIRECTION ( 'NONE',  ( 0.7071067811865430208, 8.659560562354874926E-17, -0.7071067811865517916 ) ) ;
#132 = AXIS2_PLACEMENT_3D ( 'NONE', #34, #15, #240 ) ;
#133 = APPLICATION_PROTOCOL_DEFINITION ( 'draft international standard', 'automotive_design', 1998, #58 ) ;
#134 = EDGE_CURVE ( 'NONE', #245, #67, #234, .T. ) ;
#135 = DIRECTION ( 'NONE',  ( -1.000000000000000000, 0.0000000000000000000, 0.0000000000000000000 ) ) ;
#136 = CLOSED_SHELL ( 'NONE', ( #204, #57, #162, #139, #219, #159, #185, #196 ) ) ;
#137 = FILL_AREA_STYLE ('',( #4 ) ) ;
#138 = PRODUCT_RELATED_PRODUCT_CATEGORY ( 'part', '', ( #23 ) ) ;
#139 = ADVANCED_FACE ( 'NONE', ( #74 ), #153, .T. ) ;
#140 =( LENGTH_UNIT ( ) NAMED_UNIT ( * ) SI_UNIT ( $, .METRE. ) );
#141 = VERTEX_POINT ( 'NONE', #51 ) ;
#142 = CIRCLE ( 'NONE', #71, 0.003936999999999995191 ) ;
#143 = CARTESIAN_POINT ( 'NONE',  ( 0.0000000000000000000, 0.0000000000000000000, 0.0000000000000000000 ) ) ;
#144 = AXIS2_PLACEMENT_3D ( 'NONE', #3, #158, #155 ) ;
#145 = FACE_OUTER_BOUND ( 'NONE', #128, .T. ) ;
#146 = ORIENTED_EDGE ( 'NONE', *, *, #96, .T. ) ;
#147 = CARTESIAN_POINT ( 'NONE',  ( -0.09842500000000001248, 0.0000000000000000000, 1.968503999999999809 ) ) ;
#148 = ORIENTED_EDGE ( 'NONE', *, *, #152, .F. ) ;
#149 = PRESENTATION_STYLE_ASSIGNMENT (( #60 ) ) ;
#150 = CONICAL_SURFACE ( 'NONE', #160, 0.08342499999999994365, 0.7853981633974420618 ) ;
#151 = ORIENTED_EDGE ( 'NONE', *, *, #134, .T. ) ;
#152 = EDGE_CURVE ( 'NONE', #67, #120, #109, .T. ) ;
#153 = CYLINDRICAL_SURFACE ( 'NONE', #36, 0.09842500000000001248 ) ;
#154 = CARTESIAN_POINT ( 'NONE',  ( 0.0000000000000000000, 0.0000000000000000000, 0.0000000000000000000 ) ) ;
#155 = DIRECTION ( 'NONE',  ( 1.000000000000000000, 0.0000000000000000000, 0.0000000000000000000 ) ) ;
#156 = DIRECTION ( 'NONE',  ( 0.2588190451025217387, 0.0000000000000000000, 0.9659258262890679791 ) ) ;
#157 = VECTOR ( 'NONE', #167, 39.37007874015748854 ) ;
#158 = DIRECTION ( 'NONE',  ( 0.0000000000000000000, 0.0000000000000000000, -1.000000000000000000 ) ) ;
#159 = ADVANCED_FACE ( 'NONE', ( #145 ), #2, .T. ) ;
#160 = AXIS2_PLACEMENT_3D ( 'NONE', #215, #54, #38 ) ;
#161 = MECHANICAL_DESIGN_GEOMETRIC_PRESENTATION_REPRESENTATION (  '', ( #119 ), #40 ) ;
#162 = ADVANCED_FACE ( 'NONE', ( #189 ), #246, .T. ) ;
#163 = AXIS2_PLACEMENT_3D ( 'NONE', #243, #170, #14 ) ;
#164 = FACE_OUTER_BOUND ( 'NONE', #208, .T. ) ;
#165 =( GEOMETRIC_REPRESENTATION_CONTEXT ( 3 ) GLOBAL_UNCERTAINTY_ASSIGNED_CONTEXT ( ( #198 ) ) GLOBAL_UNIT_ASSIGNED_CONTEXT ( ( #226, #84, #28 ) ) REPRESENTATION_CONTEXT ( 'NONE', 'WORKASPACE' ) );
#166 = ORIENTED_EDGE ( 'NONE', *, *, #48, .T. ) ;
#167 = DIRECTION ( 'NONE',  ( -0.7071067811865430208, 0.0000000000000000000, -0.7071067811865517916 ) ) ;
#168 =( LENGTH_UNIT ( ) NAMED_UNIT ( * ) SI_UNIT ( $, .METRE. ) );
#169 = ORIENTED_EDGE ( 'NONE', *, *, #79, .F. ) ;
#170 = DIRECTION ( 'NONE',  ( 0.0000000000000000000, 0.0000000000000000000, -1.000000000000000000 ) ) ;
#171 = CARTESIAN_POINT ( 'NONE',  ( 0.09842500000000001248, 1.205358612060782468E-17, 0.3526340167055667107 ) ) ;
#172 = DIRECTION ( 'NONE',  ( -0.0000000000000000000, -0.0000000000000000000, -1.000000000000000000 ) ) ;
#173 = CARTESIAN_POINT ( 'NONE',  ( 0.0000000000000000000, 0.0000000000000000000, 0.3526340167055667107 ) ) ;
#174 = DIRECTION ( 'NONE',  ( -1.000000000000000000, 0.0000000000000000000, 0.0000000000000000000 ) ) ;
#175 = UNCERTAINTY_MEASURE_WITH_UNIT (LENGTH_MEASURE( 1.000000000000000082E-05 ), #46, 'distance_accuracy_value', 'NONE');
#176 = AXIS2_PLACEMENT_3D ( 'NONE', #209, #127, #206 ) ;
#177 = EDGE_CURVE ( 'NONE', #44, #30, #29, .T. ) ;
#178 =( NAMED_UNIT ( * ) PLANE_ANGLE_UNIT ( ) SI_UNIT ( $, .RADIAN. ) );
#179 = AXIS2_PLACEMENT_3D ( 'NONE', #78, #193, #114 ) ;
#180 = COLOUR_RGB ( '',0.7921568627450980005, 0.8196078431372548767, 0.9333333333333333481 ) ;
#181 = EDGE_LOOP ( 'NONE', ( #166, #187 ) ) ;
#182 = CARTESIAN_POINT ( 'NONE',  ( -0.08342499999999994365, 0.0000000000000000000, 1.968503999999999809 ) ) ;
#183 = ORIENTED_EDGE ( 'NONE', *, *, #244, .T. ) ;
#184 = PRODUCT_DEFINITION_CONTEXT ( 'detailed design', #58, 'design' ) ;
#185 = ADVANCED_FACE ( 'NONE', ( #73 ), #53, .T. ) ;
#186 = DIRECTION ( 'NONE',  ( -0.0000000000000000000, -0.0000000000000000000, -1.000000000000000000 ) ) ;
#187 = ORIENTED_EDGE ( 'NONE', *, *, #79, .T. ) ;
#188 = PRODUCT_DEFINITION_SHAPE ( 'NONE', 'NONE',  #22 ) ;
#189 = FACE_OUTER_BOUND ( 'NONE', #61, .T. ) ;
#190 = ORIENTED_EDGE ( 'NONE', *, *, #55, .F. ) ;
#191 = DIRECTION ( 'NONE',  ( 0.0000000000000000000, 0.0000000000000000000, 1.000000000000000000 ) ) ;
#192 = APPLICATION_PROTOCOL_DEFINITION ( 'draft international standard', 'automotive_design', 1998, #68 ) ;
#193 = DIRECTION ( 'NONE',  ( 0.0000000000000000000, 0.0000000000000000000, 1.000000000000000000 ) ) ;
#194 = CARTESIAN_POINT ( 'NONE',  ( -0.09842500000000001248, 0.0000000000000000000, 0.3526340167055667107 ) ) ;
#195 = PRODUCT_DEFINITION_FORMATION_WITH_SPECIFIED_SOURCE ( 'ANY', '', #23, .NOT_KNOWN. ) ;
#196 = ADVANCED_FACE ( 'NONE', ( #164 ), #88, .F. ) ;
#197 = ADVANCED_BREP_SHAPE_REPRESENTATION ( 'Micro_RTCM-050-1', ( #242, #7 ), #11 ) ;
#198 = UNCERTAINTY_MEASURE_WITH_UNIT (LENGTH_MEASURE( 1.000000000000000082E-05 ), #226, 'distance_accuracy_value', 'NONE');
#199 = VECTOR ( 'NONE', #186, 39.37007874015748143 ) ;
#200 = LENGTH_MEASURE_WITH_UNIT ( LENGTH_MEASURE( 0.02539999999999999897 ), #140 );
#201 = EDGE_LOOP ( 'NONE', ( #169, #151, #227, #237 ) ) ;
#202 = ORIENTED_EDGE ( 'NONE', *, *, #26, .F. ) ;
#203 = VERTEX_POINT ( 'NONE', #69 ) ;
#204 = ADVANCED_FACE ( 'NONE', ( #129 ), #232, .T. ) ;
#205 = AXIS2_PLACEMENT_3D ( 'NONE', #143, #224, #45 ) ;
#206 = DIRECTION ( 'NONE',  ( 1.000000000000000000, 0.0000000000000000000, 0.0000000000000000000 ) ) ;
#207 = CARTESIAN_POINT ( 'NONE',  ( -0.003936999999999995191, 4.821434448243123477E-19, 0.0000000000000000000 ) ) ;
#208 = EDGE_LOOP ( 'NONE', ( #146, #42 ) ) ;
#209 = CARTESIAN_POINT ( 'NONE',  ( 0.0000000000000000000, 0.0000000000000000000, 0.0000000000000000000 ) ) ;
#210 = DIRECTION ( 'NONE',  ( -0.2588190451025217387, 3.169619151431776651E-17, 0.9659258262890679791 ) ) ;
#211 = CIRCLE ( 'NONE', #221, 0.08342499999999994365 ) ;
#212 = MECHANICAL_DESIGN_GEOMETRIC_PRESENTATION_REPRESENTATION (  '', ( #5 ), #165 ) ;
#213 = CARTESIAN_POINT ( 'NONE',  ( 0.0000000000000000000, 0.0000000000000000000, 1.968503999999999809 ) ) ;
#214 = SHAPE_DEFINITION_REPRESENTATION ( #188, #197 ) ;
#215 = CARTESIAN_POINT ( 'NONE',  ( 0.0000000000000000000, 0.0000000000000000000, 1.968503999999999809 ) ) ;
#216 = CIRCLE ( 'NONE', #97, 0.09842500000000001248 ) ;
#217 = VECTOR ( 'NONE', #50, 39.37007874015748143 ) ;
#218 = DIMENSIONAL_EXPONENTS ( 1.000000000000000000, 0.0000000000000000000, 0.0000000000000000000, 0.0000000000000000000, 0.0000000000000000000, 0.0000000000000000000, 0.0000000000000000000 ) ;
#219 = ADVANCED_FACE ( 'NONE', ( #108 ), #9, .T. ) ;
#220 = ORIENTED_EDGE ( 'NONE', *, *, #117, .F. ) ;
#221 = AXIS2_PLACEMENT_3D ( 'NONE', #16, #19, #92 ) ;
#222 = ORIENTED_EDGE ( 'NONE', *, *, #152, .T. ) ;
#223 = SURFACE_STYLE_FILL_AREA ( #105 ) ;
#224 = DIRECTION ( 'NONE',  ( 0.0000000000000000000, 0.0000000000000000000, 1.000000000000000000 ) ) ;
#225 = ORIENTED_EDGE ( 'NONE', *, *, #102, .F. ) ;
#226 =( CONVERSION_BASED_UNIT ( 'INCH', #121 ) LENGTH_UNIT ( ) NAMED_UNIT ( #218 ) );
#227 = ORIENTED_EDGE ( 'NONE', *, *, #236, .F. ) ;
#228 = CARTESIAN_POINT ( 'NONE',  ( 0.0000000000000000000, 0.0000000000000000000, 0.0000000000000000000 ) ) ;
#229 = DIRECTION ( 'NONE',  ( -1.000000000000000000, 0.0000000000000000000, 0.0000000000000000000 ) ) ;
#230 = DIRECTION ( 'NONE',  ( 0.0000000000000000000, 0.0000000000000000000, 1.000000000000000000 ) ) ;
#231 = CARTESIAN_POINT ( 'NONE',  ( 0.003936999999999995191, 0.0000000000000000000, 0.0000000000000000000 ) ) ;
#232 = CONICAL_SURFACE ( 'NONE', #176, 0.003936999999999995191, 0.2617993877991504625 ) ;
#233 = CARTESIAN_POINT ( 'NONE',  ( -0.08342499999999994365, 0.0000000000000000000, 1.968503999999999809 ) ) ;
#234 = LINE ( 'NONE', #247, #72 ) ;
#235 = PRESENTATION_STYLE_ASSIGNMENT (( #81 ) ) ;
#236 = EDGE_CURVE ( 'NONE', #44, #67, #90, .T. ) ;
#237 = ORIENTED_EDGE ( 'NONE', *, *, #244, .F. ) ;
#238 = FILL_AREA_STYLE_COLOUR ( '', #95 ) ;
#239 = ORIENTED_EDGE ( 'NONE', *, *, #117, .T. ) ;
#240 = DIRECTION ( 'NONE',  ( -1.000000000000000000, 0.0000000000000000000, 0.0000000000000000000 ) ) ;
#241 = CARTESIAN_POINT ( 'NONE',  ( 0.08342499999999994365, 1.113510102124730410E-17, 1.968503999999999809 ) ) ;
#242 = MANIFOLD_SOLID_BREP ( 'Cut-Revolve1', #136 ) ;
#243 = CARTESIAN_POINT ( 'NONE',  ( 0.0000000000000000000, 0.0000000000000000000, 1.968503999999999809 ) ) ;
#244 = EDGE_CURVE ( 'NONE', #122, #44, #103, .T. ) ;
#245 = VERTEX_POINT ( 'NONE', #241 ) ;
#246 = CYLINDRICAL_SURFACE ( 'NONE', #132, 0.09842500000000001248 ) ;
#247 = CARTESIAN_POINT ( 'NONE',  ( 0.08342499999999994365, 1.021661592188678507E-17, 1.968503999999999809 ) ) ;
#248 = SURFACE_SIDE_STYLE ('',( #17 ) ) ;
#249 = DIRECTION ( 'NONE',  ( -1.000000000000000000, 0.0000000000000000000, 0.0000000000000000000 ) ) ;
ENDSEC;
END-ISO-10303-21;
