ISO-10303-21;
HEADER;
FILE_DESCRIPTION (( 'STEP AP214' ),
    '1' );
FILE_NAME ('Micro_SEM-140-04.STEP',
    '2021-09-02T01:42:35',
    ( '' ),
    ( '' ),
    'SwSTEP 2.0',
    'SolidWorks 2020',
    '' );
FILE_SCHEMA (( 'AUTOMOTIVE_DESIGN' ));
ENDSEC;

DATA;
#1 = DIRECTION ( 'NONE',  ( -0.0000000000000000000, -0.0000000000000000000, -1.000000000000000000 ) ) ;
#2 = EDGE_CURVE ( 'NONE', #112, #160, #197, .T. ) ;
#3 = CARTESIAN_POINT ( 'NONE',  ( 0.07875000000000061118, 1.056257864264595965E-17, 1.500000000000000222 ) ) ;
#4 = ORIENTED_EDGE ( 'NONE', *, *, #179, .F. ) ;
#5 = FACE_OUTER_BOUND ( 'NONE', #137, .T. ) ;
#6 = VERTEX_POINT ( 'NONE', #96 ) ;
#7 = CARTESIAN_POINT ( 'NONE',  ( 0.0000000000000000000, 0.0000000000000000000, 0.0000000000000000000 ) ) ;
#8 = VECTOR ( 'NONE', #109, 39.37007874015748143 ) ;
#9 = DIRECTION ( 'NONE',  ( -1.000000000000000000, 0.0000000000000000000, 1.224646799147353454E-16 ) ) ;
#10 =( CONVERSION_BASED_UNIT ( 'INCH', #29 ) LENGTH_UNIT ( ) NAMED_UNIT ( #185 ) );
#11 = CIRCLE ( 'NONE', #297, 0.07875000000000061118 ) ;
#12 = AXIS2_PLACEMENT_3D ( 'NONE', #70, #193, #287 ) ;
#13 = EDGE_CURVE ( 'NONE', #116, #290, #209, .T. ) ;
#14 = CARTESIAN_POINT ( 'NONE',  ( 0.0000000000000000000, 0.0000000000000000000, 1.500000000000000222 ) ) ;
#15 = SHAPE_DEFINITION_REPRESENTATION ( #276, #213 ) ;
#16 = PRODUCT_RELATED_PRODUCT_CATEGORY ( 'part', '', ( #226 ) ) ;
#17 = EDGE_LOOP ( 'NONE', ( #27, #78 ) ) ;
#18 = DIRECTION ( 'NONE',  ( -0.1736481776669312194, 2.126576849575783625E-17, 0.9848077530122077983 ) ) ;
#19 = DIRECTION ( 'NONE',  ( -1.000000000000000000, 0.0000000000000000000, 0.0000000000000000000 ) ) ;
#20 = EDGE_LOOP ( 'NONE', ( #241, #38, #250, #162 ) ) ;
#21 = CYLINDRICAL_SURFACE ( 'NONE', #229, 0.09375000000000001388 ) ;
#22 = DIRECTION ( 'NONE',  ( -0.0000000000000000000, -0.0000000000000000000, -1.000000000000000000 ) ) ;
#23 = CIRCLE ( 'NONE', #83, 0.07875000000000061118 ) ;
#24 = ORIENTED_EDGE ( 'NONE', *, *, #35, .F. ) ;
#25 = PRODUCT_DEFINITION_CONTEXT ( 'detailed design', #281, 'design' ) ;
#26 = CARTESIAN_POINT ( 'NONE',  ( 0.07022970000000001989, 8.600657731007889654E-18, -8.600657731007891194E-18 ) ) ;
#27 = ORIENTED_EDGE ( 'NONE', *, *, #35, .T. ) ;
#28 = FACE_OUTER_BOUND ( 'NONE', #247, .T. ) ;
#29 = LENGTH_MEASURE_WITH_UNIT ( LENGTH_MEASURE( 0.02539999999999999897 ), #239 );
#30 = CARTESIAN_POINT ( 'NONE',  ( -0.07022969999999997825, 1.004086073650716337E-17, 0.2500000000000000000 ) ) ;
#31 = CARTESIAN_POINT ( 'NONE',  ( 0.0000000000000000000, 0.0000000000000000000, 0.0000000000000000000 ) ) ;
#32 = ORIENTED_EDGE ( 'NONE', *, *, #68, .F. ) ;
#33 = DIRECTION ( 'NONE',  ( -1.224646799147353454E-16, -0.0000000000000000000, -1.000000000000000000 ) ) ;
#34 = AXIS2_PLACEMENT_3D ( 'NONE', #154, #103, #204 ) ;
#35 = EDGE_CURVE ( 'NONE', #6, #176, #251, .T. ) ;
#36 = EDGE_LOOP ( 'NONE', ( #233, #118, #24, #108 ) ) ;
#37 = VECTOR ( 'NONE', #1, 39.37007874015748143 ) ;
#38 = ORIENTED_EDGE ( 'NONE', *, *, #68, .T. ) ;
#39 = EDGE_LOOP ( 'NONE', ( #86, #207, #202, #102 ) ) ;
#40 = APPLICATION_CONTEXT ( 'automotive_design' ) ;
#41 = ORIENTED_EDGE ( 'NONE', *, *, #13, .T. ) ;
#42 = STYLED_ITEM ( 'NONE', ( #234 ), #180 ) ;
#43 = DIRECTION ( 'NONE',  ( 1.224646799147353454E-16, 0.0000000000000000000, 1.000000000000000000 ) ) ;
#44 = ORIENTED_EDGE ( 'NONE', *, *, #2, .F. ) ;
#45 = CARTESIAN_POINT ( 'NONE',  ( 0.0000000000000000000, 0.0000000000000000000, 1.500000000000000222 ) ) ;
#46 =( GEOMETRIC_REPRESENTATION_CONTEXT ( 3 ) GLOBAL_UNCERTAINTY_ASSIGNED_CONTEXT ( ( #164 ) ) GLOBAL_UNIT_ASSIGNED_CONTEXT ( ( #10, #171, #71 ) ) REPRESENTATION_CONTEXT ( 'NONE', 'WORKASPACE' ) );
#47 = ORIENTED_EDGE ( 'NONE', *, *, #128, .T. ) ;
#48 = FILL_AREA_STYLE_COLOUR ( '', #104 ) ;
#49 = ADVANCED_FACE ( 'NONE', ( #172 ), #53, .T. ) ;
#50 = DIRECTION ( 'NONE',  ( 1.000000000000000000, 0.0000000000000000000, 0.0000000000000000000 ) ) ;
#51 = CARTESIAN_POINT ( 'NONE',  ( 0.09375000000000004163, 1.148106374200644017E-17, 0.3833902497819536292 ) ) ;
#52 =( GEOMETRIC_REPRESENTATION_CONTEXT ( 3 ) GLOBAL_UNCERTAINTY_ASSIGNED_CONTEXT ( ( #168 ) ) GLOBAL_UNIT_ASSIGNED_CONTEXT ( ( #119, #73, #169 ) ) REPRESENTATION_CONTEXT ( 'NONE', 'WORKASPACE' ) );
#53 = CYLINDRICAL_SURFACE ( 'NONE', #220, 0.07022970000000001989 ) ;
#54 = FACE_OUTER_BOUND ( 'NONE', #191, .T. ) ;
#55 = APPLICATION_PROTOCOL_DEFINITION ( 'draft international standard', 'automotive_design', 1998, #40 ) ;
#56 = DIRECTION ( 'NONE',  ( 0.0000000000000000000, 0.0000000000000000000, 1.000000000000000000 ) ) ;
#57 = VECTOR ( 'NONE', #61, 39.37007874015748143 ) ;
#58 = ADVANCED_FACE ( 'NONE', ( #54 ), #85, .T. ) ;
#59 = FACE_OUTER_BOUND ( 'NONE', #17, .T. ) ;
#60 = DIRECTION ( 'NONE',  ( -1.000000000000000000, 0.0000000000000000000, 0.0000000000000000000 ) ) ;
#61 = DIRECTION ( 'NONE',  ( 0.1736481776669314414, 0.0000000000000000000, 0.9848077530122077983 ) ) ;
#62 = EDGE_CURVE ( 'NONE', #112, #218, #11, .T. ) ;
#63 = ORIENTED_EDGE ( 'NONE', *, *, #2, .T. ) ;
#64 = EDGE_CURVE ( 'NONE', #282, #160, #98, .T. ) ;
#65 = CONICAL_SURFACE ( 'NONE', #249, 0.07875000000000061118, 0.7853981633974562726 ) ;
#66 = DIRECTION ( 'NONE',  ( -1.000000000000000000, 0.0000000000000000000, 0.0000000000000000000 ) ) ;
#67 = SURFACE_SIDE_STYLE ('',( #141 ) ) ;
#68 = EDGE_CURVE ( 'NONE', #160, #290, #80, .T. ) ;
#69 = ORIENTED_EDGE ( 'NONE', *, *, #62, .T. ) ;
#70 = CARTESIAN_POINT ( 'NONE',  ( 0.0000000000000000000, 0.0000000000000000000, 1.500000000000000222 ) ) ;
#71 =( NAMED_UNIT ( * ) SI_UNIT ( $, .STERADIAN. ) SOLID_ANGLE_UNIT ( ) );
#72 = VECTOR ( 'NONE', #198, 39.37007874015748143 ) ;
#73 =( NAMED_UNIT ( * ) PLANE_ANGLE_UNIT ( ) SI_UNIT ( $, .RADIAN. ) );
#74 = SURFACE_STYLE_USAGE ( .BOTH. , #67 ) ;
#75 = DIRECTION ( 'NONE',  ( 1.000000000000000000, 0.0000000000000000000, 0.0000000000000000000 ) ) ;
#76 = AXIS2_PLACEMENT_3D ( 'NONE', #153, #293, #75 ) ;
#77 = VECTOR ( 'NONE', #18, 39.37007874015748143 ) ;
#78 = ORIENTED_EDGE ( 'NONE', *, *, #124, .T. ) ;
#79 = PRODUCT_DEFINITION ( 'UNKNOWN', '', #274, #25 ) ;
#80 = LINE ( 'NONE', #267, #72 ) ;
#81 =( NAMED_UNIT ( * ) SI_UNIT ( $, .STERADIAN. ) SOLID_ANGLE_UNIT ( ) );
#82 = ORIENTED_EDGE ( 'NONE', *, *, #230, .F. ) ;
#83 = AXIS2_PLACEMENT_3D ( 'NONE', #45, #138, #159 ) ;
#84 = VECTOR ( 'NONE', #243, 39.37007874015748143 ) ;
#85 = CONICAL_SURFACE ( 'NONE', #286, 0.07875000000000061118, 0.7853981633974562726 ) ;
#86 = ORIENTED_EDGE ( 'NONE', *, *, #99, .F. ) ;
#87 = ADVANCED_FACE ( 'NONE', ( #266 ), #294, .T. ) ;
#88 = VECTOR ( 'NONE', #237, 39.37007874015748143 ) ;
#89 = CYLINDRICAL_SURFACE ( 'NONE', #130, 0.07022970000000001989 ) ;
#90 = ORIENTED_EDGE ( 'NONE', *, *, #253, .T. ) ;
#91 = ORIENTED_EDGE ( 'NONE', *, *, #288, .F. ) ;
#92 = ORIENTED_EDGE ( 'NONE', *, *, #128, .F. ) ;
#93 = CARTESIAN_POINT ( 'NONE',  ( 3.061616997868383634E-17, 0.0000000000000000000, 0.2500000000000000000 ) ) ;
#94 = CIRCLE ( 'NONE', #225, 0.07022970000000000601 ) ;
#95 = PLANE ( 'NONE',  #12 ) ;
#96 = CARTESIAN_POINT ( 'NONE',  ( -0.07022970000000001989, 0.0000000000000000000, 1.720131546201578239E-17 ) ) ;
#97 =( LENGTH_UNIT ( ) NAMED_UNIT ( * ) SI_UNIT ( $, .METRE. ) );
#98 = CIRCLE ( 'NONE', #291, 0.09375000000000001388 ) ;
#99 = EDGE_CURVE ( 'NONE', #277, #176, #238, .T. ) ;
#100 = CARTESIAN_POINT ( 'NONE',  ( 0.0000000000000000000, 0.0000000000000000000, 1.485000000000000986 ) ) ;
#101 = DIRECTION ( 'NONE',  ( 1.000000000000000000, 0.0000000000000000000, 0.0000000000000000000 ) ) ;
#102 = ORIENTED_EDGE ( 'NONE', *, *, #124, .F. ) ;
#103 = DIRECTION ( 'NONE',  ( 1.224646799147353454E-16, 0.0000000000000000000, 1.000000000000000000 ) ) ;
#104 = COLOUR_RGB ( '',0.7921568627450980005, 0.8196078431372548767, 0.9333333333333333481 ) ;
#105 = FACE_OUTER_BOUND ( 'NONE', #20, .T. ) ;
#106 = ADVANCED_FACE ( 'NONE', ( #135 ), #271, .T. ) ;
#107 = LINE ( 'NONE', #258, #57 ) ;
#108 = ORIENTED_EDGE ( 'NONE', *, *, #110, .F. ) ;
#109 = DIRECTION ( 'NONE',  ( -1.224646799147353454E-16, -0.0000000000000000000, -1.000000000000000000 ) ) ;
#110 = EDGE_CURVE ( 'NONE', #187, #6, #111, .T. ) ;
#111 = LINE ( 'NONE', #208, #150 ) ;
#112 = VERTEX_POINT ( 'NONE', #3 ) ;
#113 = DIRECTION ( 'NONE',  ( -1.224646799147353454E-16, -0.0000000000000000000, -1.000000000000000000 ) ) ;
#114 = PRESENTATION_STYLE_ASSIGNMENT (( #256 ) ) ;
#115 = PRESENTATION_LAYER_ASSIGNMENT (  '', '', ( #42 ) ) ;
#116 = VERTEX_POINT ( 'NONE', #183 ) ;
#117 = CARTESIAN_POINT ( 'NONE',  ( -0.07875000000000061118, 0.0000000000000000000, 1.500000000000000222 ) ) ;
#118 = ORIENTED_EDGE ( 'NONE', *, *, #99, .T. ) ;
#119 =( CONVERSION_BASED_UNIT ( 'INCH', #170 ) LENGTH_UNIT ( ) NAMED_UNIT ( #203 ) );
#120 = ADVANCED_FACE ( 'NONE', ( #28 ), #65, .T. ) ;
#121 = CARTESIAN_POINT ( 'NONE',  ( 3.061616997868383634E-17, 0.0000000000000000000, 0.2500000000000000000 ) ) ;
#122 = ORIENTED_EDGE ( 'NONE', *, *, #62, .F. ) ;
#123 = DIRECTION ( 'NONE',  ( -1.224646799147353454E-16, -0.0000000000000000000, -1.000000000000000000 ) ) ;
#124 = EDGE_CURVE ( 'NONE', #176, #6, #173, .T. ) ;
#125 = AXIS2_PLACEMENT_3D ( 'NONE', #93, #43, #50 ) ;
#126 = DIRECTION ( 'NONE',  ( 0.0000000000000000000, 0.0000000000000000000, -1.000000000000000000 ) ) ;
#127 = ORIENTED_EDGE ( 'NONE', *, *, #298, .F. ) ;
#128 = EDGE_CURVE ( 'NONE', #218, #282, #278, .T. ) ;
#129 = EDGE_LOOP ( 'NONE', ( #32, #269, #211, #4 ) ) ;
#130 = AXIS2_PLACEMENT_3D ( 'NONE', #166, #186, #214 ) ;
#131 = DIRECTION ( 'NONE',  ( -0.0000000000000000000, -0.0000000000000000000, -1.000000000000000000 ) ) ;
#132 = ADVANCED_FACE ( 'NONE', ( #260 ), #95, .T. ) ;
#133 = AXIS2_PLACEMENT_3D ( 'NONE', #149, #216, #224 ) ;
#134 = CARTESIAN_POINT ( 'NONE',  ( -0.07875000000000061118, 0.0000000000000000000, 1.500000000000000222 ) ) ;
#135 = FACE_OUTER_BOUND ( 'NONE', #129, .T. ) ;
#136 = FACE_OUTER_BOUND ( 'NONE', #39, .T. ) ;
#137 = EDGE_LOOP ( 'NONE', ( #165, #127, #151, #182 ) ) ;
#138 = DIRECTION ( 'NONE',  ( 0.0000000000000000000, 0.0000000000000000000, 1.000000000000000000 ) ) ;
#139 = MECHANICAL_DESIGN_GEOMETRIC_PRESENTATION_REPRESENTATION (  '', ( #156 ), #46 ) ;
#140 = DIMENSIONAL_EXPONENTS ( 1.000000000000000000, 0.0000000000000000000, 0.0000000000000000000, 0.0000000000000000000, 0.0000000000000000000, 0.0000000000000000000, 0.0000000000000000000 ) ;
#141 = SURFACE_STYLE_FILL_AREA ( #143 ) ;
#142 = PRODUCT_CONTEXT ( 'NONE', #40, 'mechanical' ) ;
#143 = FILL_AREA_STYLE ('',( #48 ) ) ;
#144 = ADVANCED_FACE ( 'NONE', ( #5 ), #177, .T. ) ;
#145 = DIRECTION ( 'NONE',  ( -1.224646799147353454E-16, -0.0000000000000000000, -1.000000000000000000 ) ) ;
#146 = CARTESIAN_POINT ( 'NONE',  ( 3.061616997868383634E-17, 0.0000000000000000000, 0.2500000000000000000 ) ) ;
#147 = CARTESIAN_POINT ( 'NONE',  ( 0.0000000000000000000, 0.0000000000000000000, 1.500000000000000222 ) ) ;
#148 = LENGTH_MEASURE_WITH_UNIT ( LENGTH_MEASURE( 0.02539999999999999897 ), #97 );
#149 = CARTESIAN_POINT ( 'NONE',  ( 0.0000000000000000000, 0.0000000000000000000, 0.0000000000000000000 ) ) ;
#150 = VECTOR ( 'NONE', #279, 39.37007874015748143 ) ;
#151 = ORIENTED_EDGE ( 'NONE', *, *, #194, .T. ) ;
#152 = DIRECTION ( 'NONE',  ( 0.0000000000000000000, 0.0000000000000000000, 1.000000000000000000 ) ) ;
#153 = CARTESIAN_POINT ( 'NONE',  ( 4.695176422197739051E-17, 0.0000000000000000000, 0.3833902497819536292 ) ) ;
#154 = CARTESIAN_POINT ( 'NONE',  ( 3.061616997868383634E-17, 0.0000000000000000000, 0.2500000000000000000 ) ) ;
#155 = ORIENTED_EDGE ( 'NONE', *, *, #189, .T. ) ;
#156 = STYLED_ITEM ( 'NONE', ( #114 ), #213 ) ;
#157 = ADVANCED_FACE ( 'NONE', ( #136 ), #89, .T. ) ;
#158 = FILL_AREA_STYLE_COLOUR ( '', #199 ) ;
#159 = DIRECTION ( 'NONE',  ( 1.000000000000000000, 0.0000000000000000000, 0.0000000000000000000 ) ) ;
#160 = VERTEX_POINT ( 'NONE', #262 ) ;
#161 =( GEOMETRIC_REPRESENTATION_CONTEXT ( 3 ) GLOBAL_UNCERTAINTY_ASSIGNED_CONTEXT ( ( #283 ) ) GLOBAL_UNIT_ASSIGNED_CONTEXT ( ( #289, #264, #81 ) ) REPRESENTATION_CONTEXT ( 'NONE', 'WORKASPACE' ) );
#162 = ORIENTED_EDGE ( 'NONE', *, *, #184, .F. ) ;
#163 = CARTESIAN_POINT ( 'NONE',  ( 0.0000000000000000000, 0.0000000000000000000, 1.500000000000000222 ) ) ;
#164 = UNCERTAINTY_MEASURE_WITH_UNIT (LENGTH_MEASURE( 1.000000000000000082E-05 ), #10, 'distance_accuracy_value', 'NONE');
#165 = ORIENTED_EDGE ( 'NONE', *, *, #253, .F. ) ;
#166 = CARTESIAN_POINT ( 'NONE',  ( 0.0000000000000000000, 0.0000000000000000000, 0.0000000000000000000 ) ) ;
#167 = AXIS2_PLACEMENT_3D ( 'NONE', #232, #22, #60 ) ;
#168 = UNCERTAINTY_MEASURE_WITH_UNIT (LENGTH_MEASURE( 1.000000000000000082E-05 ), #119, 'distance_accuracy_value', 'NONE');
#169 =( NAMED_UNIT ( * ) SI_UNIT ( $, .STERADIAN. ) SOLID_ANGLE_UNIT ( ) );
#170 = LENGTH_MEASURE_WITH_UNIT ( LENGTH_MEASURE( 0.02539999999999999897 ), #210 );
#171 =( NAMED_UNIT ( * ) PLANE_ANGLE_UNIT ( ) SI_UNIT ( $, .RADIAN. ) );
#172 = FACE_OUTER_BOUND ( 'NONE', #36, .T. ) ;
#173 = CIRCLE ( 'NONE', #206, 0.07022970000000001989 ) ;
#174 = CARTESIAN_POINT ( 'NONE',  ( 0.07875000000000061118, 9.644093543285480678E-18, 1.500000000000000222 ) ) ;
#175 = ORIENTED_EDGE ( 'NONE', *, *, #194, .F. ) ;
#176 = VERTEX_POINT ( 'NONE', #261 ) ;
#177 = CONICAL_SURFACE ( 'NONE', #125, 0.07022970000000000601, 0.1745329251994339470 ) ;
#178 = CARTESIAN_POINT ( 'NONE',  ( 1.053276796084075227E-33, 0.0000000000000000000, 8.600657731007891194E-18 ) ) ;
#179 = EDGE_CURVE ( 'NONE', #290, #116, #252, .T. ) ;
#180 = MANIFOLD_SOLID_BREP ( 'Cut-Revolve1', #190 ) ;
#181 = CARTESIAN_POINT ( 'NONE',  ( 0.07022970000000004764, 0.0000000000000000000, 0.2500000000000000000 ) ) ;
#182 = ORIENTED_EDGE ( 'NONE', *, *, #179, .T. ) ;
#183 = CARTESIAN_POINT ( 'NONE',  ( -0.09374999999999995837, 0.0000000000000000000, 0.3833902497819536292 ) ) ;
#184 = EDGE_CURVE ( 'NONE', #282, #116, #242, .T. ) ;
#185 = DIMENSIONAL_EXPONENTS ( 1.000000000000000000, 0.0000000000000000000, 0.0000000000000000000, 0.0000000000000000000, 0.0000000000000000000, 0.0000000000000000000, 0.0000000000000000000 ) ;
#186 = DIRECTION ( 'NONE',  ( -1.224646799147353454E-16, -0.0000000000000000000, -1.000000000000000000 ) ) ;
#187 = VERTEX_POINT ( 'NONE', #30 ) ;
#188 = CARTESIAN_POINT ( 'NONE',  ( 1.053276796084075227E-33, 0.0000000000000000000, 8.600657731007891194E-18 ) ) ;
#189 = EDGE_CURVE ( 'NONE', #218, #112, #23, .T. ) ;
#190 = CLOSED_SHELL ( 'NONE', ( #49, #87, #58, #257, #106, #132, #120, #144, #157, #248 ) ) ;
#191 = EDGE_LOOP ( 'NONE', ( #122, #63, #227, #92 ) ) ;
#192 = CARTESIAN_POINT ( 'NONE',  ( 4.695176422197739051E-17, 0.0000000000000000000, 0.3833902497819536292 ) ) ;
#193 = DIRECTION ( 'NONE',  ( 0.0000000000000000000, 0.0000000000000000000, 1.000000000000000000 ) ) ;
#194 = EDGE_CURVE ( 'NONE', #277, #290, #107, .T. ) ;
#195 = AXIS2_PLACEMENT_3D ( 'NONE', #231, #270, #200 ) ;
#196 = DIRECTION ( 'NONE',  ( 0.0000000000000000000, 0.0000000000000000000, -1.000000000000000000 ) ) ;
#197 = LINE ( 'NONE', #174, #84 ) ;
#198 = DIRECTION ( 'NONE',  ( -0.0000000000000000000, -0.0000000000000000000, -1.000000000000000000 ) ) ;
#199 = COLOUR_RGB ( '',0.7921568627450980005, 0.8196078431372548767, 0.9333333333333333481 ) ;
#200 = DIRECTION ( 'NONE',  ( 1.000000000000000000, 0.0000000000000000000, 0.0000000000000000000 ) ) ;
#201 = CARTESIAN_POINT ( 'NONE',  ( -0.09375000000000001388, 0.0000000000000000000, 1.485000000000000986 ) ) ;
#202 = ORIENTED_EDGE ( 'NONE', *, *, #110, .T. ) ;
#203 = DIMENSIONAL_EXPONENTS ( 1.000000000000000000, 0.0000000000000000000, 0.0000000000000000000, 0.0000000000000000000, 0.0000000000000000000, 0.0000000000000000000, 0.0000000000000000000 ) ;
#204 = DIRECTION ( 'NONE',  ( 1.000000000000000000, 0.0000000000000000000, 0.0000000000000000000 ) ) ;
#205 = FILL_AREA_STYLE ('',( #158 ) ) ;
#206 = AXIS2_PLACEMENT_3D ( 'NONE', #188, #113, #9 ) ;
#207 = ORIENTED_EDGE ( 'NONE', *, *, #298, .T. ) ;
#208 = CARTESIAN_POINT ( 'NONE',  ( -0.07022970000000001989, 0.0000000000000000000, 8.600657731007891194E-18 ) ) ;
#209 = CIRCLE ( 'NONE', #76, 0.09375000000000001388 ) ;
#210 =( LENGTH_UNIT ( ) NAMED_UNIT ( * ) SI_UNIT ( $, .METRE. ) );
#211 = ORIENTED_EDGE ( 'NONE', *, *, #184, .T. ) ;
#212 = DIRECTION ( 'NONE',  ( -1.224646799147353454E-16, -0.0000000000000000000, -1.000000000000000000 ) ) ;
#213 = ADVANCED_BREP_SHAPE_REPRESENTATION ( 'Micro_SEM-140-04', ( #180, #275 ), #161 ) ;
#214 = DIRECTION ( 'NONE',  ( -1.000000000000000000, 0.0000000000000000000, 1.224646799147353454E-16 ) ) ;
#215 = CIRCLE ( 'NONE', #259, 0.07022970000000000601 ) ;
#216 = DIRECTION ( 'NONE',  ( 0.0000000000000000000, 0.0000000000000000000, 1.000000000000000000 ) ) ;
#217 = DIRECTION ( 'NONE',  ( 0.0000000000000000000, 0.0000000000000000000, -1.000000000000000000 ) ) ;
#218 = VERTEX_POINT ( 'NONE', #134 ) ;
#219 = DIRECTION ( 'NONE',  ( -1.224646799147353454E-16, -0.0000000000000000000, -1.000000000000000000 ) ) ;
#220 = AXIS2_PLACEMENT_3D ( 'NONE', #31, #123, #265 ) ;
#221 = DIRECTION ( 'NONE',  ( 1.000000000000000000, 0.0000000000000000000, 0.0000000000000000000 ) ) ;
#222 = APPLICATION_PROTOCOL_DEFINITION ( 'draft international standard', 'automotive_design', 1998, #281 ) ;
#223 = DIRECTION ( 'NONE',  ( -1.000000000000000000, 0.0000000000000000000, 1.224646799147353454E-16 ) ) ;
#224 = DIRECTION ( 'NONE',  ( 1.000000000000000000, 0.0000000000000000000, -0.0000000000000000000 ) ) ;
#225 = AXIS2_PLACEMENT_3D ( 'NONE', #146, #219, #244 ) ;
#226 = PRODUCT ( 'Micro_SEM-140-04', 'Micro_SEM-140-04', '', ( #142 ) ) ;
#227 = ORIENTED_EDGE ( 'NONE', *, *, #64, .F. ) ;
#228 = LINE ( 'NONE', #255, #77 ) ;
#229 = AXIS2_PLACEMENT_3D ( 'NONE', #295, #131, #19 ) ;
#230 = EDGE_CURVE ( 'NONE', #160, #282, #299, .T. ) ;
#231 = CARTESIAN_POINT ( 'NONE',  ( 0.0000000000000000000, 0.0000000000000000000, 1.485000000000000986 ) ) ;
#232 = CARTESIAN_POINT ( 'NONE',  ( 0.0000000000000000000, 0.0000000000000000000, 1.500000000000000222 ) ) ;
#233 = ORIENTED_EDGE ( 'NONE', *, *, #288, .T. ) ;
#234 = PRESENTATION_STYLE_ASSIGNMENT (( #74 ) ) ;
#235 = AXIS2_PLACEMENT_3D ( 'NONE', #178, #33, #223 ) ;
#236 = ORIENTED_EDGE ( 'NONE', *, *, #189, .F. ) ;
#237 = DIRECTION ( 'NONE',  ( -0.7071067811865531239, 0.0000000000000000000, -0.7071067811865419106 ) ) ;
#238 = LINE ( 'NONE', #26, #8 ) ;
#239 =( LENGTH_UNIT ( ) NAMED_UNIT ( * ) SI_UNIT ( $, .METRE. ) );
#240 = CARTESIAN_POINT ( 'NONE',  ( -0.09375000000000001388, 0.0000000000000000000, 1.500000000000000222 ) ) ;
#241 = ORIENTED_EDGE ( 'NONE', *, *, #64, .T. ) ;
#242 = LINE ( 'NONE', #240, #37 ) ;
#243 = DIRECTION ( 'NONE',  ( 0.7071067811865531239, 8.659560562355003116E-17, -0.7071067811865419106 ) ) ;
#244 = DIRECTION ( 'NONE',  ( -1.000000000000000000, 0.0000000000000000000, 0.0000000000000000000 ) ) ;
#245 = DIRECTION ( 'NONE',  ( -1.000000000000000000, 0.0000000000000000000, 0.0000000000000000000 ) ) ;
#246 = DIRECTION ( 'NONE',  ( -1.000000000000000000, 0.0000000000000000000, 0.0000000000000000000 ) ) ;
#247 = EDGE_LOOP ( 'NONE', ( #44, #236, #47, #82 ) ) ;
#248 = ADVANCED_FACE ( 'NONE', ( #59 ), #296, .F. ) ;
#249 = AXIS2_PLACEMENT_3D ( 'NONE', #163, #217, #66 ) ;
#250 = ORIENTED_EDGE ( 'NONE', *, *, #13, .F. ) ;
#251 = CIRCLE ( 'NONE', #235, 0.07022970000000001989 ) ;
#252 = CIRCLE ( 'NONE', #268, 0.09375000000000001388 ) ;
#253 = EDGE_CURVE ( 'NONE', #187, #116, #228, .T. ) ;
#254 = EDGE_LOOP ( 'NONE', ( #155, #69 ) ) ;
#255 = CARTESIAN_POINT ( 'NONE',  ( -0.07022969999999997825, 8.600657731007888113E-18, 0.2500000000000000000 ) ) ;
#256 = SURFACE_STYLE_USAGE ( .BOTH. , #280 ) ;
#257 = ADVANCED_FACE ( 'NONE', ( #105 ), #21, .T. ) ;
#258 = CARTESIAN_POINT ( 'NONE',  ( 0.07022970000000004764, 0.0000000000000000000, 0.2500000000000000000 ) ) ;
#259 = AXIS2_PLACEMENT_3D ( 'NONE', #121, #145, #246 ) ;
#260 = FACE_OUTER_BOUND ( 'NONE', #254, .T. ) ;
#261 = CARTESIAN_POINT ( 'NONE',  ( 0.07022970000000001989, 8.600657731007889654E-18, 0.0000000000000000000 ) ) ;
#262 = CARTESIAN_POINT ( 'NONE',  ( 0.09375000000000001388, 1.148106374200643401E-17, 1.485000000000000986 ) ) ;
#263 = MECHANICAL_DESIGN_GEOMETRIC_PRESENTATION_REPRESENTATION (  '', ( #42 ), #52 ) ;
#264 =( NAMED_UNIT ( * ) PLANE_ANGLE_UNIT ( ) SI_UNIT ( $, .RADIAN. ) );
#265 = DIRECTION ( 'NONE',  ( -1.000000000000000000, 0.0000000000000000000, 1.224646799147353454E-16 ) ) ;
#266 = FACE_OUTER_BOUND ( 'NONE', #284, .T. ) ;
#267 = CARTESIAN_POINT ( 'NONE',  ( 0.09375000000000001388, 1.148106374200643401E-17, 1.500000000000000222 ) ) ;
#268 = AXIS2_PLACEMENT_3D ( 'NONE', #192, #212, #285 ) ;
#269 = ORIENTED_EDGE ( 'NONE', *, *, #230, .T. ) ;
#270 = DIRECTION ( 'NONE',  ( 0.0000000000000000000, 0.0000000000000000000, -1.000000000000000000 ) ) ;
#271 = CYLINDRICAL_SURFACE ( 'NONE', #167, 0.09375000000000001388 ) ;
#272 = PRESENTATION_LAYER_ASSIGNMENT (  '', '', ( #156 ) ) ;
#273 = SURFACE_STYLE_FILL_AREA ( #205 ) ;
#274 = PRODUCT_DEFINITION_FORMATION_WITH_SPECIFIED_SOURCE ( 'ANY', '', #226, .NOT_KNOWN. ) ;
#275 = AXIS2_PLACEMENT_3D ( 'NONE', #7, #152, #101 ) ;
#276 = PRODUCT_DEFINITION_SHAPE ( 'NONE', 'NONE',  #79 ) ;
#277 = VERTEX_POINT ( 'NONE', #181 ) ;
#278 = LINE ( 'NONE', #117, #88 ) ;
#279 = DIRECTION ( 'NONE',  ( -1.224646799147353454E-16, -0.0000000000000000000, -1.000000000000000000 ) ) ;
#280 = SURFACE_SIDE_STYLE ('',( #273 ) ) ;
#281 = APPLICATION_CONTEXT ( 'automotive_design' ) ;
#282 = VERTEX_POINT ( 'NONE', #201 ) ;
#283 = UNCERTAINTY_MEASURE_WITH_UNIT (LENGTH_MEASURE( 1.000000000000000082E-05 ), #289, 'distance_accuracy_value', 'NONE');
#284 = EDGE_LOOP ( 'NONE', ( #91, #90, #41, #175 ) ) ;
#285 = DIRECTION ( 'NONE',  ( 1.000000000000000000, 0.0000000000000000000, 0.0000000000000000000 ) ) ;
#286 = AXIS2_PLACEMENT_3D ( 'NONE', #147, #126, #245 ) ;
#287 = DIRECTION ( 'NONE',  ( 1.000000000000000000, 0.0000000000000000000, -0.0000000000000000000 ) ) ;
#288 = EDGE_CURVE ( 'NONE', #187, #277, #94, .T. ) ;
#289 =( CONVERSION_BASED_UNIT ( 'INCH', #148 ) LENGTH_UNIT ( ) NAMED_UNIT ( #140 ) );
#290 = VERTEX_POINT ( 'NONE', #51 ) ;
#291 = AXIS2_PLACEMENT_3D ( 'NONE', #100, #196, #292 ) ;
#292 = DIRECTION ( 'NONE',  ( 1.000000000000000000, 0.0000000000000000000, 0.0000000000000000000 ) ) ;
#293 = DIRECTION ( 'NONE',  ( -1.224646799147353454E-16, -0.0000000000000000000, -1.000000000000000000 ) ) ;
#294 = CONICAL_SURFACE ( 'NONE', #34, 0.07022970000000000601, 0.1745329251994339470 ) ;
#295 = CARTESIAN_POINT ( 'NONE',  ( 0.0000000000000000000, 0.0000000000000000000, 1.500000000000000222 ) ) ;
#296 = PLANE ( 'NONE',  #133 ) ;
#297 = AXIS2_PLACEMENT_3D ( 'NONE', #14, #56, #221 ) ;
#298 = EDGE_CURVE ( 'NONE', #277, #187, #215, .T. ) ;
#299 = CIRCLE ( 'NONE', #195, 0.09375000000000001388 ) ;
ENDSEC;
END-ISO-10303-21;
