ISO-10303-21;
HEADER;
FILE_DESCRIPTION (( 'STEP AP214' ),
    '1' );
FILE_NAME ('59502.STEP',
    '2023-07-24T15:48:07',
    ( '' ),
    ( '' ),
    'SwSTEP 2.0',
    'SolidWorks 2023',
    '' );
FILE_SCHEMA (( 'AUTOMOTIVE_DESIGN' ));
ENDSEC;

DATA;
#1 =( NAMED_UNIT ( * ) SI_UNIT ( $, .STERADIAN. ) SOLID_ANGLE_UNIT ( ) );
#2 = ADVANCED_FACE ( 'NONE', ( #143 ), #120, .T. ) ;
#3 = CARTESIAN_POINT ( 'NONE',  ( -1.714505518806293849E-15, 89.00000000000000000, 0.000000000000000000 ) ) ;
#4 = VECTOR ( 'NONE', #133, 1000.000000000000000 ) ;
#5 = CARTESIAN_POINT ( 'NONE',  ( -1.714505518806293849E-15, 89.00000000000000000, 0.000000000000000000 ) ) ;
#6 = DIRECTION ( 'NONE',  ( -3.498990854706722745E-17, 1.000000000000000000, -0.000000000000000000 ) ) ;
#7 = ADVANCED_FACE ( 'NONE', ( #142 ), #28, .T. ) ;
#8 = PRESENTATION_LAYER_ASSIGNMENT (  '', '', ( #184 ) ) ;
#9 = CARTESIAN_POINT ( 'NONE',  ( 0.000000000000000000, 40.00000000000000000, -8.000000000000000000 ) ) ;
#10 = DIRECTION ( 'NONE',  ( -0.000000000000000000, -1.000000000000000000, -0.000000000000000000 ) ) ;
#11 = UNCERTAINTY_MEASURE_WITH_UNIT (LENGTH_MEASURE( 1.000000000000000082E-05 ), #175, 'distance_accuracy_value', 'NONE');
#12 = CIRCLE ( 'NONE', #126, 8.000000000000000000 ) ;
#13 = MECHANICAL_DESIGN_GEOMETRIC_PRESENTATION_REPRESENTATION (  '', ( #102 ), #21 ) ;
#14 = DIRECTION ( 'NONE',  ( -0.000000000000000000, -1.000000000000000000, -0.000000000000000000 ) ) ;
#15 = EDGE_CURVE ( 'NONE', #243, #41, #232, .T. ) ;
#16 = FILL_AREA_STYLE_COLOUR ( '', #181 ) ;
#17 = ORIENTED_EDGE ( 'NONE', *, *, #212, .F. ) ;
#18 = UNCERTAINTY_MEASURE_WITH_UNIT (LENGTH_MEASURE( 1.000000000000000082E-05 ), #235, 'distance_accuracy_value', 'NONE');
#19 =( NAMED_UNIT ( * ) PLANE_ANGLE_UNIT ( ) SI_UNIT ( $, .RADIAN. ) );
#20 = ORIENTED_EDGE ( 'NONE', *, *, #170, .T. ) ;
#21 =( GEOMETRIC_REPRESENTATION_CONTEXT ( 3 ) GLOBAL_UNCERTAINTY_ASSIGNED_CONTEXT ( ( #18 ) ) GLOBAL_UNIT_ASSIGNED_CONTEXT ( ( #235, #94, #1 ) ) REPRESENTATION_CONTEXT ( 'NONE', 'WORKASPACE' ) );
#22 = ORIENTED_EDGE ( 'NONE', *, *, #121, .T. ) ;
#23 = ORIENTED_EDGE ( 'NONE', *, *, #198, .T. ) ;
#24 = CARTESIAN_POINT ( 'NONE',  ( 0.000000000000000000, 40.00000000000000000, 0.000000000000000000 ) ) ;
#25 = DIRECTION ( 'NONE',  ( -1.000000000000000000, 0.000000000000000000, 0.000000000000000000 ) ) ;
#26 =( LENGTH_UNIT ( ) NAMED_UNIT ( * ) SI_UNIT ( .MILLI., .METRE. ) );
#27 = AXIS2_PLACEMENT_3D ( 'NONE', #159, #139, #49 ) ;
#28 = CYLINDRICAL_SURFACE ( 'NONE', #34, 8.000000000000000000 ) ;
#29 = PRESENTATION_STYLE_ASSIGNMENT (( #237 ) ) ;
#30 = PRESENTATION_STYLE_ASSIGNMENT (( #78 ) ) ;
#31 = AXIS2_PLACEMENT_3D ( 'NONE', #254, #216, #234 ) ;
#32 = CIRCLE ( 'NONE', #27, 8.000000000000000000 ) ;
#33 = FILL_AREA_STYLE ('',( #77 ) ) ;
#34 = AXIS2_PLACEMENT_3D ( 'NONE', #5, #92, #275 ) ;
#35 = EDGE_CURVE ( 'NONE', #82, #157, #12, .T. ) ;
#36 = DIRECTION ( 'NONE',  ( -0.000000000000000000, -1.000000000000000000, -0.000000000000000000 ) ) ;
#37 = PRESENTATION_STYLE_ASSIGNMENT (( #182 ) ) ;
#38 = ORIENTED_EDGE ( 'NONE', *, *, #68, .F. ) ;
#39 = DIRECTION ( 'NONE',  ( -0.000000000000000000, -1.000000000000000000, -0.000000000000000000 ) ) ;
#40 = CARTESIAN_POINT ( 'NONE',  ( 8.000000000000000000, 40.00000000000000000, 9.797174393178825657E-16 ) ) ;
#41 = VERTEX_POINT ( 'NONE', #168 ) ;
#42 = LINE ( 'NONE', #177, #4 ) ;
#43 = VERTEX_POINT ( 'NONE', #277 ) ;
#44 = ORIENTED_EDGE ( 'NONE', *, *, #153, .F. ) ;
#45 = DIRECTION ( 'NONE',  ( 1.000000000000000000, 0.000000000000000000, 0.000000000000000000 ) ) ;
#46 = AXIS2_PLACEMENT_3D ( 'NONE', #3, #65, #25 ) ;
#47 = DIRECTION ( 'NONE',  ( -1.000000000000000000, 0.000000000000000000, 0.000000000000000000 ) ) ;
#48 = CIRCLE ( 'NONE', #257, 8.000000000000000000 ) ;
#49 = DIRECTION ( 'NONE',  ( -1.000000000000000000, 0.000000000000000000, 0.000000000000000000 ) ) ;
#50 = APPLICATION_CONTEXT ( 'automotive_design' ) ;
#51 = AXIS2_PLACEMENT_3D ( 'NONE', #147, #98, #240 ) ;
#52 = SURFACE_STYLE_FILL_AREA ( #115 ) ;
#53 = CYLINDRICAL_SURFACE ( 'NONE', #287, 8.000000000000000000 ) ;
#54 = LINE ( 'NONE', #73, #144 ) ;
#55 = MECHANICAL_DESIGN_GEOMETRIC_PRESENTATION_REPRESENTATION (  '', ( #184 ), #113 ) ;
#56 =( NAMED_UNIT ( * ) SI_UNIT ( $, .STERADIAN. ) SOLID_ANGLE_UNIT ( ) );
#57 = DIRECTION ( 'NONE',  ( 0.000000000000000000, 0.000000000000000000, -1.000000000000000000 ) ) ;
#58 = MECHANICAL_DESIGN_GEOMETRIC_PRESENTATION_REPRESENTATION (  '', ( #250 ), #169 ) ;
#59 = FILL_AREA_STYLE_COLOUR ( '', #225 ) ;
#60 = UNCERTAINTY_MEASURE_WITH_UNIT (LENGTH_MEASURE( 1.000000000000000082E-05 ), #230, 'distance_accuracy_value', 'NONE');
#61 = CARTESIAN_POINT ( 'NONE',  ( -1.714505518806293849E-15, 89.00000000000000000, 0.000000000000000000 ) ) ;
#62 = CARTESIAN_POINT ( 'NONE',  ( 8.000000000000000000, 89.00000000000000000, 0.000000000000000000 ) ) ;
#63 = ADVANCED_FACE ( 'NONE', ( #69 ), #117, .T. ) ;
#64 = CARTESIAN_POINT ( 'NONE',  ( 0.000000000000000000, 0.000000000000000000, 0.000000000000000000 ) ) ;
#65 = DIRECTION ( 'NONE',  ( -3.498990854706722745E-17, 1.000000000000000000, -0.000000000000000000 ) ) ;
#66 = CIRCLE ( 'NONE', #131, 8.000000000000000000 ) ;
#67 = PRODUCT_CONTEXT ( 'NONE', #50, 'mechanical' ) ;
#68 = EDGE_CURVE ( 'NONE', #231, #41, #253, .T. ) ;
#69 = FACE_OUTER_BOUND ( 'NONE', #129, .T. ) ;
#70 = DIRECTION ( 'NONE',  ( 0.000000000000000000, -1.000000000000000000, -0.000000000000000000 ) ) ;
#71 = CYLINDRICAL_SURFACE ( 'NONE', #278, 8.000000000000000000 ) ;
#72 = AXIS2_PLACEMENT_3D ( 'NONE', #64, #70, #162 ) ;
#73 = CARTESIAN_POINT ( 'NONE',  ( 9.797174393178825657E-16, 0.000000000000000000, 8.000000000000000000 ) ) ;
#74 = ADVANCED_FACE ( 'NONE', ( #188 ), #71, .T. ) ;
#75 = FILL_AREA_STYLE_COLOUR ( '', #80 ) ;
#76 = CLOSED_SHELL ( 'NONE', ( #7, #259, #2, #227 ) ) ;
#77 = FILL_AREA_STYLE_COLOUR ( '', #107 ) ;
#78 = SURFACE_STYLE_USAGE ( .BOTH. , #260 ) ;
#79 = SURFACE_STYLE_FILL_AREA ( #199 ) ;
#80 = COLOUR_RGB ( '',1.000000000000000000, 0.000000000000000000, 0.000000000000000000 ) ;
#81 = CARTESIAN_POINT ( 'NONE',  ( 9.797174393178825657E-16, 40.00000000000000000, 8.000000000000000000 ) ) ;
#82 = VERTEX_POINT ( 'NONE', #9 ) ;
#83 = DIRECTION ( 'NONE',  ( 1.000000000000000000, 3.498990854706722745E-17, 0.000000000000000000 ) ) ;
#84 = LINE ( 'NONE', #179, #263 ) ;
#85 = AXIS2_PLACEMENT_3D ( 'NONE', #219, #6, #47 ) ;
#86 = DIRECTION ( 'NONE',  ( -1.000000000000000000, 0.000000000000000000, 0.000000000000000000 ) ) ;
#87 = EDGE_CURVE ( 'NONE', #157, #118, #54, .T. ) ;
#88 = SURFACE_SIDE_STYLE ('',( #213 ) ) ;
#89 = DIRECTION ( 'NONE',  ( 0.000000000000000000, 0.000000000000000000, 1.000000000000000000 ) ) ;
#90 = ORIENTED_EDGE ( 'NONE', *, *, #170, .F. ) ;
#91 = DIRECTION ( 'NONE',  ( 0.000000000000000000, 0.000000000000000000, -1.000000000000000000 ) ) ;
#92 = DIRECTION ( 'NONE',  ( -3.498990854706722745E-17, 1.000000000000000000, -0.000000000000000000 ) ) ;
#93 = FACE_OUTER_BOUND ( 'NONE', #245, .T. ) ;
#94 =( NAMED_UNIT ( * ) PLANE_ANGLE_UNIT ( ) SI_UNIT ( $, .RADIAN. ) );
#95 = UNCERTAINTY_MEASURE_WITH_UNIT (LENGTH_MEASURE( 1.000000000000000082E-05 ), #116, 'distance_accuracy_value', 'NONE');
#96 = DIRECTION ( 'NONE',  ( 0.000000000000000000, 0.000000000000000000, -1.000000000000000000 ) ) ;
#97 = AXIS2_PLACEMENT_3D ( 'NONE', #246, #39, #103 ) ;
#98 = DIRECTION ( 'NONE',  ( 0.000000000000000000, 1.000000000000000000, 0.000000000000000000 ) ) ;
#99 =( NAMED_UNIT ( * ) PLANE_ANGLE_UNIT ( ) SI_UNIT ( $, .RADIAN. ) );
#100 = FACE_OUTER_BOUND ( 'NONE', #114, .T. ) ;
#101 =( NAMED_UNIT ( * ) PLANE_ANGLE_UNIT ( ) SI_UNIT ( $, .RADIAN. ) );
#102 = STYLED_ITEM ( 'NONE', ( #138 ), #63 ) ;
#103 = DIRECTION ( 'NONE',  ( 0.000000000000000000, 0.000000000000000000, -1.000000000000000000 ) ) ;
#104 = DIRECTION ( 'NONE',  ( 0.000000000000000000, 0.000000000000000000, -1.000000000000000000 ) ) ;
#105 = CLOSED_SHELL ( 'NONE', ( #74, #111, #150, #63 ) ) ;
#106 = ADVANCED_BREP_SHAPE_REPRESENTATION ( '59502', ( #209, #207, #135 ), #256 ) ;
#107 = COLOUR_RGB ( '',1.000000000000000000, 0.000000000000000000, 0.000000000000000000 ) ;
#108 = ORIENTED_EDGE ( 'NONE', *, *, #15, .T. ) ;
#109 = ORIENTED_EDGE ( 'NONE', *, *, #238, .T. ) ;
#110 = PRESENTATION_STYLE_ASSIGNMENT (( #128 ) ) ;
#111 = ADVANCED_FACE ( 'NONE', ( #100 ), #221, .T. ) ;
#112 = ORIENTED_EDGE ( 'NONE', *, *, #145, .F. ) ;
#113 =( GEOMETRIC_REPRESENTATION_CONTEXT ( 3 ) GLOBAL_UNCERTAINTY_ASSIGNED_CONTEXT ( ( #95 ) ) GLOBAL_UNIT_ASSIGNED_CONTEXT ( ( #116, #99, #56 ) ) REPRESENTATION_CONTEXT ( 'NONE', 'WORKASPACE' ) );
#114 = EDGE_LOOP ( 'NONE', ( #140, #272 ) ) ;
#115 = FILL_AREA_STYLE ('',( #258 ) ) ;
#116 =( LENGTH_UNIT ( ) NAMED_UNIT ( * ) SI_UNIT ( .MILLI., .METRE. ) );
#117 = PLANE ( 'NONE',  #72 ) ;
#118 = VERTEX_POINT ( 'NONE', #194 ) ;
#119 = PRODUCT_DEFINITION_SHAPE ( 'NONE', 'NONE',  #252 ) ;
#120 = CYLINDRICAL_SURFACE ( 'NONE', #85, 8.000000000000000000 ) ;
#121 = EDGE_CURVE ( 'NONE', #157, #82, #48, .T. ) ;
#122 =( GEOMETRIC_REPRESENTATION_CONTEXT ( 3 ) GLOBAL_UNCERTAINTY_ASSIGNED_CONTEXT ( ( #176 ) ) GLOBAL_UNIT_ASSIGNED_CONTEXT ( ( #148, #172, #174 ) ) REPRESENTATION_CONTEXT ( 'NONE', 'WORKASPACE' ) );
#123 = CARTESIAN_POINT ( 'NONE',  ( 0.000000000000000000, 0.000000000000000000, 0.000000000000000000 ) ) ;
#124 = PRESENTATION_STYLE_ASSIGNMENT (( #279 ) ) ;
#125 = SURFACE_STYLE_FILL_AREA ( #33 ) ;
#126 = AXIS2_PLACEMENT_3D ( 'NONE', #24, #255, #91 ) ;
#127 = PRESENTATION_LAYER_ASSIGNMENT (  '', '', ( #229 ) ) ;
#128 = SURFACE_STYLE_USAGE ( .BOTH. , #206 ) ;
#129 = EDGE_LOOP ( 'NONE', ( #282, #247 ) ) ;
#130 = UNCERTAINTY_MEASURE_WITH_UNIT (LENGTH_MEASURE( 1.000000000000000082E-05 ), #26, 'distance_accuracy_value', 'NONE');
#131 = AXIS2_PLACEMENT_3D ( 'NONE', #284, #132, #248 ) ;
#132 = DIRECTION ( 'NONE',  ( -3.498990854706722745E-17, 1.000000000000000000, -0.000000000000000000 ) ) ;
#133 = DIRECTION ( 'NONE',  ( -3.498990854706722745E-17, 1.000000000000000000, -0.000000000000000000 ) ) ;
#134 = ORIENTED_EDGE ( 'NONE', *, *, #87, .T. ) ;
#135 = AXIS2_PLACEMENT_3D ( 'NONE', #187, #89, #45 ) ;
#136 = APPLICATION_PROTOCOL_DEFINITION ( 'draft international standard', 'automotive_design', 1998, #50 ) ;
#137 = AXIS2_PLACEMENT_3D ( 'NONE', #151, #36, #96 ) ;
#138 = PRESENTATION_STYLE_ASSIGNMENT (( #167 ) ) ;
#139 = DIRECTION ( 'NONE',  ( -3.498990854706722745E-17, 1.000000000000000000, -0.000000000000000000 ) ) ;
#140 = ORIENTED_EDGE ( 'NONE', *, *, #35, .F. ) ;
#141 = PLANE ( 'NONE',  #31 ) ;
#142 = FACE_OUTER_BOUND ( 'NONE', #208, .T. ) ;
#143 = FACE_OUTER_BOUND ( 'NONE', #202, .T. ) ;
#144 = VECTOR ( 'NONE', #239, 1000.000000000000000 ) ;
#145 = EDGE_CURVE ( 'NONE', #242, #118, #273, .T. ) ;
#146 = SURFACE_SIDE_STYLE ('',( #52 ) ) ;
#147 = CARTESIAN_POINT ( 'NONE',  ( 0.000000000000000000, 40.00000000000000000, 0.000000000000000000 ) ) ;
#148 =( LENGTH_UNIT ( ) NAMED_UNIT ( * ) SI_UNIT ( .MILLI., .METRE. ) );
#149 = PRESENTATION_LAYER_ASSIGNMENT (  '', '', ( #269 ) ) ;
#150 = ADVANCED_FACE ( 'NONE', ( #262 ), #53, .T. ) ;
#151 = CARTESIAN_POINT ( 'NONE',  ( 0.000000000000000000, 0.000000000000000000, 0.000000000000000000 ) ) ;
#152 = MECHANICAL_DESIGN_GEOMETRIC_PRESENTATION_REPRESENTATION (  '', ( #158 ), #173 ) ;
#153 = EDGE_CURVE ( 'NONE', #118, #242, #233, .T. ) ;
#154 = FILL_AREA_STYLE ('',( #59 ) ) ;
#155 = ORIENTED_EDGE ( 'NONE', *, *, #15, .F. ) ;
#156 = DIRECTION ( 'NONE',  ( 3.498990854706722745E-17, -1.000000000000000000, 0.000000000000000000 ) ) ;
#157 = VERTEX_POINT ( 'NONE', #81 ) ;
#158 = STYLED_ITEM ( 'NONE', ( #110 ), #207 ) ;
#159 = CARTESIAN_POINT ( 'NONE',  ( 1.925929944387235853E-31, 40.00000000000000000, 0.000000000000000000 ) ) ;
#160 = ORIENTED_EDGE ( 'NONE', *, *, #68, .T. ) ;
#161 = DIRECTION ( 'NONE',  ( -3.498990854706722745E-17, 1.000000000000000000, -0.000000000000000000 ) ) ;
#162 = DIRECTION ( 'NONE',  ( 0.000000000000000000, 0.000000000000000000, -1.000000000000000000 ) ) ;
#163 = SHAPE_DEFINITION_REPRESENTATION ( #119, #106 ) ;
#164 = AXIS2_PLACEMENT_3D ( 'NONE', #62, #156, #83 ) ;
#165 = APPLICATION_PROTOCOL_DEFINITION ( 'draft international standard', 'automotive_design', 1998, #261 ) ;
#166 = CARTESIAN_POINT ( 'NONE',  ( -8.000000000000003553, 89.00000000000000000, 0.000000000000000000 ) ) ;
#167 = SURFACE_STYLE_USAGE ( .BOTH. , #88 ) ;
#168 = CARTESIAN_POINT ( 'NONE',  ( 8.000000000000000000, 89.00000000000000000, 9.797174393178825657E-16 ) ) ;
#169 =( GEOMETRIC_REPRESENTATION_CONTEXT ( 3 ) GLOBAL_UNCERTAINTY_ASSIGNED_CONTEXT ( ( #264 ) ) GLOBAL_UNIT_ASSIGNED_CONTEXT ( ( #268, #267, #266 ) ) REPRESENTATION_CONTEXT ( 'NONE', 'WORKASPACE' ) );
#170 = EDGE_CURVE ( 'NONE', #82, #242, #84, .T. ) ;
#171 = FILL_AREA_STYLE ('',( #75 ) ) ;
#172 =( NAMED_UNIT ( * ) PLANE_ANGLE_UNIT ( ) SI_UNIT ( $, .RADIAN. ) );
#173 =( GEOMETRIC_REPRESENTATION_CONTEXT ( 3 ) GLOBAL_UNCERTAINTY_ASSIGNED_CONTEXT ( ( #60 ) ) GLOBAL_UNIT_ASSIGNED_CONTEXT ( ( #230, #19, #286 ) ) REPRESENTATION_CONTEXT ( 'NONE', 'WORKASPACE' ) );
#174 =( NAMED_UNIT ( * ) SI_UNIT ( $, .STERADIAN. ) SOLID_ANGLE_UNIT ( ) );
#175 =( LENGTH_UNIT ( ) NAMED_UNIT ( * ) SI_UNIT ( .MILLI., .METRE. ) );
#176 = UNCERTAINTY_MEASURE_WITH_UNIT (LENGTH_MEASURE( 1.000000000000000082E-05 ), #148, 'distance_accuracy_value', 'NONE');
#177 = CARTESIAN_POINT ( 'NONE',  ( -8.000000000000001776, 89.00000000000000000, 0.000000000000000000 ) ) ;
#178 = ORIENTED_EDGE ( 'NONE', *, *, #192, .T. ) ;
#179 = CARTESIAN_POINT ( 'NONE',  ( 0.000000000000000000, 0.000000000000000000, -8.000000000000000000 ) ) ;
#180 = SURFACE_STYLE_FILL_AREA ( #154 ) ;
#181 = COLOUR_RGB ( '',0.7921568627450980005, 0.8196078431372548767, 0.9333333333333333481 ) ;
#182 = SURFACE_STYLE_USAGE ( .BOTH. , #241 ) ;
#183 = ORIENTED_EDGE ( 'NONE', *, *, #35, .T. ) ;
#184 = STYLED_ITEM ( 'NONE', ( #29 ), #74 ) ;
#185 = ORIENTED_EDGE ( 'NONE', *, *, #192, .F. ) ;
#186 = FILL_AREA_STYLE_COLOUR ( '', #197 ) ;
#187 = CARTESIAN_POINT ( 'NONE',  ( 0.000000000000000000, 0.000000000000000000, 0.000000000000000000 ) ) ;
#188 = FACE_OUTER_BOUND ( 'NONE', #249, .T. ) ;
#189 = SURFACE_STYLE_FILL_AREA ( #171 ) ;
#190 = AXIS2_PLACEMENT_3D ( 'NONE', #61, #161, #86 ) ;
#191 =( NAMED_UNIT ( * ) SI_UNIT ( $, .STERADIAN. ) SOLID_ANGLE_UNIT ( ) );
#192 = EDGE_CURVE ( 'NONE', #231, #43, #66, .T. ) ;
#193 = PRODUCT ( '59502', '59502', '', ( #67 ) ) ;
#194 = CARTESIAN_POINT ( 'NONE',  ( 9.797174393178825657E-16, 0.000000000000000000, 8.000000000000000000 ) ) ;
#195 = CARTESIAN_POINT ( 'NONE',  ( 0.000000000000000000, 40.00000000000000000, 0.000000000000000000 ) ) ;
#196 = MECHANICAL_DESIGN_GEOMETRIC_PRESENTATION_REPRESENTATION (  '', ( #269 ), #220 ) ;
#197 = COLOUR_RGB ( '',1.000000000000000000, 0.000000000000000000, 0.000000000000000000 ) ;
#198 = EDGE_CURVE ( 'NONE', #43, #243, #42, .T. ) ;
#199 = FILL_AREA_STYLE ('',( #16 ) ) ;
#200 = PLANE ( 'NONE',  #164 ) ;
#201 = PRODUCT_DEFINITION_FORMATION_WITH_SPECIFIED_SOURCE ( 'ANY', '', #193, .NOT_KNOWN. ) ;
#202 = EDGE_LOOP ( 'NONE', ( #38, #178, #23, #17 ) ) ;
#203 = PRODUCT_RELATED_PRODUCT_CATEGORY ( 'part', '', ( #193 ) ) ;
#204 = COLOUR_RGB ( '',1.000000000000000000, 0.000000000000000000, 0.000000000000000000 ) ;
#205 = ORIENTED_EDGE ( 'NONE', *, *, #87, .F. ) ;
#206 = SURFACE_SIDE_STYLE ('',( #79 ) ) ;
#207 = MANIFOLD_SOLID_BREP ( 'Revolve - Tool Body (Straight Shanked)', #76 ) ;
#208 = EDGE_LOOP ( 'NONE', ( #109, #160, #155, #211 ) ) ;
#209 = MANIFOLD_SOLID_BREP ( 'Revolve - Cutting Edge', #105 ) ;
#210 = PRESENTATION_LAYER_ASSIGNMENT (  '', '', ( #250 ) ) ;
#211 = ORIENTED_EDGE ( 'NONE', *, *, #198, .F. ) ;
#212 = EDGE_CURVE ( 'NONE', #41, #243, #217, .T. ) ;
#213 = SURFACE_STYLE_FILL_AREA ( #288 ) ;
#214 = EDGE_LOOP ( 'NONE', ( #108, #285 ) ) ;
#215 = VECTOR ( 'NONE', #236, 1000.000000000000000 ) ;
#216 = DIRECTION ( 'NONE',  ( -3.498990854706722745E-17, 1.000000000000000000, 0.000000000000000000 ) ) ;
#217 = CIRCLE ( 'NONE', #190, 8.000000000000001776 ) ;
#218 = CARTESIAN_POINT ( 'NONE',  ( 7.999999999999998224, 89.00000000000000000, 9.797174393178825657E-16 ) ) ;
#219 = CARTESIAN_POINT ( 'NONE',  ( -1.714505518806293849E-15, 89.00000000000000000, 0.000000000000000000 ) ) ;
#220 =( GEOMETRIC_REPRESENTATION_CONTEXT ( 3 ) GLOBAL_UNCERTAINTY_ASSIGNED_CONTEXT ( ( #11 ) ) GLOBAL_UNIT_ASSIGNED_CONTEXT ( ( #175, #101, #191 ) ) REPRESENTATION_CONTEXT ( 'NONE', 'WORKASPACE' ) );
#221 = PLANE ( 'NONE',  #51 ) ;
#222 = SURFACE_SIDE_STYLE ('',( #189 ) ) ;
#223 = PRODUCT_DEFINITION_CONTEXT ( 'detailed design', #261, 'design' ) ;
#224 = DIRECTION ( 'NONE',  ( 0.000000000000000000, 0.000000000000000000, -1.000000000000000000 ) ) ;
#225 = COLOUR_RGB ( '',0.7921568627450980005, 0.8196078431372548767, 0.9333333333333333481 ) ;
#226 = CARTESIAN_POINT ( 'NONE',  ( 0.000000000000000000, 0.000000000000000000, 0.000000000000000000 ) ) ;
#227 = ADVANCED_FACE ( 'NONE', ( #244 ), #200, .F. ) ;
#228 = ORIENTED_EDGE ( 'NONE', *, *, #238, .F. ) ;
#229 = STYLED_ITEM ( 'NONE', ( #124 ), #150 ) ;
#230 =( LENGTH_UNIT ( ) NAMED_UNIT ( * ) SI_UNIT ( .MILLI., .METRE. ) );
#231 = VERTEX_POINT ( 'NONE', #40 ) ;
#232 = CIRCLE ( 'NONE', #46, 8.000000000000001776 ) ;
#233 = CIRCLE ( 'NONE', #97, 8.000000000000000000 ) ;
#234 = DIRECTION ( 'NONE',  ( -1.000000000000000000, -3.498990854706722745E-17, 0.000000000000000000 ) ) ;
#235 =( LENGTH_UNIT ( ) NAMED_UNIT ( * ) SI_UNIT ( .MILLI., .METRE. ) );
#236 = DIRECTION ( 'NONE',  ( -3.498990854706722745E-17, 1.000000000000000000, -0.000000000000000000 ) ) ;
#237 = SURFACE_STYLE_USAGE ( .BOTH. , #146 ) ;
#238 = EDGE_CURVE ( 'NONE', #43, #231, #32, .T. ) ;
#239 = DIRECTION ( 'NONE',  ( -0.000000000000000000, -1.000000000000000000, -0.000000000000000000 ) ) ;
#240 = DIRECTION ( 'NONE',  ( 0.000000000000000000, -0.000000000000000000, 1.000000000000000000 ) ) ;
#241 = SURFACE_SIDE_STYLE ('',( #180 ) ) ;
#242 = VERTEX_POINT ( 'NONE', #271 ) ;
#243 = VERTEX_POINT ( 'NONE', #166 ) ;
#244 = FACE_OUTER_BOUND ( 'NONE', #214, .T. ) ;
#245 = EDGE_LOOP ( 'NONE', ( #228, #185 ) ) ;
#246 = CARTESIAN_POINT ( 'NONE',  ( 0.000000000000000000, 0.000000000000000000, 0.000000000000000000 ) ) ;
#247 = ORIENTED_EDGE ( 'NONE', *, *, #153, .T. ) ;
#248 = DIRECTION ( 'NONE',  ( -1.000000000000000000, 0.000000000000000000, 0.000000000000000000 ) ) ;
#249 = EDGE_LOOP ( 'NONE', ( #183, #134, #112, #90 ) ) ;
#250 = STYLED_ITEM ( 'NONE', ( #37 ), #209 ) ;
#251 =( NAMED_UNIT ( * ) SI_UNIT ( $, .STERADIAN. ) SOLID_ANGLE_UNIT ( ) );
#252 = PRODUCT_DEFINITION ( 'UNKNOWN', '', #201, #223 ) ;
#253 = LINE ( 'NONE', #218, #215 ) ;
#254 = CARTESIAN_POINT ( 'NONE',  ( 4.897174800528513241E-33, 40.00000000000000000, 0.000000000000000000 ) ) ;
#255 = DIRECTION ( 'NONE',  ( -0.000000000000000000, -1.000000000000000000, -0.000000000000000000 ) ) ;
#256 =( GEOMETRIC_REPRESENTATION_CONTEXT ( 3 ) GLOBAL_UNCERTAINTY_ASSIGNED_CONTEXT ( ( #130 ) ) GLOBAL_UNIT_ASSIGNED_CONTEXT ( ( #26, #276, #251 ) ) REPRESENTATION_CONTEXT ( 'NONE', 'WORKASPACE' ) );
#257 = AXIS2_PLACEMENT_3D ( 'NONE', #195, #280, #57 ) ;
#258 = FILL_AREA_STYLE_COLOUR ( '', #204 ) ;
#259 = ADVANCED_FACE ( 'NONE', ( #93 ), #141, .F. ) ;
#260 = SURFACE_SIDE_STYLE ('',( #125 ) ) ;
#261 = APPLICATION_CONTEXT ( 'automotive_design' ) ;
#262 = FACE_OUTER_BOUND ( 'NONE', #274, .T. ) ;
#263 = VECTOR ( 'NONE', #281, 1000.000000000000000 ) ;
#264 = UNCERTAINTY_MEASURE_WITH_UNIT (LENGTH_MEASURE( 1.000000000000000082E-05 ), #268, 'distance_accuracy_value', 'NONE');
#265 = PRESENTATION_LAYER_ASSIGNMENT (  '', '', ( #158 ) ) ;
#266 =( NAMED_UNIT ( * ) SI_UNIT ( $, .STERADIAN. ) SOLID_ANGLE_UNIT ( ) );
#267 =( NAMED_UNIT ( * ) PLANE_ANGLE_UNIT ( ) SI_UNIT ( $, .RADIAN. ) );
#268 =( LENGTH_UNIT ( ) NAMED_UNIT ( * ) SI_UNIT ( .MILLI., .METRE. ) );
#269 = STYLED_ITEM ( 'NONE', ( #30 ), #111 ) ;
#270 = PRESENTATION_LAYER_ASSIGNMENT (  '', '', ( #102 ) ) ;
#271 = CARTESIAN_POINT ( 'NONE',  ( 0.000000000000000000, 0.000000000000000000, -8.000000000000000000 ) ) ;
#272 = ORIENTED_EDGE ( 'NONE', *, *, #121, .F. ) ;
#273 = CIRCLE ( 'NONE', #137, 8.000000000000000000 ) ;
#274 = EDGE_LOOP ( 'NONE', ( #205, #22, #20, #44 ) ) ;
#275 = DIRECTION ( 'NONE',  ( -1.000000000000000000, 0.000000000000000000, 0.000000000000000000 ) ) ;
#276 =( NAMED_UNIT ( * ) PLANE_ANGLE_UNIT ( ) SI_UNIT ( $, .RADIAN. ) );
#277 = CARTESIAN_POINT ( 'NONE',  ( -8.000000000000000000, 40.00000000000000000, 0.000000000000000000 ) ) ;
#278 = AXIS2_PLACEMENT_3D ( 'NONE', #123, #10, #224 ) ;
#279 = SURFACE_STYLE_USAGE ( .BOTH. , #222 ) ;
#280 = DIRECTION ( 'NONE',  ( -0.000000000000000000, -1.000000000000000000, -0.000000000000000000 ) ) ;
#281 = DIRECTION ( 'NONE',  ( -0.000000000000000000, -1.000000000000000000, -0.000000000000000000 ) ) ;
#282 = ORIENTED_EDGE ( 'NONE', *, *, #145, .T. ) ;
#283 = MECHANICAL_DESIGN_GEOMETRIC_PRESENTATION_REPRESENTATION (  '', ( #229 ), #122 ) ;
#284 = CARTESIAN_POINT ( 'NONE',  ( 1.925929944387235853E-31, 40.00000000000000000, 0.000000000000000000 ) ) ;
#285 = ORIENTED_EDGE ( 'NONE', *, *, #212, .T. ) ;
#286 =( NAMED_UNIT ( * ) SI_UNIT ( $, .STERADIAN. ) SOLID_ANGLE_UNIT ( ) );
#287 = AXIS2_PLACEMENT_3D ( 'NONE', #226, #14, #104 ) ;
#288 = FILL_AREA_STYLE ('',( #186 ) ) ;
ENDSEC;
END-ISO-10303-21;
