ISO-10303-21;
HEADER;
FILE_DESCRIPTION (( 'STEP AP214' ),
    '1' );
FILE_NAME ('Micro_SFPM-050-50.STEP',
    '2021-09-02T07:12:22',
    ( '' ),
    ( '' ),
    'SwSTEP 2.0',
    'SolidWorks 2020',
    '' );
FILE_SCHEMA (( 'AUTOMOTIVE_DESIGN' ));
ENDSEC;

DATA;
#1 = FACE_OUTER_BOUND ( 'NONE', #296, .T. ) ;
#2 = CARTESIAN_POINT ( 'NONE',  ( 1.474662427518848307E-33, 0.0000000000000000000, 1.204153253448721512E-17 ) ) ;
#3 =( CONVERSION_BASED_UNIT ( 'INCH', #89 ) LENGTH_UNIT ( ) NAMED_UNIT ( #267 ) );
#4 = DIRECTION ( 'NONE',  ( -0.0000000000000000000, -0.0000000000000000000, -1.000000000000000000 ) ) ;
#5 = AXIS2_PLACEMENT_3D ( 'NONE', #223, #4, #45 ) ;
#6 = DIRECTION ( 'NONE',  ( 1.000000000000000000, 0.0000000000000000000, 0.0000000000000000000 ) ) ;
#7 = CYLINDRICAL_SURFACE ( 'NONE', #270, 0.09832657499999998552 ) ;
#8 = LINE ( 'NONE', #105, #125 ) ;
#9 = FACE_OUTER_BOUND ( 'NONE', #170, .T. ) ;
#10 = CARTESIAN_POINT ( 'NONE',  ( 0.0000000000000000000, 0.0000000000000000000, 2.229093999999999465 ) ) ;
#11 = LINE ( 'NONE', #30, #294 ) ;
#12 = AXIS2_PLACEMENT_3D ( 'NONE', #95, #143, #73 ) ;
#13 = CARTESIAN_POINT ( 'NONE',  ( 1.350004094801674599E-16, 0.0000000000000000000, 1.102362000000000064 ) ) ;
#14 = AXIS2_PLACEMENT_3D ( 'NONE', #220, #226, #205 ) ;
#15 = ADVANCED_FACE ( 'NONE', ( #210 ), #18, .T. ) ;
#16 = ORIENTED_EDGE ( 'NONE', *, *, #102, .T. ) ;
#17 = CARTESIAN_POINT ( 'NONE',  ( -0.09832657499999986062, 1.325291793960830067E-17, 1.102362000000000064 ) ) ;
#18 = CONICAL_SURFACE ( 'NONE', #51, 0.1031100000000002570, 0.7853981633974318477 ) ;
#19 = ORIENTED_EDGE ( 'NONE', *, *, #292, .T. ) ;
#20 = VERTEX_POINT ( 'NONE', #17 ) ;
#21 = ORIENTED_EDGE ( 'NONE', *, *, #134, .T. ) ;
#22 = AXIS2_PLACEMENT_3D ( 'NONE', #288, #290, #81 ) ;
#23 = DIRECTION ( 'NONE',  ( -0.7071067811865358044, 0.0000000000000000000, -0.7071067811865590080 ) ) ;
#24 = ADVANCED_FACE ( 'NONE', ( #113 ), #151, .T. ) ;
#25 = EDGE_LOOP ( 'NONE', ( #275, #19, #256, #211 ) ) ;
#26 = FILL_AREA_STYLE ('',( #239 ) ) ;
#27 = CARTESIAN_POINT ( 'NONE',  ( 0.1181100000000000066, 1.446430334472939084E-17, 2.229093999999999465 ) ) ;
#28 = EDGE_CURVE ( 'NONE', #64, #65, #58, .T. ) ;
#29 = CARTESIAN_POINT ( 'NONE',  ( 0.0000000000000000000, 0.0000000000000000000, 0.0000000000000000000 ) ) ;
#30 = CARTESIAN_POINT ( 'NONE',  ( 0.09832657500000012429, 0.0000000000000000000, 1.102362000000000064 ) ) ;
#31 = DIRECTION ( 'NONE',  ( -0.0000000000000000000, -0.0000000000000000000, -1.000000000000000000 ) ) ;
#32 = AXIS2_PLACEMENT_3D ( 'NONE', #10, #268, #155 ) ;
#33 = DIRECTION ( 'NONE',  ( 1.224646799147353207E-16, 0.0000000000000000000, 1.000000000000000000 ) ) ;
#34 = CARTESIAN_POINT ( 'NONE',  ( 0.1181100000000000066, 1.446430334472939084E-17, 2.244094000000000033 ) ) ;
#35 = AXIS2_PLACEMENT_3D ( 'NONE', #238, #241, #154 ) ;
#36 = CIRCLE ( 'NONE', #14, 0.1181100000000000066 ) ;
#37 = ORIENTED_EDGE ( 'NONE', *, *, #183, .F. ) ;
#38 =( CONVERSION_BASED_UNIT ( 'INCH', #112 ) LENGTH_UNIT ( ) NAMED_UNIT ( #242 ) );
#39 = ORIENTED_EDGE ( 'NONE', *, *, #134, .F. ) ;
#40 = SHAPE_DEFINITION_REPRESENTATION ( #43, #175 ) ;
#41 = ORIENTED_EDGE ( 'NONE', *, *, #77, .T. ) ;
#42 = PRODUCT_RELATED_PRODUCT_CATEGORY ( 'part', '', ( #246 ) ) ;
#43 = PRODUCT_DEFINITION_SHAPE ( 'NONE', 'NONE',  #148 ) ;
#44 = ORIENTED_EDGE ( 'NONE', *, *, #292, .F. ) ;
#45 = DIRECTION ( 'NONE',  ( -1.000000000000000000, 0.0000000000000000000, 0.0000000000000000000 ) ) ;
#46 = AXIS2_PLACEMENT_3D ( 'NONE', #271, #61, #272 ) ;
#47 = ORIENTED_EDGE ( 'NONE', *, *, #201, .F. ) ;
#48 = CYLINDRICAL_SURFACE ( 'NONE', #230, 0.09832657499999998552 ) ;
#49 = DIRECTION ( 'NONE',  ( -1.000000000000000000, 0.0000000000000000000, 0.0000000000000000000 ) ) ;
#50 = CARTESIAN_POINT ( 'NONE',  ( -0.09832657499999986062, 1.204153253448721512E-17, 1.102362000000000064 ) ) ;
#51 = AXIS2_PLACEMENT_3D ( 'NONE', #293, #136, #233 ) ;
#52 = CIRCLE ( 'NONE', #32, 0.1181100000000000066 ) ;
#53 = CARTESIAN_POINT ( 'NONE',  ( 0.09832657499999998552, 1.204153253448721512E-17, 0.0000000000000000000 ) ) ;
#54 = UNCERTAINTY_MEASURE_WITH_UNIT (LENGTH_MEASURE( 1.000000000000000082E-05 ), #38, 'distance_accuracy_value', 'NONE');
#55 = CARTESIAN_POINT ( 'NONE',  ( 0.1031100000000002570, 1.354581824536888722E-17, 2.244094000000000033 ) ) ;
#56 =( LENGTH_UNIT ( ) NAMED_UNIT ( * ) SI_UNIT ( $, .METRE. ) );
#57 = ADVANCED_FACE ( 'NONE', ( #258 ), #97, .T. ) ;
#58 = CIRCLE ( 'NONE', #244, 0.09832657499999998552 ) ;
#59 = AXIS2_PLACEMENT_3D ( 'NONE', #150, #200, #198 ) ;
#60 = DIRECTION ( 'NONE',  ( 1.000000000000000000, 0.0000000000000000000, -0.0000000000000000000 ) ) ;
#61 = DIRECTION ( 'NONE',  ( -1.224646799147353207E-16, -0.0000000000000000000, -1.000000000000000000 ) ) ;
#62 = VECTOR ( 'NONE', #156, 39.37007874015748854 ) ;
#63 = VERTEX_POINT ( 'NONE', #224 ) ;
#64 = VERTEX_POINT ( 'NONE', #53 ) ;
#65 = VERTEX_POINT ( 'NONE', #176 ) ;
#66 = DIRECTION ( 'NONE',  ( 1.000000000000000000, 0.0000000000000000000, 0.0000000000000000000 ) ) ;
#67 = ADVANCED_FACE ( 'NONE', ( #222 ), #7, .T. ) ;
#68 = ORIENTED_EDGE ( 'NONE', *, *, #162, .T. ) ;
#69 = ORIENTED_EDGE ( 'NONE', *, *, #186, .T. ) ;
#70 = ORIENTED_EDGE ( 'NONE', *, *, #28, .F. ) ;
#71 = ADVANCED_FACE ( 'NONE', ( #264 ), #177, .T. ) ;
#72 = CARTESIAN_POINT ( 'NONE',  ( 0.1181100000000001593, 1.446430334472940933E-17, 1.214559378532270140 ) ) ;
#73 = DIRECTION ( 'NONE',  ( 1.000000000000000000, 0.0000000000000000000, 0.0000000000000000000 ) ) ;
#74 = AXIS2_PLACEMENT_3D ( 'NONE', #98, #195, #49 ) ;
#75 = FILL_AREA_STYLE_COLOUR ( '', #237 ) ;
#76 = SURFACE_STYLE_USAGE ( .BOTH. , #284 ) ;
#77 = EDGE_CURVE ( 'NONE', #273, #192, #137, .T. ) ;
#78 = DIMENSIONAL_EXPONENTS ( 1.000000000000000000, 0.0000000000000000000, 0.0000000000000000000, 0.0000000000000000000, 0.0000000000000000000, 0.0000000000000000000, 0.0000000000000000000 ) ;
#79 = DIRECTION ( 'NONE',  ( -1.000000000000000000, 0.0000000000000000000, 1.224646799147353207E-16 ) ) ;
#80 = CARTESIAN_POINT ( 'NONE',  ( 0.0000000000000000000, 0.0000000000000000000, 2.244094000000000033 ) ) ;
#81 = DIRECTION ( 'NONE',  ( -1.000000000000000000, 0.0000000000000000000, 0.0000000000000000000 ) ) ;
#82 = EDGE_CURVE ( 'NONE', #20, #139, #285, .T. ) ;
#83 = CARTESIAN_POINT ( 'NONE',  ( 1.487406255293943111E-16, 0.0000000000000000000, 1.214559378532270140 ) ) ;
#84 = UNCERTAINTY_MEASURE_WITH_UNIT (LENGTH_MEASURE( 1.000000000000000082E-05 ), #289, 'distance_accuracy_value', 'NONE');
#85 = CIRCLE ( 'NONE', #255, 0.1031100000000002570 ) ;
#86 = PRESENTATION_STYLE_ASSIGNMENT (( #76 ) ) ;
#87 = DIRECTION ( 'NONE',  ( -1.224646799147353207E-16, -0.0000000000000000000, -1.000000000000000000 ) ) ;
#88 = ORIENTED_EDGE ( 'NONE', *, *, #201, .T. ) ;
#89 = LENGTH_MEASURE_WITH_UNIT ( LENGTH_MEASURE( 0.02539999999999999897 ), #119 );
#90 = ORIENTED_EDGE ( 'NONE', *, *, #162, .F. ) ;
#91 = ORIENTED_EDGE ( 'NONE', *, *, #283, .F. ) ;
#92 = VECTOR ( 'NONE', #178, 39.37007874015748854 ) ;
#93 = CONICAL_SURFACE ( 'NONE', #74, 0.1031100000000002570, 0.7853981633974318477 ) ;
#94 = EDGE_CURVE ( 'NONE', #278, #64, #173, .T. ) ;
#95 = CARTESIAN_POINT ( 'NONE',  ( 0.0000000000000000000, 0.0000000000000000000, 2.244094000000000033 ) ) ;
#96 = UNCERTAINTY_MEASURE_WITH_UNIT (LENGTH_MEASURE( 1.000000000000000082E-05 ), #3, 'distance_accuracy_value', 'NONE');
#97 = PLANE ( 'NONE',  #59 ) ;
#98 = CARTESIAN_POINT ( 'NONE',  ( 0.0000000000000000000, 0.0000000000000000000, 2.244094000000000033 ) ) ;
#99 = AXIS2_PLACEMENT_3D ( 'NONE', #214, #266, #6 ) ;
#100 = AXIS2_PLACEMENT_3D ( 'NONE', #232, #189, #66 ) ;
#101 = MECHANICAL_DESIGN_GEOMETRIC_PRESENTATION_REPRESENTATION (  '', ( #188 ), #106 ) ;
#102 = EDGE_CURVE ( 'NONE', #139, #142, #179, .T. ) ;
#103 = DIRECTION ( 'NONE',  ( -1.224646799147353207E-16, -0.0000000000000000000, -1.000000000000000000 ) ) ;
#104 = CARTESIAN_POINT ( 'NONE',  ( 0.0000000000000000000, 0.0000000000000000000, 2.244094000000000033 ) ) ;
#105 = CARTESIAN_POINT ( 'NONE',  ( -0.09832657499999998552, 0.0000000000000000000, 1.204153253448721512E-17 ) ) ;
#106 =( GEOMETRIC_REPRESENTATION_CONTEXT ( 3 ) GLOBAL_UNCERTAINTY_ASSIGNED_CONTEXT ( ( #96 ) ) GLOBAL_UNIT_ASSIGNED_CONTEXT ( ( #3, #250, #297 ) ) REPRESENTATION_CONTEXT ( 'NONE', 'WORKASPACE' ) );
#107 = CARTESIAN_POINT ( 'NONE',  ( 0.0000000000000000000, 0.0000000000000000000, 0.0000000000000000000 ) ) ;
#108 =( NAMED_UNIT ( * ) PLANE_ANGLE_UNIT ( ) SI_UNIT ( $, .RADIAN. ) );
#109 = FILL_AREA_STYLE ('',( #75 ) ) ;
#110 = ORIENTED_EDGE ( 'NONE', *, *, #102, .F. ) ;
#111 = EDGE_CURVE ( 'NONE', #192, #63, #116, .T. ) ;
#112 = LENGTH_MEASURE_WITH_UNIT ( LENGTH_MEASURE( 0.02539999999999999897 ), #182 );
#113 = FACE_OUTER_BOUND ( 'NONE', #190, .T. ) ;
#114 = ORIENTED_EDGE ( 'NONE', *, *, #235, .F. ) ;
#115 = ORIENTED_EDGE ( 'NONE', *, *, #215, .F. ) ;
#116 = LINE ( 'NONE', #260, #217 ) ;
#117 = CIRCLE ( 'NONE', #161, 0.1181100000000000066 ) ;
#118 = DIRECTION ( 'NONE',  ( 0.0000000000000000000, 0.0000000000000000000, 1.000000000000000000 ) ) ;
#119 =( LENGTH_UNIT ( ) NAMED_UNIT ( * ) SI_UNIT ( $, .METRE. ) );
#120 = ORIENTED_EDGE ( 'NONE', *, *, #263, .F. ) ;
#121 = SURFACE_STYLE_FILL_AREA ( #26 ) ;
#122 = APPLICATION_CONTEXT ( 'automotive_design' ) ;
#123 = ADVANCED_FACE ( 'NONE', ( #124 ), #48, .T. ) ;
#124 = FACE_OUTER_BOUND ( 'NONE', #236, .T. ) ;
#125 = VECTOR ( 'NONE', #185, 39.37007874015748143 ) ;
#126 = DIRECTION ( 'NONE',  ( -1.000000000000000000, 0.0000000000000000000, 1.224646799147353207E-16 ) ) ;
#127 = FACE_OUTER_BOUND ( 'NONE', #298, .T. ) ;
#128 = AXIS2_PLACEMENT_3D ( 'NONE', #129, #33, #208 ) ;
#129 = CARTESIAN_POINT ( 'NONE',  ( 1.350004094801674599E-16, 0.0000000000000000000, 1.102362000000000064 ) ) ;
#130 = ADVANCED_FACE ( 'NONE', ( #1 ), #93, .T. ) ;
#131 = DIRECTION ( 'NONE',  ( 0.1736481776669312749, 0.0000000000000000000, 0.9848077530122077983 ) ) ;
#132 = DIRECTION ( 'NONE',  ( -0.0000000000000000000, -0.0000000000000000000, -1.000000000000000000 ) ) ;
#133 = VECTOR ( 'NONE', #132, 39.37007874015748143 ) ;
#134 = EDGE_CURVE ( 'NONE', #192, #273, #85, .T. ) ;
#135 = ORIENTED_EDGE ( 'NONE', *, *, #215, .T. ) ;
#136 = DIRECTION ( 'NONE',  ( 0.0000000000000000000, 0.0000000000000000000, -1.000000000000000000 ) ) ;
#137 = CIRCLE ( 'NONE', #12, 0.1031100000000002570 ) ;
#138 = CIRCLE ( 'NONE', #46, 0.09832657499999998552 ) ;
#139 = VERTEX_POINT ( 'NONE', #279 ) ;
#140 = ADVANCED_FACE ( 'NONE', ( #149 ), #240, .T. ) ;
#141 = VERTEX_POINT ( 'NONE', #27 ) ;
#142 = VERTEX_POINT ( 'NONE', #72 ) ;
#143 = DIRECTION ( 'NONE',  ( 0.0000000000000000000, 0.0000000000000000000, 1.000000000000000000 ) ) ;
#144 = PRODUCT_DEFINITION_FORMATION_WITH_SPECIFIED_SOURCE ( 'ANY', '', #246, .NOT_KNOWN. ) ;
#145 =( NAMED_UNIT ( * ) SI_UNIT ( $, .STERADIAN. ) SOLID_ANGLE_UNIT ( ) );
#146 = EDGE_LOOP ( 'NONE', ( #254, #88, #110, #90 ) ) ;
#147 = DIRECTION ( 'NONE',  ( -1.000000000000000000, 0.0000000000000000000, 0.0000000000000000000 ) ) ;
#148 = PRODUCT_DEFINITION ( 'UNKNOWN', '', #144, #261 ) ;
#149 = FACE_OUTER_BOUND ( 'NONE', #171, .T. ) ;
#150 = CARTESIAN_POINT ( 'NONE',  ( 0.0000000000000000000, 0.0000000000000000000, 2.244094000000000033 ) ) ;
#151 = CONICAL_SURFACE ( 'NONE', #99, 0.09832657499999998552, 0.1745329251994337805 ) ;
#152 = COLOUR_RGB ( '',0.7921568627450980005, 0.8196078431372548767, 0.9333333333333333481 ) ;
#153 = MANIFOLD_SOLID_BREP ( 'Cut-Revolve1', #281 ) ;
#154 = DIRECTION ( 'NONE',  ( 1.000000000000000000, 0.0000000000000000000, 0.0000000000000000000 ) ) ;
#155 = DIRECTION ( 'NONE',  ( 1.000000000000000000, 0.0000000000000000000, 0.0000000000000000000 ) ) ;
#156 = DIRECTION ( 'NONE',  ( 0.7071067811865358044, 8.659560562354788645E-17, -0.7071067811865590080 ) ) ;
#157 = AXIS2_PLACEMENT_3D ( 'NONE', #13, #87, #228 ) ;
#158 = EDGE_CURVE ( 'NONE', #63, #141, #36, .T. ) ;
#159 =( NAMED_UNIT ( * ) SI_UNIT ( $, .STERADIAN. ) SOLID_ANGLE_UNIT ( ) );
#160 = LINE ( 'NONE', #203, #248 ) ;
#161 = AXIS2_PLACEMENT_3D ( 'NONE', #83, #206, #245 ) ;
#162 = EDGE_CURVE ( 'NONE', #63, #139, #160, .T. ) ;
#163 = SURFACE_STYLE_USAGE ( .BOTH. , #213 ) ;
#164 = ORIENTED_EDGE ( 'NONE', *, *, #235, .T. ) ;
#165 = PRESENTATION_STYLE_ASSIGNMENT (( #163 ) ) ;
#166 = ORIENTED_EDGE ( 'NONE', *, *, #94, .T. ) ;
#167 = PRODUCT_CONTEXT ( 'NONE', #122, 'mechanical' ) ;
#168 = EDGE_LOOP ( 'NONE', ( #249, #164, #252, #70 ) ) ;
#169 = STYLED_ITEM ( 'NONE', ( #86 ), #153 ) ;
#170 = EDGE_LOOP ( 'NONE', ( #221, #197 ) ) ;
#171 = EDGE_LOOP ( 'NONE', ( #47, #257, #68, #291 ) ) ;
#172 = DIRECTION ( 'NONE',  ( -1.224646799147353207E-16, -0.0000000000000000000, -1.000000000000000000 ) ) ;
#173 = LINE ( 'NONE', #243, #299 ) ;
#174 = MECHANICAL_DESIGN_GEOMETRIC_PRESENTATION_REPRESENTATION (  '', ( #169 ), #265 ) ;
#175 = ADVANCED_BREP_SHAPE_REPRESENTATION ( 'Micro_SFPM-050-50', ( #153, #100 ), #212 ) ;
#176 = CARTESIAN_POINT ( 'NONE',  ( -0.09832657499999998552, 0.0000000000000000000, 2.408306506897443024E-17 ) ) ;
#177 = CYLINDRICAL_SURFACE ( 'NONE', #5, 0.1181100000000000066 ) ;
#178 = DIRECTION ( 'NONE',  ( -0.1736481776669310528, 2.126576849575781776E-17, 0.9848077530122080203 ) ) ;
#179 = CIRCLE ( 'NONE', #35, 0.1181100000000000066 ) ;
#180 = CARTESIAN_POINT ( 'NONE',  ( 0.09832657500000012429, 0.0000000000000000000, 1.102362000000000064 ) ) ;
#181 = LINE ( 'NONE', #269, #62 ) ;
#182 =( LENGTH_UNIT ( ) NAMED_UNIT ( * ) SI_UNIT ( $, .METRE. ) );
#183 = EDGE_CURVE ( 'NONE', #65, #64, #138, .T. ) ;
#184 = LENGTH_MEASURE_WITH_UNIT ( LENGTH_MEASURE( 0.02539999999999999897 ), #56 );
#185 = DIRECTION ( 'NONE',  ( -1.224646799147353207E-16, -0.0000000000000000000, -1.000000000000000000 ) ) ;
#186 = EDGE_CURVE ( 'NONE', #142, #139, #117, .T. ) ;
#187 = EDGE_LOOP ( 'NONE', ( #21, #41 ) ) ;
#188 = STYLED_ITEM ( 'NONE', ( #165 ), #175 ) ;
#189 = DIRECTION ( 'NONE',  ( 0.0000000000000000000, 0.0000000000000000000, 1.000000000000000000 ) ) ;
#190 = EDGE_LOOP ( 'NONE', ( #191, #231, #16, #115 ) ) ;
#191 = ORIENTED_EDGE ( 'NONE', *, *, #276, .F. ) ;
#192 = VERTEX_POINT ( 'NONE', #225 ) ;
#193 = CONICAL_SURFACE ( 'NONE', #128, 0.09832657499999998552, 0.1745329251994337805 ) ;
#194 = ORIENTED_EDGE ( 'NONE', *, *, #276, .T. ) ;
#195 = DIRECTION ( 'NONE',  ( 0.0000000000000000000, 0.0000000000000000000, -1.000000000000000000 ) ) ;
#196 = APPLICATION_PROTOCOL_DEFINITION ( 'draft international standard', 'automotive_design', 1998, #122 ) ;
#197 = ORIENTED_EDGE ( 'NONE', *, *, #28, .T. ) ;
#198 = DIRECTION ( 'NONE',  ( 1.000000000000000000, 0.0000000000000000000, -0.0000000000000000000 ) ) ;
#199 = DIRECTION ( 'NONE',  ( -1.224646799147353207E-16, -0.0000000000000000000, -1.000000000000000000 ) ) ;
#200 = DIRECTION ( 'NONE',  ( 0.0000000000000000000, 0.0000000000000000000, 1.000000000000000000 ) ) ;
#201 = EDGE_CURVE ( 'NONE', #141, #142, #247, .T. ) ;
#202 = DIRECTION ( 'NONE',  ( 1.000000000000000000, 0.0000000000000000000, 0.0000000000000000000 ) ) ;
#203 = CARTESIAN_POINT ( 'NONE',  ( -0.1181100000000000066, 0.0000000000000000000, 2.244094000000000033 ) ) ;
#204 = CIRCLE ( 'NONE', #157, 0.09832657499999998552 ) ;
#205 = DIRECTION ( 'NONE',  ( 1.000000000000000000, 0.0000000000000000000, 0.0000000000000000000 ) ) ;
#206 = DIRECTION ( 'NONE',  ( -1.224646799147353207E-16, -0.0000000000000000000, -1.000000000000000000 ) ) ;
#207 = PRESENTATION_LAYER_ASSIGNMENT (  '', '', ( #188 ) ) ;
#208 = DIRECTION ( 'NONE',  ( 1.000000000000000000, 0.0000000000000000000, 0.0000000000000000000 ) ) ;
#209 = ADVANCED_FACE ( 'NONE', ( #127 ), #193, .T. ) ;
#210 = FACE_OUTER_BOUND ( 'NONE', #25, .T. ) ;
#211 = ORIENTED_EDGE ( 'NONE', *, *, #111, .F. ) ;
#212 =( GEOMETRIC_REPRESENTATION_CONTEXT ( 3 ) GLOBAL_UNCERTAINTY_ASSIGNED_CONTEXT ( ( #54 ) ) GLOBAL_UNIT_ASSIGNED_CONTEXT ( ( #38, #295, #145 ) ) REPRESENTATION_CONTEXT ( 'NONE', 'WORKASPACE' ) );
#213 = SURFACE_SIDE_STYLE ('',( #234 ) ) ;
#214 = CARTESIAN_POINT ( 'NONE',  ( 1.350004094801674599E-16, 0.0000000000000000000, 1.102362000000000064 ) ) ;
#215 = EDGE_CURVE ( 'NONE', #278, #142, #11, .T. ) ;
#216 = ORIENTED_EDGE ( 'NONE', *, *, #111, .T. ) ;
#217 = VECTOR ( 'NONE', #23, 39.37007874015748854 ) ;
#218 = DIRECTION ( 'NONE',  ( -0.0000000000000000000, -0.0000000000000000000, -1.000000000000000000 ) ) ;
#219 = ADVANCED_FACE ( 'NONE', ( #9 ), #229, .F. ) ;
#220 = CARTESIAN_POINT ( 'NONE',  ( 0.0000000000000000000, 0.0000000000000000000, 2.229093999999999465 ) ) ;
#221 = ORIENTED_EDGE ( 'NONE', *, *, #183, .T. ) ;
#222 = FACE_OUTER_BOUND ( 'NONE', #168, .T. ) ;
#223 = CARTESIAN_POINT ( 'NONE',  ( 0.0000000000000000000, 0.0000000000000000000, 2.244094000000000033 ) ) ;
#224 = CARTESIAN_POINT ( 'NONE',  ( -0.1181100000000000066, 0.0000000000000000000, 2.229093999999999465 ) ) ;
#225 = CARTESIAN_POINT ( 'NONE',  ( -0.1031100000000002570, 0.0000000000000000000, 2.244094000000000033 ) ) ;
#226 = DIRECTION ( 'NONE',  ( 0.0000000000000000000, 0.0000000000000000000, -1.000000000000000000 ) ) ;
#227 = DIRECTION ( 'NONE',  ( 0.0000000000000000000, 0.0000000000000000000, 1.000000000000000000 ) ) ;
#228 = DIRECTION ( 'NONE',  ( -1.000000000000000000, 0.0000000000000000000, 0.0000000000000000000 ) ) ;
#229 = PLANE ( 'NONE',  #282 ) ;
#230 = AXIS2_PLACEMENT_3D ( 'NONE', #29, #262, #126 ) ;
#231 = ORIENTED_EDGE ( 'NONE', *, *, #82, .T. ) ;
#232 = CARTESIAN_POINT ( 'NONE',  ( 0.0000000000000000000, 0.0000000000000000000, 0.0000000000000000000 ) ) ;
#233 = DIRECTION ( 'NONE',  ( -1.000000000000000000, 0.0000000000000000000, 0.0000000000000000000 ) ) ;
#234 = SURFACE_STYLE_FILL_AREA ( #109 ) ;
#235 = EDGE_CURVE ( 'NONE', #278, #20, #204, .T. ) ;
#236 = EDGE_LOOP ( 'NONE', ( #194, #166, #37, #120 ) ) ;
#237 = COLOUR_RGB ( '',0.7921568627450980005, 0.8196078431372548767, 0.9333333333333333481 ) ;
#238 = CARTESIAN_POINT ( 'NONE',  ( 1.487406255293943111E-16, 0.0000000000000000000, 1.214559378532270140 ) ) ;
#239 = FILL_AREA_STYLE_COLOUR ( '', #152 ) ;
#240 = CYLINDRICAL_SURFACE ( 'NONE', #277, 0.1181100000000000066 ) ;
#241 = DIRECTION ( 'NONE',  ( -1.224646799147353207E-16, -0.0000000000000000000, -1.000000000000000000 ) ) ;
#242 = DIMENSIONAL_EXPONENTS ( 1.000000000000000000, 0.0000000000000000000, 0.0000000000000000000, 0.0000000000000000000, 0.0000000000000000000, 0.0000000000000000000, 0.0000000000000000000 ) ;
#243 = CARTESIAN_POINT ( 'NONE',  ( 0.09832657499999998552, 1.204153253448721512E-17, -1.204153253448721512E-17 ) ) ;
#244 = AXIS2_PLACEMENT_3D ( 'NONE', #2, #103, #79 ) ;
#245 = DIRECTION ( 'NONE',  ( 1.000000000000000000, 0.0000000000000000000, 0.0000000000000000000 ) ) ;
#246 = PRODUCT ( 'Micro_SFPM-050-50', 'Micro_SFPM-050-50', '', ( #167 ) ) ;
#247 = LINE ( 'NONE', #34, #133 ) ;
#248 = VECTOR ( 'NONE', #31, 39.37007874015748143 ) ;
#249 = ORIENTED_EDGE ( 'NONE', *, *, #94, .F. ) ;
#250 =( NAMED_UNIT ( * ) PLANE_ANGLE_UNIT ( ) SI_UNIT ( $, .RADIAN. ) );
#251 = APPLICATION_CONTEXT ( 'automotive_design' ) ;
#252 = ORIENTED_EDGE ( 'NONE', *, *, #263, .T. ) ;
#253 = APPLICATION_PROTOCOL_DEFINITION ( 'draft international standard', 'automotive_design', 1998, #251 ) ;
#254 = ORIENTED_EDGE ( 'NONE', *, *, #158, .T. ) ;
#255 = AXIS2_PLACEMENT_3D ( 'NONE', #104, #118, #202 ) ;
#256 = ORIENTED_EDGE ( 'NONE', *, *, #158, .F. ) ;
#257 = ORIENTED_EDGE ( 'NONE', *, *, #283, .T. ) ;
#258 = FACE_OUTER_BOUND ( 'NONE', #187, .T. ) ;
#259 = PRESENTATION_LAYER_ASSIGNMENT (  '', '', ( #169 ) ) ;
#260 = CARTESIAN_POINT ( 'NONE',  ( -0.1031100000000002570, 0.0000000000000000000, 2.244094000000000033 ) ) ;
#261 = PRODUCT_DEFINITION_CONTEXT ( 'detailed design', #251, 'design' ) ;
#262 = DIRECTION ( 'NONE',  ( -1.224646799147353207E-16, -0.0000000000000000000, -1.000000000000000000 ) ) ;
#263 = EDGE_CURVE ( 'NONE', #20, #65, #8, .T. ) ;
#264 = FACE_OUTER_BOUND ( 'NONE', #146, .T. ) ;
#265 =( GEOMETRIC_REPRESENTATION_CONTEXT ( 3 ) GLOBAL_UNCERTAINTY_ASSIGNED_CONTEXT ( ( #84 ) ) GLOBAL_UNIT_ASSIGNED_CONTEXT ( ( #289, #108, #159 ) ) REPRESENTATION_CONTEXT ( 'NONE', 'WORKASPACE' ) );
#266 = DIRECTION ( 'NONE',  ( 1.224646799147353207E-16, 0.0000000000000000000, 1.000000000000000000 ) ) ;
#267 = DIMENSIONAL_EXPONENTS ( 1.000000000000000000, 0.0000000000000000000, 0.0000000000000000000, 0.0000000000000000000, 0.0000000000000000000, 0.0000000000000000000, 0.0000000000000000000 ) ;
#268 = DIRECTION ( 'NONE',  ( 0.0000000000000000000, 0.0000000000000000000, -1.000000000000000000 ) ) ;
#269 = CARTESIAN_POINT ( 'NONE',  ( 0.1031100000000002570, 1.262733314600838667E-17, 2.244094000000000033 ) ) ;
#270 = AXIS2_PLACEMENT_3D ( 'NONE', #280, #172, #286 ) ;
#271 = CARTESIAN_POINT ( 'NONE',  ( 1.474662427518848307E-33, 0.0000000000000000000, 1.204153253448721512E-17 ) ) ;
#272 = DIRECTION ( 'NONE',  ( -1.000000000000000000, 0.0000000000000000000, 1.224646799147353207E-16 ) ) ;
#273 = VERTEX_POINT ( 'NONE', #55 ) ;
#274 = ORIENTED_EDGE ( 'NONE', *, *, #82, .F. ) ;
#275 = ORIENTED_EDGE ( 'NONE', *, *, #77, .F. ) ;
#276 = EDGE_CURVE ( 'NONE', #20, #278, #287, .T. ) ;
#277 = AXIS2_PLACEMENT_3D ( 'NONE', #80, #218, #147 ) ;
#278 = VERTEX_POINT ( 'NONE', #180 ) ;
#279 = CARTESIAN_POINT ( 'NONE',  ( -0.1181099999999998540, 0.0000000000000000000, 1.214559378532270140 ) ) ;
#280 = CARTESIAN_POINT ( 'NONE',  ( 0.0000000000000000000, 0.0000000000000000000, 0.0000000000000000000 ) ) ;
#281 = CLOSED_SHELL ( 'NONE', ( #123, #24, #15, #71, #140, #57, #130, #209, #67, #219 ) ) ;
#282 = AXIS2_PLACEMENT_3D ( 'NONE', #107, #227, #60 ) ;
#283 = EDGE_CURVE ( 'NONE', #141, #63, #52, .T. ) ;
#284 = SURFACE_SIDE_STYLE ('',( #121 ) ) ;
#285 = LINE ( 'NONE', #50, #92 ) ;
#286 = DIRECTION ( 'NONE',  ( -1.000000000000000000, 0.0000000000000000000, 1.224646799147353207E-16 ) ) ;
#287 = CIRCLE ( 'NONE', #22, 0.09832657499999998552 ) ;
#288 = CARTESIAN_POINT ( 'NONE',  ( 1.350004094801674599E-16, 0.0000000000000000000, 1.102362000000000064 ) ) ;
#289 =( CONVERSION_BASED_UNIT ( 'INCH', #184 ) LENGTH_UNIT ( ) NAMED_UNIT ( #78 ) );
#290 = DIRECTION ( 'NONE',  ( -1.224646799147353207E-16, -0.0000000000000000000, -1.000000000000000000 ) ) ;
#291 = ORIENTED_EDGE ( 'NONE', *, *, #186, .F. ) ;
#292 = EDGE_CURVE ( 'NONE', #273, #141, #181, .T. ) ;
#293 = CARTESIAN_POINT ( 'NONE',  ( 0.0000000000000000000, 0.0000000000000000000, 2.244094000000000033 ) ) ;
#294 = VECTOR ( 'NONE', #131, 39.37007874015748143 ) ;
#295 =( NAMED_UNIT ( * ) PLANE_ANGLE_UNIT ( ) SI_UNIT ( $, .RADIAN. ) );
#296 = EDGE_LOOP ( 'NONE', ( #44, #39, #216, #91 ) ) ;
#297 =( NAMED_UNIT ( * ) SI_UNIT ( $, .STERADIAN. ) SOLID_ANGLE_UNIT ( ) );
#298 = EDGE_LOOP ( 'NONE', ( #274, #114, #135, #69 ) ) ;
#299 = VECTOR ( 'NONE', #199, 39.37007874015748143 ) ;
ENDSEC;
END-ISO-10303-21;
