ISO-10303-21;
HEADER;
FILE_DESCRIPTION (( 'STEP AP214' ),
    '1' );
FILE_NAME ('81456.STEP',
    '2023-06-30T22:26:08',
    ( '' ),
    ( '' ),
    'SwSTEP 2.0',
    'SolidWorks 2023',
    '' );
FILE_SCHEMA (( 'AUTOMOTIVE_DESIGN' ));
ENDSEC;

DATA;
#1 = CARTESIAN_POINT ( 'NONE',  ( 0.000000000000000000, 0.06249999999999991673, -0.06249999999999997918 ) ) ;
#2 =( CONVERSION_BASED_UNIT ( 'INCH', #287 ) LENGTH_UNIT ( ) NAMED_UNIT ( #200 ) );
#3 = CIRCLE ( 'NONE', #55, 0.06249999999999997918 ) ;
#4 = SURFACE_STYLE_FILL_AREA ( #110 ) ;
#5 =( GEOMETRIC_REPRESENTATION_CONTEXT ( 3 ) GLOBAL_UNCERTAINTY_ASSIGNED_CONTEXT ( ( #252 ) ) GLOBAL_UNIT_ASSIGNED_CONTEXT ( ( #89, #240, #34 ) ) REPRESENTATION_CONTEXT ( 'NONE', 'WORKASPACE' ) );
#6 = EDGE_CURVE ( 'NONE', #10, #244, #168, .T. ) ;
#7 = CYLINDRICAL_SURFACE ( 'NONE', #337, 0.06249999999999970857 ) ;
#8 = PRESENTATION_STYLE_ASSIGNMENT (( #326 ) ) ;
#9 = SURFACE_STYLE_FILL_AREA ( #356 ) ;
#10 = VERTEX_POINT ( 'NONE', #99 ) ;
#11 = SPHERICAL_SURFACE ( 'NONE', #281, 0.06249999999999996531 ) ;
#12 = VERTEX_POINT ( 'NONE', #308 ) ;
#13 = CARTESIAN_POINT ( 'NONE',  ( 0.000000000000000000, 0.000000000000000000, 0.000000000000000000 ) ) ;
#14 =( LENGTH_UNIT ( ) NAMED_UNIT ( * ) SI_UNIT ( $, .METRE. ) );
#15 = ORIENTED_EDGE ( 'NONE', *, *, #74, .T. ) ;
#16 = AXIS2_PLACEMENT_3D ( 'NONE', #264, #265, #196 ) ;
#17 = DIRECTION ( 'NONE',  ( -1.191837212941282051E-16, 1.000000000000000000, 0.000000000000000000 ) ) ;
#18 = SURFACE_STYLE_FILL_AREA ( #334 ) ;
#19 = ADVANCED_FACE ( 'NONE', ( #46 ), #341, .F. ) ;
#20 = DIRECTION ( 'NONE',  ( -1.191837212941282051E-16, 1.000000000000000000, -0.000000000000000000 ) ) ;
#21 = AXIS2_PLACEMENT_3D ( 'NONE', #97, #73, #277 ) ;
#22 = CIRCLE ( 'NONE', #318, 0.06249999999999996531 ) ;
#23 = ORIENTED_EDGE ( 'NONE', *, *, #132, .T. ) ;
#24 =( LENGTH_UNIT ( ) NAMED_UNIT ( * ) SI_UNIT ( $, .METRE. ) );
#25 = EDGE_LOOP ( 'NONE', ( #364, #118 ) ) ;
#26 = PRODUCT_DEFINITION_CONTEXT ( 'detailed design', #313, 'design' ) ;
#27 = PRESENTATION_STYLE_ASSIGNMENT (( #31 ) ) ;
#28 =( CONVERSION_BASED_UNIT ( 'INCH', #81 ) LENGTH_UNIT ( ) NAMED_UNIT ( #285 ) );
#29 = EDGE_CURVE ( 'NONE', #49, #12, #312, .T. ) ;
#30 = PRESENTATION_LAYER_ASSIGNMENT (  '', '', ( #186 ) ) ;
#31 = SURFACE_STYLE_USAGE ( .BOTH. , #291 ) ;
#32 = DIRECTION ( 'NONE',  ( -0.000000000000000000, -1.000000000000000000, -0.000000000000000000 ) ) ;
#33 =( CONVERSION_BASED_UNIT ( 'INCH', #57 ) LENGTH_UNIT ( ) NAMED_UNIT ( #229 ) );
#34 =( NAMED_UNIT ( * ) SI_UNIT ( $, .STERADIAN. ) SOLID_ANGLE_UNIT ( ) );
#35 = ORIENTED_EDGE ( 'NONE', *, *, #6, .T. ) ;
#36 = DIRECTION ( 'NONE',  ( 1.000000000000000000, 0.000000000000000000, 0.000000000000000000 ) ) ;
#37 = ORIENTED_EDGE ( 'NONE', *, *, #207, .T. ) ;
#38 = DIRECTION ( 'NONE',  ( 1.000000000000000000, 1.191837212941282051E-16, 0.000000000000000000 ) ) ;
#39 = VECTOR ( 'NONE', #225, 39.37007874015748143 ) ;
#40 = CYLINDRICAL_SURFACE ( 'NONE', #112, 0.06249999999999970857 ) ;
#41 = STYLED_ITEM ( 'NONE', ( #289 ), #158 ) ;
#42 = APPLICATION_PROTOCOL_DEFINITION ( 'draft international standard', 'automotive_design', 1998, #313 ) ;
#43 =( CONVERSION_BASED_UNIT ( 'INCH', #303 ) LENGTH_UNIT ( ) NAMED_UNIT ( #226 ) );
#44 = VERTEX_POINT ( 'NONE', #187 ) ;
#45 = DIRECTION ( 'NONE',  ( 0.000000000000000000, 0.000000000000000000, 1.000000000000000000 ) ) ;
#46 = FACE_OUTER_BOUND ( 'NONE', #25, .T. ) ;
#47 = CLOSED_SHELL ( 'NONE', ( #173, #19, #311, #316 ) ) ;
#48 = AXIS2_PLACEMENT_3D ( 'NONE', #164, #348, #138 ) ;
#49 = VERTEX_POINT ( 'NONE', #336 ) ;
#50 = LINE ( 'NONE', #279, #67 ) ;
#51 = PRESENTATION_LAYER_ASSIGNMENT (  '', '', ( #256 ) ) ;
#52 = PRESENTATION_LAYER_ASSIGNMENT (  '', '', ( #193 ) ) ;
#53 = DIRECTION ( 'NONE',  ( -1.000000000000000000, -1.191837212941282051E-16, 0.000000000000000000 ) ) ;
#54 = SURFACE_SIDE_STYLE ('',( #199 ) ) ;
#55 = AXIS2_PLACEMENT_3D ( 'NONE', #346, #140, #351 ) ;
#56 = SURFACE_STYLE_FILL_AREA ( #349 ) ;
#57 = LENGTH_MEASURE_WITH_UNIT ( LENGTH_MEASURE( 0.02539999999999999897 ), #322 );
#58 = FILL_AREA_STYLE_COLOUR ( '', #361 ) ;
#59 = CARTESIAN_POINT ( 'NONE',  ( 0.000000000000000000, 0.06249999999999991673, 0.000000000000000000 ) ) ;
#60 = LENGTH_MEASURE_WITH_UNIT ( LENGTH_MEASURE( 0.02539999999999999897 ), #90 );
#61 = DIRECTION ( 'NONE',  ( 0.000000000000000000, 0.000000000000000000, -1.000000000000000000 ) ) ;
#62 = PRESENTATION_LAYER_ASSIGNMENT (  '', '', ( #366 ) ) ;
#63 =( NAMED_UNIT ( * ) PLANE_ANGLE_UNIT ( ) SI_UNIT ( $, .RADIAN. ) );
#64 = CARTESIAN_POINT ( 'NONE',  ( 6.123233995736772199E-17, 2.500000000000000000, 0.000000000000000000 ) ) ;
#65 = PLANE ( 'NONE',  #124 ) ;
#66 = CARTESIAN_POINT ( 'NONE',  ( -0.06249999999999975714, 2.500000000000000000, 0.000000000000000000 ) ) ;
#67 = VECTOR ( 'NONE', #20, 39.37007874015748143 ) ;
#68 = AXIS2_PLACEMENT_3D ( 'NONE', #286, #139, #236 ) ;
#69 = UNCERTAINTY_MEASURE_WITH_UNIT (LENGTH_MEASURE( 1.000000000000000082E-05 ), #127, 'distance_accuracy_value', 'NONE');
#70 = ORIENTED_EDGE ( 'NONE', *, *, #183, .T. ) ;
#71 = PRESENTATION_STYLE_ASSIGNMENT (( #188 ) ) ;
#72 = CLOSED_SHELL ( 'NONE', ( #165, #190, #103, #238, #158 ) ) ;
#73 = DIRECTION ( 'NONE',  ( -1.191837212941282051E-16, 1.000000000000000000, -0.000000000000000000 ) ) ;
#74 = EDGE_CURVE ( 'NONE', #102, #49, #300, .T. ) ;
#75 = AXIS2_PLACEMENT_3D ( 'NONE', #228, #154, #307 ) ;
#76 = FILL_AREA_STYLE ('',( #342 ) ) ;
#77 = DIRECTION ( 'NONE',  ( -0.000000000000000000, -1.000000000000000000, -0.000000000000000000 ) ) ;
#78 = CIRCLE ( 'NONE', #75, 0.06249999999999988204 ) ;
#79 = EDGE_CURVE ( 'NONE', #102, #273, #50, .T. ) ;
#80 = FILL_AREA_STYLE ('',( #369 ) ) ;
#81 = LENGTH_MEASURE_WITH_UNIT ( LENGTH_MEASURE( 0.02539999999999999897 ), #129 );
#82 = DIRECTION ( 'NONE',  ( -1.191837212941282051E-16, 1.000000000000000000, -0.000000000000000000 ) ) ;
#83 = FILL_AREA_STYLE_COLOUR ( '', #169 ) ;
#84 = CARTESIAN_POINT ( 'NONE',  ( 7.654042494670945219E-18, 0.7500000000000001110, 0.06249999999999988204 ) ) ;
#85 = CIRCLE ( 'NONE', #16, 0.06249999999999981959 ) ;
#86 =( NAMED_UNIT ( * ) PLANE_ANGLE_UNIT ( ) SI_UNIT ( $, .RADIAN. ) );
#87 = FACE_OUTER_BOUND ( 'NONE', #259, .T. ) ;
#88 = PRESENTATION_STYLE_ASSIGNMENT (( #141 ) ) ;
#89 =( CONVERSION_BASED_UNIT ( 'INCH', #293 ) LENGTH_UNIT ( ) NAMED_UNIT ( #189 ) );
#90 =( LENGTH_UNIT ( ) NAMED_UNIT ( * ) SI_UNIT ( $, .METRE. ) );
#91 = AXIS2_PLACEMENT_3D ( 'NONE', #299, #354, #36 ) ;
#92 =( NAMED_UNIT ( * ) SI_UNIT ( $, .STERADIAN. ) SOLID_ANGLE_UNIT ( ) );
#93 = CARTESIAN_POINT ( 'NONE',  ( 7.654042494670956004E-18, 0.06249999999999991673, 0.06249999999999999306 ) ) ;
#94 = EDGE_LOOP ( 'NONE', ( #15, #128, #255, #333 ) ) ;
#95 =( NAMED_UNIT ( * ) SI_UNIT ( $, .STERADIAN. ) SOLID_ANGLE_UNIT ( ) );
#96 = PRODUCT_DEFINITION ( 'UNKNOWN', '', #296, #26 ) ;
#97 = CARTESIAN_POINT ( 'NONE',  ( 2.698038522220921055E-16, 0.7499999999999998890, 0.000000000000000000 ) ) ;
#98 = ADVANCED_BREP_SHAPE_REPRESENTATION ( '81456', ( #135, #268, #143 ), #113 ) ;
#99 = CARTESIAN_POINT ( 'NONE',  ( -0.06249999999999997918, 0.06249999999999991673, 7.654042494670954463E-18 ) ) ;
#100 = DIMENSIONAL_EXPONENTS ( 1.000000000000000000, 0.000000000000000000, 0.000000000000000000, 0.000000000000000000, 0.000000000000000000, 0.000000000000000000, 0.000000000000000000 ) ;
#101 = ORIENTED_EDGE ( 'NONE', *, *, #108, .T. ) ;
#102 = VERTEX_POINT ( 'NONE', #368 ) ;
#103 = ADVANCED_FACE ( 'NONE', ( #339 ), #222, .T. ) ;
#104 = SURFACE_STYLE_USAGE ( .BOTH. , #371 ) ;
#105 = CARTESIAN_POINT ( 'NONE',  ( 0.000000000000000000, 0.06249999999999991673, 0.000000000000000000 ) ) ;
#106 = VECTOR ( 'NONE', #208, 39.37007874015748143 ) ;
#107 = PRESENTATION_STYLE_ASSIGNMENT (( #104 ) ) ;
#108 = EDGE_CURVE ( 'NONE', #370, #10, #324, .T. ) ;
#109 = LINE ( 'NONE', #258, #106 ) ;
#110 = FILL_AREA_STYLE ('',( #262 ) ) ;
#111 = COLOUR_RGB ( '',1.000000000000000000, 0.000000000000000000, 0.000000000000000000 ) ;
#112 = AXIS2_PLACEMENT_3D ( 'NONE', #119, #330, #182 ) ;
#113 =( GEOMETRIC_REPRESENTATION_CONTEXT ( 3 ) GLOBAL_UNCERTAINTY_ASSIGNED_CONTEXT ( ( #197 ) ) GLOBAL_UNIT_ASSIGNED_CONTEXT ( ( #325, #181, #269 ) ) REPRESENTATION_CONTEXT ( 'NONE', 'WORKASPACE' ) );
#114 = DIRECTION ( 'NONE',  ( -0.000000000000000000, -1.000000000000000000, -0.000000000000000000 ) ) ;
#115 = DIRECTION ( 'NONE',  ( -1.191837212941282051E-16, 1.000000000000000000, -0.000000000000000000 ) ) ;
#116 =( GEOMETRIC_REPRESENTATION_CONTEXT ( 3 ) GLOBAL_UNCERTAINTY_ASSIGNED_CONTEXT ( ( #359 ) ) GLOBAL_UNIT_ASSIGNED_CONTEXT ( ( #43, #146, #95 ) ) REPRESENTATION_CONTEXT ( 'NONE', 'WORKASPACE' ) );
#117 =( CONVERSION_BASED_UNIT ( 'INCH', #272 ) LENGTH_UNIT ( ) NAMED_UNIT ( #253 ) );
#118 = ORIENTED_EDGE ( 'NONE', *, *, #301, .F. ) ;
#119 = CARTESIAN_POINT ( 'NONE',  ( 6.123233995736772199E-17, 2.500000000000000000, 0.000000000000000000 ) ) ;
#120 = EDGE_CURVE ( 'NONE', #220, #370, #224, .T. ) ;
#121 = STYLED_ITEM ( 'NONE', ( #71 ), #103 ) ;
#122 = LENGTH_MEASURE_WITH_UNIT ( LENGTH_MEASURE( 0.02539999999999999897 ), #14 );
#123 = MECHANICAL_DESIGN_GEOMETRIC_PRESENTATION_REPRESENTATION (  '', ( #366 ), #232 ) ;
#124 = AXIS2_PLACEMENT_3D ( 'NONE', #353, #212, #38 ) ;
#125 = EDGE_LOOP ( 'NONE', ( #23, #191 ) ) ;
#126 = EDGE_LOOP ( 'NONE', ( #358, #35, #37, #151 ) ) ;
#127 =( CONVERSION_BASED_UNIT ( 'INCH', #122 ) LENGTH_UNIT ( ) NAMED_UNIT ( #100 ) );
#128 = ORIENTED_EDGE ( 'NONE', *, *, #29, .T. ) ;
#129 =( LENGTH_UNIT ( ) NAMED_UNIT ( * ) SI_UNIT ( $, .METRE. ) );
#130 = AXIS2_PLACEMENT_3D ( 'NONE', #251, #363, #195 ) ;
#131 = MECHANICAL_DESIGN_GEOMETRIC_PRESENTATION_REPRESENTATION (  '', ( #211 ), #5 ) ;
#132 = EDGE_CURVE ( 'NONE', #273, #12, #85, .T. ) ;
#133 = CARTESIAN_POINT ( 'NONE',  ( 7.654042494670948300E-18, 0.000000000000000000, 0.06249999999999993061 ) ) ;
#134 = ORIENTED_EDGE ( 'NONE', *, *, #234, .T. ) ;
#135 = MANIFOLD_SOLID_BREP ( 'Revolve - Cutting Edge', #72 ) ;
#136 = DIRECTION ( 'NONE',  ( 0.000000000000000000, 0.000000000000000000, -1.000000000000000000 ) ) ;
#137 = COLOUR_RGB ( '',1.000000000000000000, 0.000000000000000000, 0.000000000000000000 ) ;
#138 = DIRECTION ( 'NONE',  ( 0.000000000000000000, 0.000000000000000000, -1.000000000000000000 ) ) ;
#139 = DIRECTION ( 'NONE',  ( 0.000000000000000000, 0.000000000000000000, -1.000000000000000000 ) ) ;
#140 = DIRECTION ( 'NONE',  ( -0.000000000000000000, -1.000000000000000000, -0.000000000000000000 ) ) ;
#141 = SURFACE_STYLE_USAGE ( .BOTH. , #373 ) ;
#142 = AXIS2_PLACEMENT_3D ( 'NONE', #292, #82, #201 ) ;
#143 = AXIS2_PLACEMENT_3D ( 'NONE', #13, #148, #323 ) ;
#144 =( NAMED_UNIT ( * ) PLANE_ANGLE_UNIT ( ) SI_UNIT ( $, .RADIAN. ) );
#145 = DIRECTION ( 'NONE',  ( -1.000000000000000000, 0.000000000000000000, 0.000000000000000000 ) ) ;
#146 =( NAMED_UNIT ( * ) PLANE_ANGLE_UNIT ( ) SI_UNIT ( $, .RADIAN. ) );
#147 = EDGE_LOOP ( 'NONE', ( #276, #70, #250, #257, #159 ) ) ;
#148 = DIRECTION ( 'NONE',  ( 0.000000000000000000, 0.000000000000000000, 1.000000000000000000 ) ) ;
#149 = EDGE_LOOP ( 'NONE', ( #178, #297, #367, #185 ) ) ;
#150 = VECTOR ( 'NONE', #260, 39.37007874015748143 ) ;
#151 = ORIENTED_EDGE ( 'NONE', *, *, #153, .T. ) ;
#152 = CIRCLE ( 'NONE', #68, 0.06249999999999996531 ) ;
#153 = EDGE_CURVE ( 'NONE', #220, #44, #152, .T. ) ;
#154 = DIRECTION ( 'NONE',  ( -0.000000000000000000, -1.000000000000000000, -0.000000000000000000 ) ) ;
#155 = ORIENTED_EDGE ( 'NONE', *, *, #183, .F. ) ;
#156 =( NAMED_UNIT ( * ) PLANE_ANGLE_UNIT ( ) SI_UNIT ( $, .RADIAN. ) );
#157 = SURFACE_SIDE_STYLE ('',( #18 ) ) ;
#158 = ADVANCED_FACE ( 'NONE', ( #347 ), #304, .T. ) ;
#159 = ORIENTED_EDGE ( 'NONE', *, *, #108, .F. ) ;
#160 = MECHANICAL_DESIGN_GEOMETRIC_PRESENTATION_REPRESENTATION (  '', ( #186 ), #344 ) ;
#161 = DIRECTION ( 'NONE',  ( 1.224646799147353207E-16, -0.000000000000000000, 1.000000000000000000 ) ) ;
#162 = ORIENTED_EDGE ( 'NONE', *, *, #120, .F. ) ;
#163 = UNCERTAINTY_MEASURE_WITH_UNIT (LENGTH_MEASURE( 1.000000000000000082E-05 ), #2, 'distance_accuracy_value', 'NONE');
#164 = CARTESIAN_POINT ( 'NONE',  ( 0.000000000000000000, 0.000000000000000000, 0.000000000000000000 ) ) ;
#165 = ADVANCED_FACE ( 'NONE', ( #87 ), #11, .T. ) ;
#166 =( LENGTH_UNIT ( ) NAMED_UNIT ( * ) SI_UNIT ( $, .METRE. ) );
#167 = SURFACE_STYLE_USAGE ( .BOTH. , #54 ) ;
#168 = CIRCLE ( 'NONE', #270, 0.06249999999999997918 ) ;
#169 = COLOUR_RGB ( '',1.000000000000000000, 0.000000000000000000, 0.000000000000000000 ) ;
#170 = CARTESIAN_POINT ( 'NONE',  ( 0.06249999999999996531, 0.06249999999999991673, 0.000000000000000000 ) ) ;
#171 = DIRECTION ( 'NONE',  ( 0.000000000000000000, 1.000000000000000000, 0.000000000000000000 ) ) ;
#172 = DIRECTION ( 'NONE',  ( -1.191837212941282051E-16, 1.000000000000000000, -0.000000000000000000 ) ) ;
#173 = ADVANCED_FACE ( 'NONE', ( #219 ), #40, .T. ) ;
#174 = PRESENTATION_LAYER_ASSIGNMENT (  '', '', ( #121 ) ) ;
#175 = MECHANICAL_DESIGN_GEOMETRIC_PRESENTATION_REPRESENTATION (  '', ( #121 ), #261 ) ;
#176 = PRODUCT_DEFINITION_SHAPE ( 'NONE', 'NONE',  #96 ) ;
#177 = SHAPE_DEFINITION_REPRESENTATION ( #176, #98 ) ;
#178 = ORIENTED_EDGE ( 'NONE', *, *, #29, .F. ) ;
#179 = PRODUCT_CONTEXT ( 'NONE', #184, 'mechanical' ) ;
#180 =( GEOMETRIC_REPRESENTATION_CONTEXT ( 3 ) GLOBAL_UNCERTAINTY_ASSIGNED_CONTEXT ( ( #274 ) ) GLOBAL_UNIT_ASSIGNED_CONTEXT ( ( #117, #63, #92 ) ) REPRESENTATION_CONTEXT ( 'NONE', 'WORKASPACE' ) );
#181 =( NAMED_UNIT ( * ) PLANE_ANGLE_UNIT ( ) SI_UNIT ( $, .RADIAN. ) );
#182 = DIRECTION ( 'NONE',  ( -1.000000000000000000, 0.000000000000000000, 0.000000000000000000 ) ) ;
#183 = EDGE_CURVE ( 'NONE', #214, #331, #78, .T. ) ;
#184 = APPLICATION_CONTEXT ( 'automotive_design' ) ;
#185 = ORIENTED_EDGE ( 'NONE', *, *, #221, .F. ) ;
#186 = STYLED_ITEM ( 'NONE', ( #309 ), #190 ) ;
#187 = CARTESIAN_POINT ( 'NONE',  ( -3.827021247335477232E-18, -1.707404996040164512E-17, 0.000000000000000000 ) ) ;
#188 = SURFACE_STYLE_USAGE ( .BOTH. , #157 ) ;
#189 = DIMENSIONAL_EXPONENTS ( 1.000000000000000000, 0.000000000000000000, 0.000000000000000000, 0.000000000000000000, 0.000000000000000000, 0.000000000000000000, 0.000000000000000000 ) ;
#190 = ADVANCED_FACE ( 'NONE', ( #335 ), #282, .T. ) ;
#191 = ORIENTED_EDGE ( 'NONE', *, *, #221, .T. ) ;
#192 = DIRECTION ( 'NONE',  ( 0.000000000000000000, 0.000000000000000000, -1.000000000000000000 ) ) ;
#193 = STYLED_ITEM ( 'NONE', ( #27 ), #238 ) ;
#194 = COLOUR_RGB ( '',0.7921568627450980005, 0.8196078431372548767, 0.9333333333333333481 ) ;
#195 = DIRECTION ( 'NONE',  ( 0.000000000000000000, 0.000000000000000000, -1.000000000000000000 ) ) ;
#196 = DIRECTION ( 'NONE',  ( -1.000000000000000000, 0.000000000000000000, 0.000000000000000000 ) ) ;
#197 = UNCERTAINTY_MEASURE_WITH_UNIT (LENGTH_MEASURE( 1.000000000000000082E-05 ), #325, 'distance_accuracy_value', 'NONE');
#198 = SURFACE_STYLE_FILL_AREA ( #80 ) ;
#199 = SURFACE_STYLE_FILL_AREA ( #320 ) ;
#200 = DIMENSIONAL_EXPONENTS ( 1.000000000000000000, 0.000000000000000000, 0.000000000000000000, 0.000000000000000000, 0.000000000000000000, 0.000000000000000000, 0.000000000000000000 ) ;
#201 = DIRECTION ( 'NONE',  ( -1.000000000000000000, 0.000000000000000000, 0.000000000000000000 ) ) ;
#202 =( LENGTH_UNIT ( ) NAMED_UNIT ( * ) SI_UNIT ( $, .METRE. ) );
#203 = AXIS2_PLACEMENT_3D ( 'NONE', #227, #17, #53 ) ;
#204 = MECHANICAL_DESIGN_GEOMETRIC_PRESENTATION_REPRESENTATION (  '', ( #41 ), #116 ) ;
#205 = CYLINDRICAL_SURFACE ( 'NONE', #48, 0.06249999999999993061 ) ;
#206 =( NAMED_UNIT ( * ) SI_UNIT ( $, .STERADIAN. ) SOLID_ANGLE_UNIT ( ) );
#207 = EDGE_CURVE ( 'NONE', #244, #220, #3, .T. ) ;
#208 = DIRECTION ( 'NONE',  ( -0.000000000000000000, -1.000000000000000000, -0.000000000000000000 ) ) ;
#209 =( LENGTH_UNIT ( ) NAMED_UNIT ( * ) SI_UNIT ( $, .METRE. ) );
#210 = PRESENTATION_LAYER_ASSIGNMENT (  '', '', ( #41 ) ) ;
#211 = STYLED_ITEM ( 'NONE', ( #107 ), #268 ) ;
#212 = DIRECTION ( 'NONE',  ( 1.191837212941282051E-16, -1.000000000000000000, 0.000000000000000000 ) ) ;
#213 = EDGE_CURVE ( 'NONE', #10, #44, #22, .T. ) ;
#214 = VERTEX_POINT ( 'NONE', #84 ) ;
#215 = ORIENTED_EDGE ( 'NONE', *, *, #241, .T. ) ;
#216 = CIRCLE ( 'NONE', #142, 0.06249999999999981959 ) ;
#217 = CARTESIAN_POINT ( 'NONE',  ( 0.000000000000000000, 0.7500000000000001110, -0.06249999999999988204 ) ) ;
#218 = AXIS2_PLACEMENT_3D ( 'NONE', #321, #172, #246 ) ;
#219 = FACE_OUTER_BOUND ( 'NONE', #94, .T. ) ;
#220 = VERTEX_POINT ( 'NONE', #170 ) ;
#221 = EDGE_CURVE ( 'NONE', #12, #273, #216, .T. ) ;
#222 = PLANE ( 'NONE',  #249 ) ;
#223 = CARTESIAN_POINT ( 'NONE',  ( 0.06249999999999977102, 2.500000000000000000, 7.654042494670922108E-18 ) ) ;
#224 = CIRCLE ( 'NONE', #288, 0.06249999999999997918 ) ;
#225 = DIRECTION ( 'NONE',  ( -1.191837212941282051E-16, 1.000000000000000000, -0.000000000000000000 ) ) ;
#226 = DIMENSIONAL_EXPONENTS ( 1.000000000000000000, 0.000000000000000000, 0.000000000000000000, 0.000000000000000000, 0.000000000000000000, 0.000000000000000000, 0.000000000000000000 ) ;
#227 = CARTESIAN_POINT ( 'NONE',  ( 2.698038522220921055E-16, 0.7500000000000001110, 0.000000000000000000 ) ) ;
#228 = CARTESIAN_POINT ( 'NONE',  ( 0.000000000000000000, 0.7500000000000001110, 0.000000000000000000 ) ) ;
#229 = DIMENSIONAL_EXPONENTS ( 1.000000000000000000, 0.000000000000000000, 0.000000000000000000, 0.000000000000000000, 0.000000000000000000, 0.000000000000000000, 0.000000000000000000 ) ;
#230 = EDGE_LOOP ( 'NONE', ( #134, #215, #162, #284, #280 ) ) ;
#231 = FACE_OUTER_BOUND ( 'NONE', #147, .T. ) ;
#232 =( GEOMETRIC_REPRESENTATION_CONTEXT ( 3 ) GLOBAL_UNCERTAINTY_ASSIGNED_CONTEXT ( ( #245 ) ) GLOBAL_UNIT_ASSIGNED_CONTEXT ( ( #33, #144, #350 ) ) REPRESENTATION_CONTEXT ( 'NONE', 'WORKASPACE' ) );
#233 = PRESENTATION_LAYER_ASSIGNMENT (  '', '', ( #211 ) ) ;
#234 = EDGE_CURVE ( 'NONE', #331, #214, #237, .T. ) ;
#235 =( NAMED_UNIT ( * ) SI_UNIT ( $, .STERADIAN. ) SOLID_ANGLE_UNIT ( ) );
#236 = DIRECTION ( 'NONE',  ( -1.000000000000000000, 0.000000000000000000, 0.000000000000000000 ) ) ;
#237 = CIRCLE ( 'NONE', #266, 0.06249999999999988204 ) ;
#238 = ADVANCED_FACE ( 'NONE', ( #231 ), #205, .T. ) ;
#239 = DIRECTION ( 'NONE',  ( -0.000000000000000000, -1.000000000000000000, -0.000000000000000000 ) ) ;
#240 =( NAMED_UNIT ( * ) PLANE_ANGLE_UNIT ( ) SI_UNIT ( $, .RADIAN. ) );
#241 = EDGE_CURVE ( 'NONE', #214, #370, #263, .T. ) ;
#242 = FACE_OUTER_BOUND ( 'NONE', #149, .T. ) ;
#243 = ORIENTED_EDGE ( 'NONE', *, *, #153, .F. ) ;
#244 = VERTEX_POINT ( 'NONE', #1 ) ;
#245 = UNCERTAINTY_MEASURE_WITH_UNIT (LENGTH_MEASURE( 1.000000000000000082E-05 ), #33, 'distance_accuracy_value', 'NONE');
#246 = DIRECTION ( 'NONE',  ( -1.000000000000000000, 0.000000000000000000, 0.000000000000000000 ) ) ;
#247 = CARTESIAN_POINT ( 'NONE',  ( -7.654042494670954463E-18, 0.06249999999999995143, 0.000000000000000000 ) ) ;
#248 = UNCERTAINTY_MEASURE_WITH_UNIT (LENGTH_MEASURE( 1.000000000000000082E-05 ), #28, 'distance_accuracy_value', 'NONE');
#249 = AXIS2_PLACEMENT_3D ( 'NONE', #294, #171, #345 ) ;
#250 = ORIENTED_EDGE ( 'NONE', *, *, #254, .T. ) ;
#251 = CARTESIAN_POINT ( 'NONE',  ( 0.000000000000000000, 0.000000000000000000, 0.000000000000000000 ) ) ;
#252 = UNCERTAINTY_MEASURE_WITH_UNIT (LENGTH_MEASURE( 1.000000000000000082E-05 ), #89, 'distance_accuracy_value', 'NONE');
#253 = DIMENSIONAL_EXPONENTS ( 1.000000000000000000, 0.000000000000000000, 0.000000000000000000, 0.000000000000000000, 0.000000000000000000, 0.000000000000000000, 0.000000000000000000 ) ;
#254 = EDGE_CURVE ( 'NONE', #331, #244, #109, .T. ) ;
#255 = ORIENTED_EDGE ( 'NONE', *, *, #132, .F. ) ;
#256 = STYLED_ITEM ( 'NONE', ( #8 ), #165 ) ;
#257 = ORIENTED_EDGE ( 'NONE', *, *, #6, .F. ) ;
#258 = CARTESIAN_POINT ( 'NONE',  ( 0.000000000000000000, 0.000000000000000000, -0.06249999999999993061 ) ) ;
#259 = EDGE_LOOP ( 'NONE', ( #101, #343, #243, #327 ) ) ;
#260 = DIRECTION ( 'NONE',  ( -0.000000000000000000, -1.000000000000000000, -0.000000000000000000 ) ) ;
#261 =( GEOMETRIC_REPRESENTATION_CONTEXT ( 3 ) GLOBAL_UNCERTAINTY_ASSIGNED_CONTEXT ( ( #248 ) ) GLOBAL_UNIT_ASSIGNED_CONTEXT ( ( #28, #315, #206 ) ) REPRESENTATION_CONTEXT ( 'NONE', 'WORKASPACE' ) );
#262 = FILL_AREA_STYLE_COLOUR ( '', #332 ) ;
#263 = LINE ( 'NONE', #133, #150 ) ;
#264 = CARTESIAN_POINT ( 'NONE',  ( 6.123233995736772199E-17, 2.500000000000000000, 0.000000000000000000 ) ) ;
#265 = DIRECTION ( 'NONE',  ( -1.191837212941282051E-16, 1.000000000000000000, -0.000000000000000000 ) ) ;
#266 = AXIS2_PLACEMENT_3D ( 'NONE', #317, #239, #314 ) ;
#267 = ORIENTED_EDGE ( 'NONE', *, *, #234, .F. ) ;
#268 = MANIFOLD_SOLID_BREP ( 'Revolve - Tool Body (Straight Shanked)', #47 ) ;
#269 =( NAMED_UNIT ( * ) SI_UNIT ( $, .STERADIAN. ) SOLID_ANGLE_UNIT ( ) );
#270 = AXIS2_PLACEMENT_3D ( 'NONE', #365, #77, #192 ) ;
#271 = MECHANICAL_DESIGN_GEOMETRIC_PRESENTATION_REPRESENTATION (  '', ( #256 ), #180 ) ;
#272 = LENGTH_MEASURE_WITH_UNIT ( LENGTH_MEASURE( 0.02539999999999999897 ), #209 );
#273 = VERTEX_POINT ( 'NONE', #66 ) ;
#274 = UNCERTAINTY_MEASURE_WITH_UNIT (LENGTH_MEASURE( 1.000000000000000082E-05 ), #117, 'distance_accuracy_value', 'NONE');
#275 = SURFACE_SIDE_STYLE ('',( #9 ) ) ;
#276 = ORIENTED_EDGE ( 'NONE', *, *, #241, .F. ) ;
#277 = DIRECTION ( 'NONE',  ( -1.000000000000000000, 0.000000000000000000, 0.000000000000000000 ) ) ;
#278 = DIMENSIONAL_EXPONENTS ( 1.000000000000000000, 0.000000000000000000, 0.000000000000000000, 0.000000000000000000, 0.000000000000000000, 0.000000000000000000, 0.000000000000000000 ) ;
#279 = CARTESIAN_POINT ( 'NONE',  ( -0.06249999999999964612, 2.500000000000000000, 0.000000000000000000 ) ) ;
#280 = ORIENTED_EDGE ( 'NONE', *, *, #254, .F. ) ;
#281 = AXIS2_PLACEMENT_3D ( 'NONE', #247, #45, #329 ) ;
#282 = CYLINDRICAL_SURFACE ( 'NONE', #130, 0.06249999999999993061 ) ;
#283 = CIRCLE ( 'NONE', #218, 0.06249999999999961836 ) ;
#284 = ORIENTED_EDGE ( 'NONE', *, *, #207, .F. ) ;
#285 = DIMENSIONAL_EXPONENTS ( 1.000000000000000000, 0.000000000000000000, 0.000000000000000000, 0.000000000000000000, 0.000000000000000000, 0.000000000000000000, 0.000000000000000000 ) ;
#286 = CARTESIAN_POINT ( 'NONE',  ( -7.654042494670954463E-18, 0.06249999999999995143, 0.000000000000000000 ) ) ;
#287 = LENGTH_MEASURE_WITH_UNIT ( LENGTH_MEASURE( 0.02539999999999999897 ), #24 );
#288 = AXIS2_PLACEMENT_3D ( 'NONE', #59, #114, #136 ) ;
#289 = PRESENTATION_STYLE_ASSIGNMENT (( #167 ) ) ;
#290 =( GEOMETRIC_REPRESENTATION_CONTEXT ( 3 ) GLOBAL_UNCERTAINTY_ASSIGNED_CONTEXT ( ( #163 ) ) GLOBAL_UNIT_ASSIGNED_CONTEXT ( ( #2, #86, #235 ) ) REPRESENTATION_CONTEXT ( 'NONE', 'WORKASPACE' ) );
#291 = SURFACE_SIDE_STYLE ('',( #56 ) ) ;
#292 = CARTESIAN_POINT ( 'NONE',  ( 6.123233995736772199E-17, 2.500000000000000000, 0.000000000000000000 ) ) ;
#293 = LENGTH_MEASURE_WITH_UNIT ( LENGTH_MEASURE( 0.02539999999999999897 ), #166 );
#294 = CARTESIAN_POINT ( 'NONE',  ( 0.000000000000000000, 0.7500000000000001110, 0.000000000000000000 ) ) ;
#295 = AXIS2_PLACEMENT_3D ( 'NONE', #105, #32, #61 ) ;
#296 = PRODUCT_DEFINITION_FORMATION_WITH_SPECIFIED_SOURCE ( 'ANY', '', #355, .NOT_KNOWN. ) ;
#297 = ORIENTED_EDGE ( 'NONE', *, *, #301, .T. ) ;
#298 = EDGE_LOOP ( 'NONE', ( #267, #155 ) ) ;
#299 = CARTESIAN_POINT ( 'NONE',  ( -7.654042494670954463E-18, 0.06249999999999995143, 0.000000000000000000 ) ) ;
#300 = CIRCLE ( 'NONE', #21, 0.06249999999999961836 ) ;
#301 = EDGE_CURVE ( 'NONE', #49, #102, #283, .T. ) ;
#302 = APPLICATION_PROTOCOL_DEFINITION ( 'draft international standard', 'automotive_design', 1998, #184 ) ;
#303 = LENGTH_MEASURE_WITH_UNIT ( LENGTH_MEASURE( 0.02539999999999999897 ), #202 );
#304 = SPHERICAL_SURFACE ( 'NONE', #91, 0.06249999999999996531 ) ;
#305 = SURFACE_STYLE_FILL_AREA ( #76 ) ;
#306 = MECHANICAL_DESIGN_GEOMETRIC_PRESENTATION_REPRESENTATION (  '', ( #193 ), #290 ) ;
#307 = DIRECTION ( 'NONE',  ( 0.000000000000000000, 0.000000000000000000, -1.000000000000000000 ) ) ;
#308 = CARTESIAN_POINT ( 'NONE',  ( 0.06249999999999988898, 2.500000000000000000, 7.654042494670928271E-18 ) ) ;
#309 = PRESENTATION_STYLE_ASSIGNMENT (( #340 ) ) ;
#310 = FILL_AREA_STYLE_COLOUR ( '', #111 ) ;
#311 = ADVANCED_FACE ( 'NONE', ( #242 ), #7, .T. ) ;
#312 = LINE ( 'NONE', #223, #39 ) ;
#313 = APPLICATION_CONTEXT ( 'automotive_design' ) ;
#314 = DIRECTION ( 'NONE',  ( 0.000000000000000000, 0.000000000000000000, -1.000000000000000000 ) ) ;
#315 =( NAMED_UNIT ( * ) PLANE_ANGLE_UNIT ( ) SI_UNIT ( $, .RADIAN. ) );
#316 = ADVANCED_FACE ( 'NONE', ( #328 ), #65, .F. ) ;
#317 = CARTESIAN_POINT ( 'NONE',  ( 0.000000000000000000, 0.7500000000000001110, 0.000000000000000000 ) ) ;
#318 = AXIS2_PLACEMENT_3D ( 'NONE', #319, #161, #372 ) ;
#319 = CARTESIAN_POINT ( 'NONE',  ( -7.654042494670954463E-18, 0.06249999999999995143, 0.000000000000000000 ) ) ;
#320 = FILL_AREA_STYLE ('',( #83 ) ) ;
#321 = CARTESIAN_POINT ( 'NONE',  ( 2.698038522220921055E-16, 0.7499999999999998890, 0.000000000000000000 ) ) ;
#322 =( LENGTH_UNIT ( ) NAMED_UNIT ( * ) SI_UNIT ( $, .METRE. ) );
#323 = DIRECTION ( 'NONE',  ( 1.000000000000000000, 0.000000000000000000, 0.000000000000000000 ) ) ;
#324 = CIRCLE ( 'NONE', #295, 0.06249999999999997918 ) ;
#325 =( CONVERSION_BASED_UNIT ( 'INCH', #60 ) LENGTH_UNIT ( ) NAMED_UNIT ( #278 ) );
#326 = SURFACE_STYLE_USAGE ( .BOTH. , #275 ) ;
#327 = ORIENTED_EDGE ( 'NONE', *, *, #120, .T. ) ;
#328 = FACE_OUTER_BOUND ( 'NONE', #125, .T. ) ;
#329 = DIRECTION ( 'NONE',  ( 1.000000000000000000, 0.000000000000000000, 0.000000000000000000 ) ) ;
#330 = DIRECTION ( 'NONE',  ( -1.191837212941282051E-16, 1.000000000000000000, -0.000000000000000000 ) ) ;
#331 = VERTEX_POINT ( 'NONE', #217 ) ;
#332 = COLOUR_RGB ( '',0.7921568627450980005, 0.8196078431372548767, 0.9333333333333333481 ) ;
#333 = ORIENTED_EDGE ( 'NONE', *, *, #79, .F. ) ;
#334 = FILL_AREA_STYLE ('',( #310 ) ) ;
#335 = FACE_OUTER_BOUND ( 'NONE', #230, .T. ) ;
#336 = CARTESIAN_POINT ( 'NONE',  ( 0.06249999999999988898, 0.7499999999999998890, 7.654042494670928271E-18 ) ) ;
#337 = AXIS2_PLACEMENT_3D ( 'NONE', #64, #115, #145 ) ;
#338 = SURFACE_SIDE_STYLE ('',( #305 ) ) ;
#339 = FACE_OUTER_BOUND ( 'NONE', #298, .T. ) ;
#340 = SURFACE_STYLE_USAGE ( .BOTH. , #338 ) ;
#341 = PLANE ( 'NONE',  #203 ) ;
#342 = FILL_AREA_STYLE_COLOUR ( '', #357 ) ;
#343 = ORIENTED_EDGE ( 'NONE', *, *, #213, .T. ) ;
#344 =( GEOMETRIC_REPRESENTATION_CONTEXT ( 3 ) GLOBAL_UNCERTAINTY_ASSIGNED_CONTEXT ( ( #69 ) ) GLOBAL_UNIT_ASSIGNED_CONTEXT ( ( #127, #156, #362 ) ) REPRESENTATION_CONTEXT ( 'NONE', 'WORKASPACE' ) );
#345 = DIRECTION ( 'NONE',  ( 0.000000000000000000, -0.000000000000000000, 1.000000000000000000 ) ) ;
#346 = CARTESIAN_POINT ( 'NONE',  ( 0.000000000000000000, 0.06249999999999991673, 0.000000000000000000 ) ) ;
#347 = FACE_OUTER_BOUND ( 'NONE', #126, .T. ) ;
#348 = DIRECTION ( 'NONE',  ( -0.000000000000000000, -1.000000000000000000, -0.000000000000000000 ) ) ;
#349 = FILL_AREA_STYLE ('',( #58 ) ) ;
#350 =( NAMED_UNIT ( * ) SI_UNIT ( $, .STERADIAN. ) SOLID_ANGLE_UNIT ( ) );
#351 = DIRECTION ( 'NONE',  ( 0.000000000000000000, 0.000000000000000000, -1.000000000000000000 ) ) ;
#352 = PRODUCT_RELATED_PRODUCT_CATEGORY ( 'part', '', ( #355 ) ) ;
#353 = CARTESIAN_POINT ( 'NONE',  ( 0.06249999999999988204, 2.500000000000000000, 0.000000000000000000 ) ) ;
#354 = DIRECTION ( 'NONE',  ( 0.000000000000000000, 0.000000000000000000, 1.000000000000000000 ) ) ;
#355 = PRODUCT ( '81456', '81456', '', ( #179 ) ) ;
#356 = FILL_AREA_STYLE ('',( #360 ) ) ;
#357 = COLOUR_RGB ( '',1.000000000000000000, 0.000000000000000000, 0.000000000000000000 ) ;
#358 = ORIENTED_EDGE ( 'NONE', *, *, #213, .F. ) ;
#359 = UNCERTAINTY_MEASURE_WITH_UNIT (LENGTH_MEASURE( 1.000000000000000082E-05 ), #43, 'distance_accuracy_value', 'NONE');
#360 = FILL_AREA_STYLE_COLOUR ( '', #137 ) ;
#361 = COLOUR_RGB ( '',1.000000000000000000, 0.000000000000000000, 0.000000000000000000 ) ;
#362 =( NAMED_UNIT ( * ) SI_UNIT ( $, .STERADIAN. ) SOLID_ANGLE_UNIT ( ) );
#363 = DIRECTION ( 'NONE',  ( -0.000000000000000000, -1.000000000000000000, -0.000000000000000000 ) ) ;
#364 = ORIENTED_EDGE ( 'NONE', *, *, #74, .F. ) ;
#365 = CARTESIAN_POINT ( 'NONE',  ( 0.000000000000000000, 0.06249999999999991673, 0.000000000000000000 ) ) ;
#366 = STYLED_ITEM ( 'NONE', ( #88 ), #135 ) ;
#367 = ORIENTED_EDGE ( 'NONE', *, *, #79, .T. ) ;
#368 = CARTESIAN_POINT ( 'NONE',  ( -0.06249999999999934081, 0.7499999999999998890, 0.000000000000000000 ) ) ;
#369 = FILL_AREA_STYLE_COLOUR ( '', #194 ) ;
#370 = VERTEX_POINT ( 'NONE', #93 ) ;
#371 = SURFACE_SIDE_STYLE ('',( #198 ) ) ;
#372 = DIRECTION ( 'NONE',  ( 1.000000000000000000, 0.000000000000000000, -1.224646799147353454E-16 ) ) ;
#373 = SURFACE_SIDE_STYLE ('',( #4 ) ) ;
ENDSEC;
END-ISO-10303-21;
