ISO-10303-21;
HEADER;
FILE_DESCRIPTION (( 'STEP AP214' ),
    '1' );
FILE_NAME ('Micro_BMS-018-2X.STEP',
    '2021-09-03T14:54:18',
    ( '' ),
    ( '' ),
    'SwSTEP 2.0',
    'SolidWorks 2020',
    '' );
FILE_SCHEMA (( 'AUTOMOTIVE_DESIGN' ));
ENDSEC;

DATA;
#1 = CONICAL_SURFACE ( 'NONE', #181, 0.04750000000000064587, 0.7853981633974457255 ) ;
#2 = DIRECTION ( 'NONE',  ( 1.000000000000000000, 0.0000000000000000000, 0.0000000000000000000 ) ) ;
#3 = CYLINDRICAL_SURFACE ( 'NONE', #51, 0.06250000000000000000 ) ;
#4 = CLOSED_SHELL ( 'NONE', ( #84, #324, #75, #275, #130, #21, #220, #60, #167, #200, #85 ) ) ;
#5 = CIRCLE ( 'NONE', #133, 0.008990999999999998993 ) ;
#6 = LENGTH_MEASURE_WITH_UNIT ( LENGTH_MEASURE( 0.02539999999999999897 ), #26 );
#7 = CARTESIAN_POINT ( 'NONE',  ( 1.101079937113385482E-18, 0.0000000000000000000, 0.008991000000000000728 ) ) ;
#8 = DIRECTION ( 'NONE',  ( 0.0000000000000000000, 0.0000000000000000000, 1.000000000000000000 ) ) ;
#9 = AXIS2_PLACEMENT_3D ( 'NONE', #143, #325, #321 ) ;
#10 = CARTESIAN_POINT ( 'NONE',  ( -0.04750000000000064587, 0.0000000000000000000, 1.500000000000000222 ) ) ;
#11 = DIRECTION ( 'NONE',  ( -1.224646799147353454E-16, -0.0000000000000000000, -1.000000000000000000 ) ) ;
#12 = DIRECTION ( 'NONE',  ( 1.000000000000000000, 0.0000000000000000000, 0.0000000000000000000 ) ) ;
#13 = EDGE_LOOP ( 'NONE', ( #141, #267 ) ) ;
#14 = DIRECTION ( 'NONE',  ( 0.0000000000000000000, 0.0000000000000000000, 1.000000000000000000 ) ) ;
#15 = PRESENTATION_LAYER_ASSIGNMENT (  '', '', ( #209 ) ) ;
#16 = VERTEX_POINT ( 'NONE', #196 ) ;
#17 = EDGE_CURVE ( 'NONE', #24, #174, #28, .T. ) ;
#18 = LINE ( 'NONE', #219, #303 ) ;
#19 = CARTESIAN_POINT ( 'NONE',  ( 0.0000000000000000000, 0.0000000000000000000, 0.0000000000000000000 ) ) ;
#20 = CARTESIAN_POINT ( 'NONE',  ( 0.0000000000000000000, 0.0000000000000000000, 1.485000000000000764 ) ) ;
#21 = ADVANCED_FACE ( 'NONE', ( #31 ), #3, .T. ) ;
#22 = CIRCLE ( 'NONE', #222, 0.06250000000000000000 ) ;
#23 = APPLICATION_CONTEXT ( 'automotive_design' ) ;
#24 = VERTEX_POINT ( 'NONE', #197 ) ;
#25 = ORIENTED_EDGE ( 'NONE', *, *, #48, .T. ) ;
#26 =( LENGTH_UNIT ( ) NAMED_UNIT ( * ) SI_UNIT ( $, .METRE. ) );
#27 = MANIFOLD_SOLID_BREP ( 'Fillet1', #4 ) ;
#28 = LINE ( 'NONE', #215, #92 ) ;
#29 = EDGE_CURVE ( 'NONE', #88, #64, #251, .T. ) ;
#30 = VECTOR ( 'NONE', #69, 39.37007874015748143 ) ;
#31 = FACE_OUTER_BOUND ( 'NONE', #256, .T. ) ;
#32 = DIRECTION ( 'NONE',  ( -1.224646799147353454E-16, -0.0000000000000000000, -1.000000000000000000 ) ) ;
#33 =( NAMED_UNIT ( * ) SI_UNIT ( $, .STERADIAN. ) SOLID_ANGLE_UNIT ( ) );
#34 = MECHANICAL_DESIGN_GEOMETRIC_PRESENTATION_REPRESENTATION (  '', ( #209 ), #71 ) ;
#35 = VERTEX_POINT ( 'NONE', #134 ) ;
#36 = DIRECTION ( 'NONE',  ( 0.0000000000000000000, 1.000000000000000000, 0.0000000000000000000 ) ) ;
#37 = CARTESIAN_POINT ( 'NONE',  ( 0.0000000000000000000, 0.0000000000000000000, 1.485000000000000764 ) ) ;
#38 = EDGE_CURVE ( 'NONE', #190, #174, #22, .T. ) ;
#39 = DIRECTION ( 'NONE',  ( 1.000000000000000000, 0.0000000000000000000, -0.0000000000000000000 ) ) ;
#40 = VECTOR ( 'NONE', #211, 39.37007874015748143 ) ;
#41 = CYLINDRICAL_SURFACE ( 'NONE', #260, 0.008990999999999998993 ) ;
#42 = VERTEX_POINT ( 'NONE', #54 ) ;
#43 = DIRECTION ( 'NONE',  ( -1.000000000000000000, 0.0000000000000000000, 0.0000000000000000000 ) ) ;
#44 = EDGE_LOOP ( 'NONE', ( #242, #298, #104 ) ) ;
#45 = PRODUCT_CONTEXT ( 'NONE', #23, 'mechanical' ) ;
#46 = STYLED_ITEM ( 'NONE', ( #269 ), #137 ) ;
#47 = EDGE_CURVE ( 'NONE', #192, #42, #55, .T. ) ;
#48 = EDGE_CURVE ( 'NONE', #248, #16, #302, .T. ) ;
#49 = SURFACE_SIDE_STYLE ('',( #77 ) ) ;
#50 = ORIENTED_EDGE ( 'NONE', *, *, #178, .F. ) ;
#51 = AXIS2_PLACEMENT_3D ( 'NONE', #144, #318, #97 ) ;
#52 = CARTESIAN_POINT ( 'NONE',  ( 0.04750000000000064587, 6.735557395310482421E-18, 1.500000000000000222 ) ) ;
#53 = DIRECTION ( 'NONE',  ( 0.0000000000000000000, -1.000000000000000000, 0.0000000000000000000 ) ) ;
#54 = CARTESIAN_POINT ( 'NONE',  ( 0.008991000000000000728, 1.101079937113385097E-18, 0.008990999999999998993 ) ) ;
#55 = CIRCLE ( 'NONE', #139, 0.008991000000000000728 ) ;
#56 = FACE_OUTER_BOUND ( 'NONE', #320, .T. ) ;
#57 = EDGE_CURVE ( 'NONE', #24, #42, #110, .T. ) ;
#58 = ORIENTED_EDGE ( 'NONE', *, *, #146, .F. ) ;
#59 = DIRECTION ( 'NONE',  ( -1.000000000000000000, 0.0000000000000000000, 0.0000000000000000000 ) ) ;
#60 = ADVANCED_FACE ( 'NONE', ( #231 ), #237, .T. ) ;
#61 = DIRECTION ( 'NONE',  ( 0.0000000000000000000, 0.0000000000000000000, -1.000000000000000000 ) ) ;
#62 = CARTESIAN_POINT ( 'NONE',  ( 4.047024377500949802E-17, 0.0000000000000000000, 0.3304646188859224898 ) ) ;
#63 = AXIS2_PLACEMENT_3D ( 'NONE', #273, #282, #59 ) ;
#64 = VERTEX_POINT ( 'NONE', #52 ) ;
#65 = DIRECTION ( 'NONE',  ( 0.0000000000000000000, 0.0000000000000000000, -1.000000000000000000 ) ) ;
#66 = FILL_AREA_STYLE ('',( #109 ) ) ;
#67 = PRODUCT_DEFINITION ( 'UNKNOWN', '', #287, #299 ) ;
#68 = CARTESIAN_POINT ( 'NONE',  ( 0.04750000000000064587, 5.817072295950006528E-18, 1.500000000000000222 ) ) ;
#69 = DIRECTION ( 'NONE',  ( -0.0000000000000000000, -0.0000000000000000000, -1.000000000000000000 ) ) ;
#70 = DIMENSIONAL_EXPONENTS ( 1.000000000000000000, 0.0000000000000000000, 0.0000000000000000000, 0.0000000000000000000, 0.0000000000000000000, 0.0000000000000000000, 0.0000000000000000000 ) ;
#71 =( GEOMETRIC_REPRESENTATION_CONTEXT ( 3 ) GLOBAL_UNCERTAINTY_ASSIGNED_CONTEXT ( ( #294 ) ) GLOBAL_UNIT_ASSIGNED_CONTEXT ( ( #301, #158, #33 ) ) REPRESENTATION_CONTEXT ( 'NONE', 'WORKASPACE' ) );
#72 =( NAMED_UNIT ( * ) PLANE_ANGLE_UNIT ( ) SI_UNIT ( $, .RADIAN. ) );
#73 = EDGE_LOOP ( 'NONE', ( #309, #270, #74, #238 ) ) ;
#74 = ORIENTED_EDGE ( 'NONE', *, *, #166, .T. ) ;
#75 = ADVANCED_FACE ( 'NONE', ( #56 ), #268, .T. ) ;
#76 = CIRCLE ( 'NONE', #255, 0.008990999999999998993 ) ;
#77 = SURFACE_STYLE_FILL_AREA ( #66 ) ;
#78 = SURFACE_SIDE_STYLE ('',( #195 ) ) ;
#79 = CARTESIAN_POINT ( 'NONE',  ( 0.0000000000000000000, 0.0000000000000000000, 1.500000000000000222 ) ) ;
#80 = APPLICATION_CONTEXT ( 'automotive_design' ) ;
#81 = VECTOR ( 'NONE', #313, 39.37007874015748143 ) ;
#82 = DIRECTION ( 'NONE',  ( -1.000000000000000000, 0.0000000000000000000, 0.0000000000000000000 ) ) ;
#83 = CARTESIAN_POINT ( 'NONE',  ( 1.101079937113385482E-18, 0.0000000000000000000, 0.008991000000000000728 ) ) ;
#84 = ADVANCED_FACE ( 'NONE', ( #254 ), #131, .T. ) ;
#85 = ADVANCED_FACE ( 'NONE', ( #132 ), #206, .T. ) ;
#86 = CIRCLE ( 'NONE', #95, 0.008991000000000000728 ) ;
#87 = CARTESIAN_POINT ( 'NONE',  ( 1.101079937113385482E-18, 0.0000000000000000000, 0.008991000000000000728 ) ) ;
#88 = VERTEX_POINT ( 'NONE', #10 ) ;
#89 = FACE_OUTER_BOUND ( 'NONE', #73, .T. ) ;
#90 = DIRECTION ( 'NONE',  ( -1.000000000000000000, 0.0000000000000000000, 1.186884798715496451E-16 ) ) ;
#91 = ORIENTED_EDGE ( 'NONE', *, *, #199, .T. ) ;
#92 = VECTOR ( 'NONE', #226, 39.37007874015748143 ) ;
#93 = ORIENTED_EDGE ( 'NONE', *, *, #300, .F. ) ;
#94 = CARTESIAN_POINT ( 'NONE',  ( 1.651619905670078319E-18, 0.0000000000000000000, 0.0000000000000000000 ) ) ;
#95 = AXIS2_PLACEMENT_3D ( 'NONE', #114, #129, #155 ) ;
#96 = PRODUCT_RELATED_PRODUCT_CATEGORY ( 'part', '', ( #175 ) ) ;
#97 = DIRECTION ( 'NONE',  ( -1.000000000000000000, 0.0000000000000000000, 0.0000000000000000000 ) ) ;
#98 = CARTESIAN_POINT ( 'NONE',  ( 0.06250000000000000000, 7.654042494670956004E-18, 1.500000000000000222 ) ) ;
#99 = CARTESIAN_POINT ( 'NONE',  ( -0.008990999999999997258, 4.377561215892171802E-18, 0.02699999999999999969 ) ) ;
#100 = EDGE_CURVE ( 'NONE', #248, #24, #86, .T. ) ;
#101 = FILL_AREA_STYLE ('',( #247 ) ) ;
#102 = AXIS2_PLACEMENT_3D ( 'NONE', #259, #243, #284 ) ;
#103 = DIRECTION ( 'NONE',  ( 0.0000000000000000000, 0.0000000000000000000, 1.000000000000000000 ) ) ;
#104 = ORIENTED_EDGE ( 'NONE', *, *, #208, .F. ) ;
#105 = ORIENTED_EDGE ( 'NONE', *, *, #279, .T. ) ;
#106 = AXIS2_PLACEMENT_3D ( 'NONE', #308, #135, #205 ) ;
#107 = MECHANICAL_DESIGN_GEOMETRIC_PRESENTATION_REPRESENTATION (  '', ( #46 ), #252 ) ;
#108 =( NAMED_UNIT ( * ) SI_UNIT ( $, .STERADIAN. ) SOLID_ANGLE_UNIT ( ) );
#109 = FILL_AREA_STYLE_COLOUR ( '', #128 ) ;
#110 = LINE ( 'NONE', #182, #230 ) ;
#111 = DIRECTION ( 'NONE',  ( 0.0000000000000000000, 0.0000000000000000000, -1.000000000000000000 ) ) ;
#112 = CIRCLE ( 'NONE', #274, 0.06250000000000000000 ) ;
#113 = AXIS2_PLACEMENT_3D ( 'NONE', #169, #288, #164 ) ;
#114 = CARTESIAN_POINT ( 'NONE',  ( 3.306546357697854427E-18, 0.0000000000000000000, 0.02699999999999999969 ) ) ;
#115 = ORIENTED_EDGE ( 'NONE', *, *, #57, .F. ) ;
#116 = EDGE_CURVE ( 'NONE', #192, #16, #151, .T. ) ;
#117 = EDGE_LOOP ( 'NONE', ( #115, #249, #25, #126 ) ) ;
#118 = FACE_OUTER_BOUND ( 'NONE', #223, .T. ) ;
#119 = CYLINDRICAL_SURFACE ( 'NONE', #113, 0.008990999999999998993 ) ;
#120 = PLANE ( 'NONE',  #281 ) ;
#121 = ORIENTED_EDGE ( 'NONE', *, *, #234, .F. ) ;
#122 = DIRECTION ( 'NONE',  ( -1.224646799147353454E-16, -0.0000000000000000000, -1.000000000000000000 ) ) ;
#123 = DIRECTION ( 'NONE',  ( 0.0000000000000000000, 0.0000000000000000000, -1.000000000000000000 ) ) ;
#124 =( CONVERSION_BASED_UNIT ( 'INCH', #293 ) LENGTH_UNIT ( ) NAMED_UNIT ( #150 ) );
#125 = ORIENTED_EDGE ( 'NONE', *, *, #323, .T. ) ;
#126 = ORIENTED_EDGE ( 'NONE', *, *, #208, .T. ) ;
#127 =( LENGTH_UNIT ( ) NAMED_UNIT ( * ) SI_UNIT ( $, .METRE. ) );
#128 = COLOUR_RGB ( '',0.7921568627450980005, 0.8196078431372548767, 0.9333333333333333481 ) ;
#129 = DIRECTION ( 'NONE',  ( -1.224646799147353454E-16, -0.0000000000000000000, -1.000000000000000000 ) ) ;
#130 = ADVANCED_FACE ( 'NONE', ( #118 ), #310, .T. ) ;
#131 = SPHERICAL_SURFACE ( 'NONE', #187, 0.008991000000000000728 ) ;
#132 = FACE_OUTER_BOUND ( 'NONE', #44, .T. ) ;
#133 = AXIS2_PLACEMENT_3D ( 'NONE', #7, #152, #186 ) ;
#134 = CARTESIAN_POINT ( 'NONE',  ( 0.06250000000000000000, 7.654042494670956004E-18, 1.485000000000000764 ) ) ;
#135 = DIRECTION ( 'NONE',  ( 1.224646799147353207E-16, 1.000000000000000000, -0.0000000000000000000 ) ) ;
#136 = CARTESIAN_POINT ( 'NONE',  ( -0.06250000000000000000, 0.0000000000000000000, 1.500000000000000222 ) ) ;
#137 = ADVANCED_BREP_SHAPE_REPRESENTATION ( 'Micro_BMS-018-2X', ( #27, #304 ), #276 ) ;
#138 = ORIENTED_EDGE ( 'NONE', *, *, #47, .F. ) ;
#139 = AXIS2_PLACEMENT_3D ( 'NONE', #83, #53, #111 ) ;
#140 = DIRECTION ( 'NONE',  ( -0.0000000000000000000, -0.0000000000000000000, -1.000000000000000000 ) ) ;
#141 = ORIENTED_EDGE ( 'NONE', *, *, #29, .T. ) ;
#142 = DIRECTION ( 'NONE',  ( 1.000000000000000000, 0.0000000000000000000, 0.0000000000000000000 ) ) ;
#143 = CARTESIAN_POINT ( 'NONE',  ( 3.306546357697854427E-18, 0.0000000000000000000, 0.02699999999999999969 ) ) ;
#144 = CARTESIAN_POINT ( 'NONE',  ( 0.0000000000000000000, 0.0000000000000000000, 1.500000000000000222 ) ) ;
#145 =( LENGTH_UNIT ( ) NAMED_UNIT ( * ) SI_UNIT ( $, .METRE. ) );
#146 = EDGE_CURVE ( 'NONE', #64, #88, #198, .T. ) ;
#147 = AXIS2_PLACEMENT_3D ( 'NONE', #79, #280, #82 ) ;
#148 =( CONVERSION_BASED_UNIT ( 'INCH', #6 ) LENGTH_UNIT ( ) NAMED_UNIT ( #70 ) );
#149 = ORIENTED_EDGE ( 'NONE', *, *, #116, .T. ) ;
#150 = DIMENSIONAL_EXPONENTS ( 1.000000000000000000, 0.0000000000000000000, 0.0000000000000000000, 0.0000000000000000000, 0.0000000000000000000, 0.0000000000000000000, 0.0000000000000000000 ) ;
#151 = CIRCLE ( 'NONE', #106, 0.008991000000000000728 ) ;
#152 = DIRECTION ( 'NONE',  ( 1.224646799147353454E-16, 0.0000000000000000000, 1.000000000000000000 ) ) ;
#153 = UNCERTAINTY_MEASURE_WITH_UNIT (LENGTH_MEASURE( 1.000000000000000082E-05 ), #124, 'distance_accuracy_value', 'NONE');
#154 = DIRECTION ( 'NONE',  ( 1.000000000000000000, 0.0000000000000000000, 0.0000000000000000000 ) ) ;
#155 = DIRECTION ( 'NONE',  ( -1.000000000000000000, 0.0000000000000000000, 0.0000000000000000000 ) ) ;
#156 = ORIENTED_EDGE ( 'NONE', *, *, #100, .F. ) ;
#157 = ORIENTED_EDGE ( 'NONE', *, *, #38, .T. ) ;
#158 =( NAMED_UNIT ( * ) PLANE_ANGLE_UNIT ( ) SI_UNIT ( $, .RADIAN. ) );
#159 = DIRECTION ( 'NONE',  ( 0.0000000000000000000, 0.0000000000000000000, 1.000000000000000000 ) ) ;
#160 = ORIENTED_EDGE ( 'NONE', *, *, #17, .T. ) ;
#161 = FACE_OUTER_BOUND ( 'NONE', #250, .T. ) ;
#162 = AXIS2_PLACEMENT_3D ( 'NONE', #253, #305, #12 ) ;
#163 = CARTESIAN_POINT ( 'NONE',  ( 0.06250000000000004163, 7.654042494670960626E-18, 0.3304646188859224898 ) ) ;
#164 = DIRECTION ( 'NONE',  ( -1.000000000000000000, 0.0000000000000000000, 1.224646799147353454E-16 ) ) ;
#165 = SURFACE_STYLE_USAGE ( .BOTH. , #49 ) ;
#166 = EDGE_CURVE ( 'NONE', #42, #16, #5, .T. ) ;
#167 = ADVANCED_FACE ( 'NONE', ( #161 ), #311, .T. ) ;
#168 = DIRECTION ( 'NONE',  ( -1.000000000000000000, 0.0000000000000000000, 1.224646799147353454E-16 ) ) ;
#169 = CARTESIAN_POINT ( 'NONE',  ( 0.0000000000000000000, 0.0000000000000000000, 0.0000000000000000000 ) ) ;
#170 = AXIS2_PLACEMENT_3D ( 'NONE', #37, #65, #142 ) ;
#171 = DIMENSIONAL_EXPONENTS ( 1.000000000000000000, 0.0000000000000000000, 0.0000000000000000000, 0.0000000000000000000, 0.0000000000000000000, 0.0000000000000000000, 0.0000000000000000000 ) ;
#172 =( NAMED_UNIT ( * ) PLANE_ANGLE_UNIT ( ) SI_UNIT ( $, .RADIAN. ) );
#173 = ORIENTED_EDGE ( 'NONE', *, *, #38, .F. ) ;
#174 = VERTEX_POINT ( 'NONE', #163 ) ;
#175 = PRODUCT ( 'Micro_BMS-018-2X', 'Micro_BMS-018-2X', '', ( #45 ) ) ;
#176 = CIRCLE ( 'NONE', #216, 0.06250000000000000000 ) ;
#177 = SURFACE_STYLE_USAGE ( .BOTH. , #78 ) ;
#178 = EDGE_CURVE ( 'NONE', #248, #190, #18, .T. ) ;
#179 = ORIENTED_EDGE ( 'NONE', *, *, #300, .T. ) ;
#180 = CARTESIAN_POINT ( 'NONE',  ( 1.101079937113385482E-18, 0.0000000000000000000, 0.008991000000000000728 ) ) ;
#181 = AXIS2_PLACEMENT_3D ( 'NONE', #236, #123, #43 ) ;
#182 = CARTESIAN_POINT ( 'NONE',  ( 0.008990999999999998993, 1.101079937113385097E-18, -1.101079937113385289E-18 ) ) ;
#183 = CIRCLE ( 'NONE', #170, 0.06250000000000000000 ) ;
#184 = COLOUR_RGB ( '',0.7921568627450980005, 0.8196078431372548767, 0.9333333333333333481 ) ;
#185 = DIRECTION ( 'NONE',  ( -0.1736481776669311639, 2.126576849575782392E-17, 0.9848077530122080203 ) ) ;
#186 = DIRECTION ( 'NONE',  ( -1.000000000000000000, 0.0000000000000000000, 1.186884798715496451E-16 ) ) ;
#187 = AXIS2_PLACEMENT_3D ( 'NONE', #180, #257, #154 ) ;
#188 = ORIENTED_EDGE ( 'NONE', *, *, #272, .T. ) ;
#189 = FACE_OUTER_BOUND ( 'NONE', #13, .T. ) ;
#190 = VERTEX_POINT ( 'NONE', #285 ) ;
#191 = CARTESIAN_POINT ( 'NONE',  ( -0.06250000000000000000, 0.0000000000000000000, 1.485000000000000764 ) ) ;
#192 = VERTEX_POINT ( 'NONE', #94 ) ;
#193 = LINE ( 'NONE', #291, #40 ) ;
#194 = APPLICATION_PROTOCOL_DEFINITION ( 'draft international standard', 'automotive_design', 1998, #23 ) ;
#195 = SURFACE_STYLE_FILL_AREA ( #101 ) ;
#196 = CARTESIAN_POINT ( 'NONE',  ( -0.008990999999999998993, 0.0000000000000000000, 0.008991000000000000728 ) ) ;
#197 = CARTESIAN_POINT ( 'NONE',  ( 0.008991000000000004197, 0.0000000000000000000, 0.02699999999999999969 ) ) ;
#198 = CIRCLE ( 'NONE', #265, 0.04750000000000064587 ) ;
#199 = EDGE_CURVE ( 'NONE', #316, #35, #176, .T. ) ;
#200 = ADVANCED_FACE ( 'NONE', ( #315 ), #119, .T. ) ;
#201 = ORIENTED_EDGE ( 'NONE', *, *, #323, .F. ) ;
#202 = LENGTH_MEASURE_WITH_UNIT ( LENGTH_MEASURE( 0.02539999999999999897 ), #127 );
#203 = DIRECTION ( 'NONE',  ( 1.000000000000000000, 0.0000000000000000000, 0.0000000000000000000 ) ) ;
#204 = AXIS2_PLACEMENT_3D ( 'NONE', #87, #36, #233 ) ;
#205 = DIRECTION ( 'NONE',  ( -1.000000000000000000, 1.224646799147353207E-16, 0.0000000000000000000 ) ) ;
#206 = SPHERICAL_SURFACE ( 'NONE', #204, 0.008991000000000000728 ) ;
#207 = CARTESIAN_POINT ( 'NONE',  ( 4.047024377500949802E-17, 0.0000000000000000000, 0.3304646188859224898 ) ) ;
#208 = EDGE_CURVE ( 'NONE', #16, #42, #76, .T. ) ;
#209 = STYLED_ITEM ( 'NONE', ( #263 ), #27 ) ;
#210 = EDGE_LOOP ( 'NONE', ( #58, #125, #312, #93 ) ) ;
#211 = DIRECTION ( 'NONE',  ( -0.7071067811865456854, 0.0000000000000000000, -0.7071067811865493491 ) ) ;
#212 = ORIENTED_EDGE ( 'NONE', *, *, #234, .T. ) ;
#213 = DIRECTION ( 'NONE',  ( -1.224646799147353454E-16, -0.0000000000000000000, -1.000000000000000000 ) ) ;
#214 = CARTESIAN_POINT ( 'NONE',  ( 1.101079937113385482E-18, 0.0000000000000000000, 0.008991000000000000728 ) ) ;
#215 = CARTESIAN_POINT ( 'NONE',  ( 0.008991000000000004197, 0.0000000000000000000, 0.02699999999999999969 ) ) ;
#216 = AXIS2_PLACEMENT_3D ( 'NONE', #20, #61, #317 ) ;
#217 = ORIENTED_EDGE ( 'NONE', *, *, #225, .F. ) ;
#218 = CARTESIAN_POINT ( 'NONE',  ( 0.0000000000000000000, 0.0000000000000000000, 1.500000000000000222 ) ) ;
#219 = CARTESIAN_POINT ( 'NONE',  ( -0.008990999999999997258, 1.101079937113385289E-18, 0.02699999999999999969 ) ) ;
#220 = ADVANCED_FACE ( 'NONE', ( #189 ), #120, .T. ) ;
#221 = CARTESIAN_POINT ( 'NONE',  ( 0.0000000000000000000, 0.0000000000000000000, 0.0000000000000000000 ) ) ;
#222 = AXIS2_PLACEMENT_3D ( 'NONE', #207, #11, #203 ) ;
#223 = EDGE_LOOP ( 'NONE', ( #91, #188, #173, #264 ) ) ;
#224 = APPLICATION_PROTOCOL_DEFINITION ( 'draft international standard', 'automotive_design', 1998, #80 ) ;
#225 = EDGE_CURVE ( 'NONE', #24, #248, #292, .T. ) ;
#226 = DIRECTION ( 'NONE',  ( 0.1736481776669313304, 0.0000000000000000000, 0.9848077530122077983 ) ) ;
#227 = AXIS2_PLACEMENT_3D ( 'NONE', #297, #8, #278 ) ;
#228 = DIRECTION ( 'NONE',  ( 1.000000000000000000, 0.0000000000000000000, 0.0000000000000000000 ) ) ;
#229 = DIRECTION ( 'NONE',  ( -1.224646799147353454E-16, -0.0000000000000000000, -1.000000000000000000 ) ) ;
#230 = VECTOR ( 'NONE', #32, 39.37007874015748143 ) ;
#231 = FACE_OUTER_BOUND ( 'NONE', #271, .T. ) ;
#232 = ORIENTED_EDGE ( 'NONE', *, *, #279, .F. ) ;
#233 = DIRECTION ( 'NONE',  ( 1.000000000000000000, 0.0000000000000000000, 0.0000000000000000000 ) ) ;
#234 = EDGE_CURVE ( 'NONE', #35, #316, #183, .T. ) ;
#235 = ORIENTED_EDGE ( 'NONE', *, *, #266, .T. ) ;
#236 = CARTESIAN_POINT ( 'NONE',  ( 0.0000000000000000000, 0.0000000000000000000, 1.500000000000000222 ) ) ;
#237 = CONICAL_SURFACE ( 'NONE', #147, 0.04750000000000064587, 0.7853981633974457255 ) ;
#238 = ORIENTED_EDGE ( 'NONE', *, *, #48, .F. ) ;
#239 = LINE ( 'NONE', #98, #30 ) ;
#240 = ORIENTED_EDGE ( 'NONE', *, *, #178, .T. ) ;
#241 = LINE ( 'NONE', #136, #286 ) ;
#242 = ORIENTED_EDGE ( 'NONE', *, *, #116, .F. ) ;
#243 = DIRECTION ( 'NONE',  ( 1.224646799147353454E-16, 0.0000000000000000000, 1.000000000000000000 ) ) ;
#244 = VECTOR ( 'NONE', #229, 39.37007874015748143 ) ;
#245 = DIRECTION ( 'NONE',  ( 1.224646799147353454E-16, 0.0000000000000000000, 1.000000000000000000 ) ) ;
#246 = UNCERTAINTY_MEASURE_WITH_UNIT (LENGTH_MEASURE( 1.000000000000000082E-05 ), #148, 'distance_accuracy_value', 'NONE');
#247 = FILL_AREA_STYLE_COLOUR ( '', #184 ) ;
#248 = VERTEX_POINT ( 'NONE', #99 ) ;
#249 = ORIENTED_EDGE ( 'NONE', *, *, #225, .T. ) ;
#250 = EDGE_LOOP ( 'NONE', ( #50, #217, #160, #105 ) ) ;
#251 = CIRCLE ( 'NONE', #227, 0.04750000000000064587 ) ;
#252 =( GEOMETRIC_REPRESENTATION_CONTEXT ( 3 ) GLOBAL_UNCERTAINTY_ASSIGNED_CONTEXT ( ( #246 ) ) GLOBAL_UNIT_ASSIGNED_CONTEXT ( ( #148, #172, #108 ) ) REPRESENTATION_CONTEXT ( 'NONE', 'WORKASPACE' ) );
#253 = CARTESIAN_POINT ( 'NONE',  ( 3.306546357697854427E-18, 0.0000000000000000000, 0.02699999999999999969 ) ) ;
#254 = FACE_OUTER_BOUND ( 'NONE', #289, .T. ) ;
#255 = AXIS2_PLACEMENT_3D ( 'NONE', #214, #245, #90 ) ;
#256 = EDGE_LOOP ( 'NONE', ( #283, #212, #235, #232 ) ) ;
#257 = DIRECTION ( 'NONE',  ( 0.0000000000000000000, 1.000000000000000000, 0.0000000000000000000 ) ) ;
#258 = CARTESIAN_POINT ( 'NONE',  ( 0.0000000000000000000, 0.0000000000000000000, 1.500000000000000222 ) ) ;
#259 = CARTESIAN_POINT ( 'NONE',  ( 3.306546357697854427E-18, 0.0000000000000000000, 0.02699999999999999969 ) ) ;
#260 = AXIS2_PLACEMENT_3D ( 'NONE', #19, #122, #168 ) ;
#261 = DIRECTION ( 'NONE',  ( 1.000000000000000000, 0.0000000000000000000, 0.0000000000000000000 ) ) ;
#262 = FACE_OUTER_BOUND ( 'NONE', #210, .T. ) ;
#263 = PRESENTATION_STYLE_ASSIGNMENT (( #165 ) ) ;
#264 = ORIENTED_EDGE ( 'NONE', *, *, #266, .F. ) ;
#265 = AXIS2_PLACEMENT_3D ( 'NONE', #258, #159, #228 ) ;
#266 = EDGE_CURVE ( 'NONE', #316, #190, #241, .T. ) ;
#267 = ORIENTED_EDGE ( 'NONE', *, *, #146, .T. ) ;
#268 = CONICAL_SURFACE ( 'NONE', #162, 0.008991000000000000728, 0.1745329251994338360 ) ;
#269 = PRESENTATION_STYLE_ASSIGNMENT (( #177 ) ) ;
#270 = ORIENTED_EDGE ( 'NONE', *, *, #57, .T. ) ;
#271 = EDGE_LOOP ( 'NONE', ( #201, #322, #179, #121 ) ) ;
#272 = EDGE_CURVE ( 'NONE', #35, #174, #239, .T. ) ;
#273 = CARTESIAN_POINT ( 'NONE',  ( 0.0000000000000000000, 0.0000000000000000000, 1.500000000000000222 ) ) ;
#274 = AXIS2_PLACEMENT_3D ( 'NONE', #62, #213, #261 ) ;
#275 = ADVANCED_FACE ( 'NONE', ( #262 ), #1, .T. ) ;
#276 =( GEOMETRIC_REPRESENTATION_CONTEXT ( 3 ) GLOBAL_UNCERTAINTY_ASSIGNED_CONTEXT ( ( #153 ) ) GLOBAL_UNIT_ASSIGNED_CONTEXT ( ( #124, #72, #295 ) ) REPRESENTATION_CONTEXT ( 'NONE', 'WORKASPACE' ) );
#277 = CARTESIAN_POINT ( 'NONE',  ( -0.008990999999999998993, 0.0000000000000000000, 1.101079937113385289E-18 ) ) ;
#278 = DIRECTION ( 'NONE',  ( 1.000000000000000000, 0.0000000000000000000, 0.0000000000000000000 ) ) ;
#279 = EDGE_CURVE ( 'NONE', #174, #190, #112, .T. ) ;
#280 = DIRECTION ( 'NONE',  ( 0.0000000000000000000, 0.0000000000000000000, -1.000000000000000000 ) ) ;
#281 = AXIS2_PLACEMENT_3D ( 'NONE', #218, #14, #39 ) ;
#282 = DIRECTION ( 'NONE',  ( -0.0000000000000000000, -0.0000000000000000000, -1.000000000000000000 ) ) ;
#283 = ORIENTED_EDGE ( 'NONE', *, *, #272, .F. ) ;
#284 = DIRECTION ( 'NONE',  ( 1.000000000000000000, 0.0000000000000000000, 0.0000000000000000000 ) ) ;
#285 = CARTESIAN_POINT ( 'NONE',  ( -0.06249999999999995837, 0.0000000000000000000, 0.3304646188859224898 ) ) ;
#286 = VECTOR ( 'NONE', #140, 39.37007874015748143 ) ;
#287 = PRODUCT_DEFINITION_FORMATION_WITH_SPECIFIED_SOURCE ( 'ANY', '', #175, .NOT_KNOWN. ) ;
#288 = DIRECTION ( 'NONE',  ( -1.224646799147353454E-16, -0.0000000000000000000, -1.000000000000000000 ) ) ;
#289 = EDGE_LOOP ( 'NONE', ( #138, #149, #314 ) ) ;
#290 = LINE ( 'NONE', #68, #81 ) ;
#291 = CARTESIAN_POINT ( 'NONE',  ( -0.04750000000000064587, 0.0000000000000000000, 1.500000000000000222 ) ) ;
#292 = CIRCLE ( 'NONE', #9, 0.008991000000000000728 ) ;
#293 = LENGTH_MEASURE_WITH_UNIT ( LENGTH_MEASURE( 0.02539999999999999897 ), #145 );
#294 = UNCERTAINTY_MEASURE_WITH_UNIT (LENGTH_MEASURE( 1.000000000000000082E-05 ), #301, 'distance_accuracy_value', 'NONE');
#295 =( NAMED_UNIT ( * ) SI_UNIT ( $, .STERADIAN. ) SOLID_ANGLE_UNIT ( ) );
#296 = SHAPE_DEFINITION_REPRESENTATION ( #307, #137 ) ;
#297 = CARTESIAN_POINT ( 'NONE',  ( 0.0000000000000000000, 0.0000000000000000000, 1.500000000000000222 ) ) ;
#298 = ORIENTED_EDGE ( 'NONE', *, *, #47, .T. ) ;
#299 = PRODUCT_DEFINITION_CONTEXT ( 'detailed design', #80, 'design' ) ;
#300 = EDGE_CURVE ( 'NONE', #88, #316, #193, .T. ) ;
#301 =( CONVERSION_BASED_UNIT ( 'INCH', #202 ) LENGTH_UNIT ( ) NAMED_UNIT ( #171 ) );
#302 = LINE ( 'NONE', #277, #244 ) ;
#303 = VECTOR ( 'NONE', #185, 39.37007874015747433 ) ;
#304 = AXIS2_PLACEMENT_3D ( 'NONE', #221, #103, #2 ) ;
#305 = DIRECTION ( 'NONE',  ( 1.224646799147353454E-16, 0.0000000000000000000, 1.000000000000000000 ) ) ;
#306 = ORIENTED_EDGE ( 'NONE', *, *, #17, .F. ) ;
#307 = PRODUCT_DEFINITION_SHAPE ( 'NONE', 'NONE',  #67 ) ;
#308 = CARTESIAN_POINT ( 'NONE',  ( 1.101079937113385482E-18, 0.0000000000000000000, 0.008991000000000000728 ) ) ;
#309 = ORIENTED_EDGE ( 'NONE', *, *, #100, .T. ) ;
#310 = CYLINDRICAL_SURFACE ( 'NONE', #63, 0.06250000000000000000 ) ;
#311 = CONICAL_SURFACE ( 'NONE', #102, 0.008991000000000000728, 0.1745329251994338360 ) ;
#312 = ORIENTED_EDGE ( 'NONE', *, *, #199, .F. ) ;
#313 = DIRECTION ( 'NONE',  ( 0.7071067811865456854, 8.659560562354911904E-17, -0.7071067811865493491 ) ) ;
#314 = ORIENTED_EDGE ( 'NONE', *, *, #166, .F. ) ;
#315 = FACE_OUTER_BOUND ( 'NONE', #117, .T. ) ;
#316 = VERTEX_POINT ( 'NONE', #191 ) ;
#317 = DIRECTION ( 'NONE',  ( 1.000000000000000000, 0.0000000000000000000, 0.0000000000000000000 ) ) ;
#318 = DIRECTION ( 'NONE',  ( -0.0000000000000000000, -0.0000000000000000000, -1.000000000000000000 ) ) ;
#319 = PRESENTATION_LAYER_ASSIGNMENT (  '', '', ( #46 ) ) ;
#320 = EDGE_LOOP ( 'NONE', ( #156, #240, #157, #306 ) ) ;
#321 = DIRECTION ( 'NONE',  ( -1.000000000000000000, 0.0000000000000000000, 0.0000000000000000000 ) ) ;
#322 = ORIENTED_EDGE ( 'NONE', *, *, #29, .F. ) ;
#323 = EDGE_CURVE ( 'NONE', #64, #35, #290, .T. ) ;
#324 = ADVANCED_FACE ( 'NONE', ( #89 ), #41, .T. ) ;
#325 = DIRECTION ( 'NONE',  ( -1.224646799147353454E-16, -0.0000000000000000000, -1.000000000000000000 ) ) ;
ENDSEC;
END-ISO-10303-21;
