ISO-10303-21;
HEADER;
FILE_DESCRIPTION (( 'STEP AP214' ),
    '1' );
FILE_NAME ('Micro_BEMM-160-3X.STEP',
    '2021-09-03T13:36:14',
    ( '' ),
    ( '' ),
    'SwSTEP 2.0',
    'SolidWorks 2020',
    '' );
FILE_SCHEMA (( 'AUTOMOTIVE_DESIGN' ));
ENDSEC;

DATA;
#1 = EDGE_CURVE ( 'NONE', #104, #155, #159, .T. ) ;
#2 = AXIS2_PLACEMENT_3D ( 'NONE', #38, #41, #87 ) ;
#3 = PRODUCT_RELATED_PRODUCT_CATEGORY ( 'part', '', ( #113 ) ) ;
#4 = DIRECTION ( 'NONE',  ( -1.224646799147353207E-16, -0.0000000000000000000, -1.000000000000000000 ) ) ;
#5 = VERTEX_POINT ( 'NONE', #68 ) ;
#6 = CARTESIAN_POINT ( 'NONE',  ( -0.2999604999999996857, 0.0000000000000000000, 3.622047000000000239 ) ) ;
#7 = ORIENTED_EDGE ( 'NONE', *, *, #78, .F. ) ;
#8 = SPHERICAL_SURFACE ( 'NONE', #179, 0.3146455394999999600 ) ;
#9 = ORIENTED_EDGE ( 'NONE', *, *, #207, .F. ) ;
#10 = CARTESIAN_POINT ( 'NONE',  ( 1.687505730825492758E-16, 0.0000000000000000000, 1.377952999999999983 ) ) ;
#11 = ORIENTED_EDGE ( 'NONE', *, *, #207, .T. ) ;
#12 = SURFACE_STYLE_USAGE ( .BOTH. , #103 ) ;
#13 = ADVANCED_FACE ( 'NONE', ( #213 ), #122, .T. ) ;
#14 = AXIS2_PLACEMENT_3D ( 'NONE', #158, #228, #306 ) ;
#15 = DIRECTION ( 'NONE',  ( 0.0000000000000000000, 0.0000000000000000000, 1.000000000000000000 ) ) ;
#16 = LINE ( 'NONE', #61, #303 ) ;
#17 = DIRECTION ( 'NONE',  ( 1.224646799147353207E-16, 0.0000000000000000000, 1.000000000000000000 ) ) ;
#18 = EDGE_CURVE ( 'NONE', #259, #150, #204, .T. ) ;
#19 = CARTESIAN_POINT ( 'NONE',  ( 3.853296528146670183E-17, 0.0000000000000000000, 0.3146455394999999600 ) ) ;
#20 = AXIS2_PLACEMENT_3D ( 'NONE', #190, #46, #140 ) ;
#21 = DIRECTION ( 'NONE',  ( 0.0000000000000000000, -1.000000000000000000, 0.0000000000000000000 ) ) ;
#22 = CARTESIAN_POINT ( 'NONE',  ( 0.0000000000000000000, 0.0000000000000000000, 3.622047000000000239 ) ) ;
#23 = DIRECTION ( 'NONE',  ( -0.0000000000000000000, -0.0000000000000000000, -1.000000000000000000 ) ) ;
#24 = PRODUCT_DEFINITION ( 'UNKNOWN', '', #317, #193 ) ;
#25 = CIRCLE ( 'NONE', #161, 0.3149604999999999766 ) ;
#26 = ORIENTED_EDGE ( 'NONE', *, *, #170, .F. ) ;
#27 = DIRECTION ( 'NONE',  ( 1.000000000000000000, 0.0000000000000000000, 0.0000000000000000000 ) ) ;
#28 = ORIENTED_EDGE ( 'NONE', *, *, #195, .T. ) ;
#29 = AXIS2_PLACEMENT_3D ( 'NONE', #245, #86, #215 ) ;
#30 = EDGE_LOOP ( 'NONE', ( #153, #281 ) ) ;
#31 = LINE ( 'NONE', #75, #295 ) ;
#32 = VERTEX_POINT ( 'NONE', #166 ) ;
#33 = ADVANCED_FACE ( 'NONE', ( #318 ), #291, .T. ) ;
#34 = FACE_OUTER_BOUND ( 'NONE', #252, .T. ) ;
#35 = ORIENTED_EDGE ( 'NONE', *, *, #76, .T. ) ;
#36 =( LENGTH_UNIT ( ) NAMED_UNIT ( * ) SI_UNIT ( $, .METRE. ) );
#37 = DIRECTION ( 'NONE',  ( 1.000000000000000000, 0.0000000000000000000, 0.0000000000000000000 ) ) ;
#38 = CARTESIAN_POINT ( 'NONE',  ( 0.0000000000000000000, 0.0000000000000000000, 0.0000000000000000000 ) ) ;
#39 = ADVANCED_FACE ( 'NONE', ( #290 ), #40, .T. ) ;
#40 = CYLINDRICAL_SURFACE ( 'NONE', #20, 0.3146455394999999600 ) ;
#41 = DIRECTION ( 'NONE',  ( 0.0000000000000000000, 0.0000000000000000000, 1.000000000000000000 ) ) ;
#42 = DIRECTION ( 'NONE',  ( -1.000000000000000000, 0.0000000000000000000, 0.0000000000000000000 ) ) ;
#43 = AXIS2_PLACEMENT_3D ( 'NONE', #160, #263, #37 ) ;
#44 = VECTOR ( 'NONE', #254, 39.37007874015748143 ) ;
#45 = CARTESIAN_POINT ( 'NONE',  ( 1.687505730825492758E-16, 0.0000000000000000000, 1.377952999999999983 ) ) ;
#46 = DIRECTION ( 'NONE',  ( -1.224646799147353207E-16, -0.0000000000000000000, -1.000000000000000000 ) ) ;
#47 = CARTESIAN_POINT ( 'NONE',  ( 0.0000000000000000000, 0.0000000000000000000, 3.607046999999999226 ) ) ;
#48 = DIMENSIONAL_EXPONENTS ( 1.000000000000000000, 0.0000000000000000000, 0.0000000000000000000, 0.0000000000000000000, 0.0000000000000000000, 0.0000000000000000000, 0.0000000000000000000 ) ;
#49 = ORIENTED_EDGE ( 'NONE', *, *, #262, .T. ) ;
#50 = ORIENTED_EDGE ( 'NONE', *, *, #78, .T. ) ;
#51 = ORIENTED_EDGE ( 'NONE', *, *, #289, .F. ) ;
#52 = AXIS2_PLACEMENT_3D ( 'NONE', #164, #21, #271 ) ;
#53 =( NAMED_UNIT ( * ) SI_UNIT ( $, .STERADIAN. ) SOLID_ANGLE_UNIT ( ) );
#54 = EDGE_CURVE ( 'NONE', #74, #127, #243, .T. ) ;
#55 = ORIENTED_EDGE ( 'NONE', *, *, #230, .F. ) ;
#56 = DIRECTION ( 'NONE',  ( -1.224646799147353207E-16, -0.0000000000000000000, -1.000000000000000000 ) ) ;
#57 = CARTESIAN_POINT ( 'NONE',  ( -0.3149604999999998656, 0.0000000000000000000, 1.379739229757547481 ) ) ;
#58 = PRODUCT_CONTEXT ( 'NONE', #258, 'mechanical' ) ;
#59 = EDGE_CURVE ( 'NONE', #127, #5, #126, .T. ) ;
#60 = AXIS2_PLACEMENT_3D ( 'NONE', #22, #163, #42 ) ;
#61 = CARTESIAN_POINT ( 'NONE',  ( -0.3146455394999998489, 3.853296528146670183E-17, 1.377952999999999983 ) ) ;
#62 = CARTESIAN_POINT ( 'NONE',  ( 0.0000000000000000000, 0.0000000000000000000, 3.622047000000000239 ) ) ;
#63 = CYLINDRICAL_SURFACE ( 'NONE', #221, 0.3149604999999999766 ) ;
#64 = DIRECTION ( 'NONE',  ( 1.000000000000000000, 0.0000000000000000000, 0.0000000000000000000 ) ) ;
#65 =( LENGTH_UNIT ( ) NAMED_UNIT ( * ) SI_UNIT ( $, .METRE. ) );
#66 = AXIS2_PLACEMENT_3D ( 'NONE', #137, #211, #91 ) ;
#67 = COLOUR_RGB ( '',0.7921568627450980005, 0.8196078431372548767, 0.9333333333333333481 ) ;
#68 = CARTESIAN_POINT ( 'NONE',  ( -0.3146455394999999045, 0.0000000000000000000, 0.3146455395000000710 ) ) ;
#69 = UNCERTAINTY_MEASURE_WITH_UNIT (LENGTH_MEASURE( 1.000000000000000082E-05 ), #216, 'distance_accuracy_value', 'NONE');
#70 = DIRECTION ( 'NONE',  ( 1.000000000000000000, 0.0000000000000000000, -0.0000000000000000000 ) ) ;
#71 = CONICAL_SURFACE ( 'NONE', #60, 0.2999604999999996857, 0.7853981633974324028 ) ;
#72 = ORIENTED_EDGE ( 'NONE', *, *, #170, .T. ) ;
#73 = AXIS2_PLACEMENT_3D ( 'NONE', #89, #17, #264 ) ;
#74 = VERTEX_POINT ( 'NONE', #148 ) ;
#75 = CARTESIAN_POINT ( 'NONE',  ( 0.3149604999999999766, 3.857153681828499730E-17, 3.622047000000000239 ) ) ;
#76 = EDGE_CURVE ( 'NONE', #74, #5, #96, .T. ) ;
#77 = ORIENTED_EDGE ( 'NONE', *, *, #298, .T. ) ;
#78 = EDGE_CURVE ( 'NONE', #150, #309, #184, .T. ) ;
#79 = ORIENTED_EDGE ( 'NONE', *, *, #119, .F. ) ;
#80 = VECTOR ( 'NONE', #23, 39.37007874015748143 ) ;
#81 = FACE_OUTER_BOUND ( 'NONE', #282, .T. ) ;
#82 = AXIS2_PLACEMENT_3D ( 'NONE', #10, #85, #129 ) ;
#83 = ADVANCED_FACE ( 'NONE', ( #185 ), #208, .T. ) ;
#84 = EDGE_LOOP ( 'NONE', ( #51, #28, #72, #100 ) ) ;
#85 = DIRECTION ( 'NONE',  ( 1.224646799147353207E-16, 0.0000000000000000000, 1.000000000000000000 ) ) ;
#86 = DIRECTION ( 'NONE',  ( -1.224646799147353207E-16, -0.0000000000000000000, -1.000000000000000000 ) ) ;
#87 = DIRECTION ( 'NONE',  ( 1.000000000000000000, 0.0000000000000000000, 0.0000000000000000000 ) ) ;
#88 = DIRECTION ( 'NONE',  ( 0.1736481776669313026, 0.0000000000000000000, 0.9848077530122077983 ) ) ;
#89 = CARTESIAN_POINT ( 'NONE',  ( 3.853296528146670183E-17, 0.0000000000000000000, 0.3146455394999999600 ) ) ;
#90 = MECHANICAL_DESIGN_GEOMETRIC_PRESENTATION_REPRESENTATION (  '', ( #123 ), #99 ) ;
#91 = DIRECTION ( 'NONE',  ( -1.000000000000000000, 1.224646799147353207E-16, 0.0000000000000000000 ) ) ;
#92 = CARTESIAN_POINT ( 'NONE',  ( 0.3146455395000001265, 0.0000000000000000000, 1.377952999999999983 ) ) ;
#93 = CARTESIAN_POINT ( 'NONE',  ( 0.0000000000000000000, 0.0000000000000000000, 3.622047000000000239 ) ) ;
#94 =( CONVERSION_BASED_UNIT ( 'INCH', #269 ) LENGTH_UNIT ( ) NAMED_UNIT ( #171 ) );
#95 = DIMENSIONAL_EXPONENTS ( 1.000000000000000000, 0.0000000000000000000, 0.0000000000000000000, 0.0000000000000000000, 0.0000000000000000000, 0.0000000000000000000, 0.0000000000000000000 ) ;
#96 = CIRCLE ( 'NONE', #66, 0.3146455394999999600 ) ;
#97 = MECHANICAL_DESIGN_GEOMETRIC_PRESENTATION_REPRESENTATION (  '', ( #272 ), #169 ) ;
#98 = CARTESIAN_POINT ( 'NONE',  ( 0.0000000000000000000, 0.0000000000000000000, 3.622047000000000239 ) ) ;
#99 =( GEOMETRIC_REPRESENTATION_CONTEXT ( 3 ) GLOBAL_UNCERTAINTY_ASSIGNED_CONTEXT ( ( #322 ) ) GLOBAL_UNIT_ASSIGNED_CONTEXT ( ( #280, #152, #53 ) ) REPRESENTATION_CONTEXT ( 'NONE', 'WORKASPACE' ) );
#100 = ORIENTED_EDGE ( 'NONE', *, *, #218, .F. ) ;
#101 = DIRECTION ( 'NONE',  ( 0.0000000000000000000, 0.0000000000000000000, 1.000000000000000000 ) ) ;
#102 = ORIENTED_EDGE ( 'NONE', *, *, #18, .F. ) ;
#103 = SURFACE_SIDE_STYLE ('',( #177 ) ) ;
#104 = VERTEX_POINT ( 'NONE', #288 ) ;
#105 = ORIENTED_EDGE ( 'NONE', *, *, #76, .F. ) ;
#106 = CARTESIAN_POINT ( 'NONE',  ( 3.853296528146670183E-17, 0.0000000000000000000, 0.3146455394999999600 ) ) ;
#107 = UNCERTAINTY_MEASURE_WITH_UNIT (LENGTH_MEASURE( 1.000000000000000082E-05 ), #94, 'distance_accuracy_value', 'NONE');
#108 = VERTEX_POINT ( 'NONE', #57 ) ;
#109 = VECTOR ( 'NONE', #121, 39.37007874015748143 ) ;
#110 = CARTESIAN_POINT ( 'NONE',  ( 1.689693231380615506E-16, 0.0000000000000000000, 1.379739229757547481 ) ) ;
#111 = DIRECTION ( 'NONE',  ( 1.000000000000000000, 0.0000000000000000000, 0.0000000000000000000 ) ) ;
#112 = DIRECTION ( 'NONE',  ( 1.224646799147353207E-16, 0.0000000000000000000, 1.000000000000000000 ) ) ;
#113 = PRODUCT ( 'Micro_BEMM-160-3X', 'Micro_BEMM-160-3X', '', ( #58 ) ) ;
#114 = CARTESIAN_POINT ( 'NONE',  ( 0.3149605000000001431, 3.857153681828500963E-17, 1.379739229757547481 ) ) ;
#115 = FACE_OUTER_BOUND ( 'NONE', #84, .T. ) ;
#116 = SHAPE_DEFINITION_REPRESENTATION ( #249, #232 ) ;
#117 = AXIS2_PLACEMENT_3D ( 'NONE', #93, #315, #188 ) ;
#118 = CARTESIAN_POINT ( 'NONE',  ( -0.2999604999999996857, 0.0000000000000000000, 3.622047000000000239 ) ) ;
#119 = EDGE_CURVE ( 'NONE', #108, #309, #212, .T. ) ;
#120 = CARTESIAN_POINT ( 'NONE',  ( 0.0000000000000000000, 0.0000000000000000000, 3.622047000000000239 ) ) ;
#121 = DIRECTION ( 'NONE',  ( 0.7071067811865362485, 8.659560562354796040E-17, -0.7071067811865587860 ) ) ;
#122 = CONICAL_SURFACE ( 'NONE', #278, 0.3146455394999999600, 0.1745329251994338082 ) ;
#123 = STYLED_ITEM ( 'NONE', ( #197 ), #277 ) ;
#124 = AXIS2_PLACEMENT_3D ( 'NONE', #98, #246, #70 ) ;
#125 = DIRECTION ( 'NONE',  ( 0.0000000000000000000, 0.0000000000000000000, -1.000000000000000000 ) ) ;
#126 = CIRCLE ( 'NONE', #168, 0.3146455394999999600 ) ;
#127 = VERTEX_POINT ( 'NONE', #240 ) ;
#128 = CIRCLE ( 'NONE', #236, 0.2999604999999996857 ) ;
#129 = DIRECTION ( 'NONE',  ( 1.000000000000000000, 0.0000000000000000000, 0.0000000000000000000 ) ) ;
#130 = ORIENTED_EDGE ( 'NONE', *, *, #201, .T. ) ;
#131 = DIRECTION ( 'NONE',  ( -1.224646799147353207E-16, -0.0000000000000000000, -1.000000000000000000 ) ) ;
#132 = EDGE_LOOP ( 'NONE', ( #202, #130, #176, #223 ) ) ;
#133 = FILL_AREA_STYLE ('',( #310 ) ) ;
#134 = EDGE_CURVE ( 'NONE', #259, #108, #16, .T. ) ;
#135 = ORIENTED_EDGE ( 'NONE', *, *, #195, .F. ) ;
#136 = DIRECTION ( 'NONE',  ( 0.0000000000000000000, 0.0000000000000000000, -1.000000000000000000 ) ) ;
#137 = CARTESIAN_POINT ( 'NONE',  ( 3.853296528146670183E-17, 0.0000000000000000000, 0.3146455394999999600 ) ) ;
#138 = FILL_AREA_STYLE ('',( #292 ) ) ;
#139 = ADVANCED_FACE ( 'NONE', ( #265 ), #71, .T. ) ;
#140 = DIRECTION ( 'NONE',  ( -1.000000000000000000, 0.0000000000000000000, 1.224646799147353207E-16 ) ) ;
#141 = APPLICATION_PROTOCOL_DEFINITION ( 'draft international standard', 'automotive_design', 1998, #258 ) ;
#142 = ADVANCED_FACE ( 'NONE', ( #115 ), #63, .T. ) ;
#143 = CARTESIAN_POINT ( 'NONE',  ( 0.3146455395000001265, 0.0000000000000000000, 1.377952999999999983 ) ) ;
#144 = SURFACE_STYLE_FILL_AREA ( #138 ) ;
#145 = AXIS2_PLACEMENT_3D ( 'NONE', #286, #147, #314 ) ;
#146 = CONICAL_SURFACE ( 'NONE', #82, 0.3146455394999999600, 0.1745329251994338082 ) ;
#147 = DIRECTION ( 'NONE',  ( -1.224646799147353207E-16, -0.0000000000000000000, -1.000000000000000000 ) ) ;
#148 = CARTESIAN_POINT ( 'NONE',  ( 5.779944792220005583E-17, 0.0000000000000000000, 0.0000000000000000000 ) ) ;
#149 = CIRCLE ( 'NONE', #248, 0.3146455394999999600 ) ;
#150 = VERTEX_POINT ( 'NONE', #143 ) ;
#151 = CARTESIAN_POINT ( 'NONE',  ( 0.0000000000000000000, 0.0000000000000000000, 3.622047000000000239 ) ) ;
#152 =( NAMED_UNIT ( * ) PLANE_ANGLE_UNIT ( ) SI_UNIT ( $, .RADIAN. ) );
#153 = ORIENTED_EDGE ( 'NONE', *, *, #230, .T. ) ;
#154 = DIRECTION ( 'NONE',  ( -0.0000000000000000000, -0.0000000000000000000, -1.000000000000000000 ) ) ;
#155 = VERTEX_POINT ( 'NONE', #118 ) ;
#156 = DIRECTION ( 'NONE',  ( -1.000000000000000000, 0.0000000000000000000, 0.0000000000000000000 ) ) ;
#157 = ORIENTED_EDGE ( 'NONE', *, *, #218, .T. ) ;
#158 = CARTESIAN_POINT ( 'NONE',  ( 3.853296528146670183E-17, 0.0000000000000000000, 0.3146455394999999600 ) ) ;
#159 = CIRCLE ( 'NONE', #324, 0.2999604999999996857 ) ;
#160 = CARTESIAN_POINT ( 'NONE',  ( 1.689693231380615506E-16, 0.0000000000000000000, 1.379739229757547481 ) ) ;
#161 = AXIS2_PLACEMENT_3D ( 'NONE', #231, #125, #224 ) ;
#162 = DIRECTION ( 'NONE',  ( -0.1736481776669311083, 2.126576849575782084E-17, 0.9848077530122080203 ) ) ;
#163 = DIRECTION ( 'NONE',  ( 0.0000000000000000000, 0.0000000000000000000, -1.000000000000000000 ) ) ;
#164 = CARTESIAN_POINT ( 'NONE',  ( 3.853296528146670183E-17, 0.0000000000000000000, 0.3146455394999999600 ) ) ;
#165 = LENGTH_MEASURE_WITH_UNIT ( LENGTH_MEASURE( 0.02539999999999999897 ), #65 );
#166 = CARTESIAN_POINT ( 'NONE',  ( -0.3149604999999999766, 0.0000000000000000000, 3.607046999999999226 ) ) ;
#167 = DIRECTION ( 'NONE',  ( 0.0000000000000000000, 0.0000000000000000000, -1.000000000000000000 ) ) ;
#168 = AXIS2_PLACEMENT_3D ( 'NONE', #19, #112, #274 ) ;
#169 =( GEOMETRIC_REPRESENTATION_CONTEXT ( 3 ) GLOBAL_UNCERTAINTY_ASSIGNED_CONTEXT ( ( #69 ) ) GLOBAL_UNIT_ASSIGNED_CONTEXT ( ( #216, #316, #266 ) ) REPRESENTATION_CONTEXT ( 'NONE', 'WORKASPACE' ) );
#170 = EDGE_CURVE ( 'NONE', #32, #108, #214, .T. ) ;
#171 = DIMENSIONAL_EXPONENTS ( 1.000000000000000000, 0.0000000000000000000, 0.0000000000000000000, 0.0000000000000000000, 0.0000000000000000000, 0.0000000000000000000, 0.0000000000000000000 ) ;
#172 = VECTOR ( 'NONE', #88, 39.37007874015748143 ) ;
#173 = ORIENTED_EDGE ( 'NONE', *, *, #18, .T. ) ;
#174 = ADVANCED_FACE ( 'NONE', ( #297 ), #194, .T. ) ;
#175 = LENGTH_MEASURE_WITH_UNIT ( LENGTH_MEASURE( 0.02539999999999999897 ), #36 );
#176 = ORIENTED_EDGE ( 'NONE', *, *, #250, .F. ) ;
#177 = SURFACE_STYLE_FILL_AREA ( #133 ) ;
#178 = ORIENTED_EDGE ( 'NONE', *, *, #59, .F. ) ;
#179 = AXIS2_PLACEMENT_3D ( 'NONE', #106, #183, #308 ) ;
#180 = ORIENTED_EDGE ( 'NONE', *, *, #119, .T. ) ;
#181 = CARTESIAN_POINT ( 'NONE',  ( 0.3146455394999999600, 3.853296528146670183E-17, -3.853296528146670183E-17 ) ) ;
#182 = ORIENTED_EDGE ( 'NONE', *, *, #134, .T. ) ;
#183 = DIRECTION ( 'NONE',  ( 0.0000000000000000000, 1.000000000000000000, 0.0000000000000000000 ) ) ;
#184 = LINE ( 'NONE', #92, #172 ) ;
#185 = FACE_OUTER_BOUND ( 'NONE', #253, .T. ) ;
#186 = AXIS2_PLACEMENT_3D ( 'NONE', #62, #136, #189 ) ;
#187 = ORIENTED_EDGE ( 'NONE', *, *, #267, .T. ) ;
#188 = DIRECTION ( 'NONE',  ( -1.000000000000000000, 0.0000000000000000000, 0.0000000000000000000 ) ) ;
#189 = DIRECTION ( 'NONE',  ( -1.000000000000000000, 0.0000000000000000000, 0.0000000000000000000 ) ) ;
#190 = CARTESIAN_POINT ( 'NONE',  ( 0.0000000000000000000, 0.0000000000000000000, 0.0000000000000000000 ) ) ;
#191 = CIRCLE ( 'NONE', #235, 0.3149604999999999766 ) ;
#192 = COLOUR_RGB ( '',0.7921568627450980005, 0.8196078431372548767, 0.9333333333333333481 ) ;
#193 = PRODUCT_DEFINITION_CONTEXT ( 'detailed design', #217, 'design' ) ;
#194 = PLANE ( 'NONE',  #124 ) ;
#195 = EDGE_CURVE ( 'NONE', #205, #32, #247, .T. ) ;
#196 = EDGE_LOOP ( 'NONE', ( #105, #227, #283 ) ) ;
#197 = PRESENTATION_STYLE_ASSIGNMENT (( #12 ) ) ;
#198 = EDGE_LOOP ( 'NONE', ( #307, #55, #187, #135 ) ) ;
#199 = ORIENTED_EDGE ( 'NONE', *, *, #239, .F. ) ;
#200 = CARTESIAN_POINT ( 'NONE',  ( 0.3149604999999999766, 3.857153681828499730E-17, 3.607046999999999226 ) ) ;
#201 = EDGE_CURVE ( 'NONE', #104, #205, #276, .T. ) ;
#202 = ORIENTED_EDGE ( 'NONE', *, *, #1, .F. ) ;
#203 = SPHERICAL_SURFACE ( 'NONE', #14, 0.3146455394999999600 ) ;
#204 = CIRCLE ( 'NONE', #29, 0.3146455394999999600 ) ;
#205 = VERTEX_POINT ( 'NONE', #200 ) ;
#206 = FACE_OUTER_BOUND ( 'NONE', #196, .T. ) ;
#207 = EDGE_CURVE ( 'NONE', #150, #127, #222, .T. ) ;
#208 = CYLINDRICAL_SURFACE ( 'NONE', #145, 0.3146455394999999600 ) ;
#209 =( NAMED_UNIT ( * ) SI_UNIT ( $, .STERADIAN. ) SOLID_ANGLE_UNIT ( ) );
#210 = ADVANCED_FACE ( 'NONE', ( #81 ), #203, .T. ) ;
#211 = DIRECTION ( 'NONE',  ( 1.224646799147353207E-16, 1.000000000000000000, -0.0000000000000000000 ) ) ;
#212 = CIRCLE ( 'NONE', #43, 0.3149604999999999766 ) ;
#213 = FACE_OUTER_BOUND ( 'NONE', #233, .T. ) ;
#214 = LINE ( 'NONE', #320, #80 ) ;
#215 = DIRECTION ( 'NONE',  ( -1.000000000000000000, 0.0000000000000000000, 0.0000000000000000000 ) ) ;
#216 =( CONVERSION_BASED_UNIT ( 'INCH', #165 ) LENGTH_UNIT ( ) NAMED_UNIT ( #48 ) );
#217 = APPLICATION_CONTEXT ( 'automotive_design' ) ;
#218 = EDGE_CURVE ( 'NONE', #309, #108, #191, .T. ) ;
#219 = DIRECTION ( 'NONE',  ( 1.000000000000000000, 0.0000000000000000000, 0.0000000000000000000 ) ) ;
#220 =( GEOMETRIC_REPRESENTATION_CONTEXT ( 3 ) GLOBAL_UNCERTAINTY_ASSIGNED_CONTEXT ( ( #107 ) ) GLOBAL_UNIT_ASSIGNED_CONTEXT ( ( #94, #273, #209 ) ) REPRESENTATION_CONTEXT ( 'NONE', 'WORKASPACE' ) );
#221 = AXIS2_PLACEMENT_3D ( 'NONE', #120, #268, #244 ) ;
#222 = LINE ( 'NONE', #181, #293 ) ;
#223 = ORIENTED_EDGE ( 'NONE', *, *, #267, .F. ) ;
#224 = DIRECTION ( 'NONE',  ( 1.000000000000000000, 0.0000000000000000000, 0.0000000000000000000 ) ) ;
#225 = VECTOR ( 'NONE', #313, 39.37007874015748143 ) ;
#226 = ADVANCED_FACE ( 'NONE', ( #206 ), #8, .T. ) ;
#227 = ORIENTED_EDGE ( 'NONE', *, *, #54, .T. ) ;
#228 = DIRECTION ( 'NONE',  ( 0.0000000000000000000, 1.000000000000000000, 0.0000000000000000000 ) ) ;
#229 = ORIENTED_EDGE ( 'NONE', *, *, #289, .T. ) ;
#230 = EDGE_CURVE ( 'NONE', #155, #104, #128, .T. ) ;
#231 = CARTESIAN_POINT ( 'NONE',  ( 0.0000000000000000000, 0.0000000000000000000, 3.607046999999999226 ) ) ;
#232 = ADVANCED_BREP_SHAPE_REPRESENTATION ( 'Micro_BEMM-160-3X', ( #277, #2 ), #220 ) ;
#233 = EDGE_LOOP ( 'NONE', ( #301, #199, #50, #157 ) ) ;
#234 = DIRECTION ( 'NONE',  ( 1.000000000000000000, 0.0000000000000000000, 0.0000000000000000000 ) ) ;
#235 = AXIS2_PLACEMENT_3D ( 'NONE', #110, #131, #27 ) ;
#236 = AXIS2_PLACEMENT_3D ( 'NONE', #151, #101, #234 ) ;
#237 = ORIENTED_EDGE ( 'NONE', *, *, #250, .T. ) ;
#238 =( LENGTH_UNIT ( ) NAMED_UNIT ( * ) SI_UNIT ( $, .METRE. ) );
#239 = EDGE_CURVE ( 'NONE', #150, #259, #149, .T. ) ;
#240 = CARTESIAN_POINT ( 'NONE',  ( 0.3146455395000000710, 3.853296528146670183E-17, 0.3146455394999999045 ) ) ;
#241 = APPLICATION_PROTOCOL_DEFINITION ( 'draft international standard', 'automotive_design', 1998, #217 ) ;
#242 = ORIENTED_EDGE ( 'NONE', *, *, #239, .T. ) ;
#243 = CIRCLE ( 'NONE', #52, 0.3146455394999999600 ) ;
#244 = DIRECTION ( 'NONE',  ( -1.000000000000000000, 0.0000000000000000000, 0.0000000000000000000 ) ) ;
#245 = CARTESIAN_POINT ( 'NONE',  ( 1.687505730825492758E-16, 0.0000000000000000000, 1.377952999999999983 ) ) ;
#246 = DIRECTION ( 'NONE',  ( 0.0000000000000000000, 0.0000000000000000000, 1.000000000000000000 ) ) ;
#247 = CIRCLE ( 'NONE', #311, 0.3149604999999999766 ) ;
#248 = AXIS2_PLACEMENT_3D ( 'NONE', #285, #56, #156 ) ;
#249 = PRODUCT_DEFINITION_SHAPE ( 'NONE', 'NONE',  #24 ) ;
#250 = EDGE_CURVE ( 'NONE', #32, #205, #25, .T. ) ;
#251 = CONICAL_SURFACE ( 'NONE', #186, 0.2999604999999996857, 0.7853981633974324028 ) ;
#252 = EDGE_LOOP ( 'NONE', ( #102, #182, #180, #7 ) ) ;
#253 = EDGE_LOOP ( 'NONE', ( #9, #242, #49, #77 ) ) ;
#254 = DIRECTION ( 'NONE',  ( -0.7071067811865362485, 0.0000000000000000000, -0.7071067811865587860 ) ) ;
#255 = CIRCLE ( 'NONE', #73, 0.3146455394999999600 ) ;
#256 = ORIENTED_EDGE ( 'NONE', *, *, #262, .F. ) ;
#257 = LINE ( 'NONE', #6, #44 ) ;
#258 = APPLICATION_CONTEXT ( 'automotive_design' ) ;
#259 = VERTEX_POINT ( 'NONE', #302 ) ;
#260 = CARTESIAN_POINT ( 'NONE',  ( -0.3146455394999999600, 0.0000000000000000000, 3.853296528146670183E-17 ) ) ;
#261 = EDGE_LOOP ( 'NONE', ( #237, #229, #79, #26 ) ) ;
#262 = EDGE_CURVE ( 'NONE', #259, #5, #284, .T. ) ;
#263 = DIRECTION ( 'NONE',  ( -1.224646799147353207E-16, -0.0000000000000000000, -1.000000000000000000 ) ) ;
#264 = DIRECTION ( 'NONE',  ( -1.000000000000000000, 0.0000000000000000000, 2.170575815253423957E-16 ) ) ;
#265 = FACE_OUTER_BOUND ( 'NONE', #132, .T. ) ;
#266 =( NAMED_UNIT ( * ) SI_UNIT ( $, .STERADIAN. ) SOLID_ANGLE_UNIT ( ) );
#267 = EDGE_CURVE ( 'NONE', #155, #32, #257, .T. ) ;
#268 = DIRECTION ( 'NONE',  ( -0.0000000000000000000, -0.0000000000000000000, -1.000000000000000000 ) ) ;
#269 = LENGTH_MEASURE_WITH_UNIT ( LENGTH_MEASURE( 0.02539999999999999897 ), #238 );
#270 = ADVANCED_FACE ( 'NONE', ( #34 ), #146, .T. ) ;
#271 = DIRECTION ( 'NONE',  ( 0.0000000000000000000, 0.0000000000000000000, -1.000000000000000000 ) ) ;
#272 = STYLED_ITEM ( 'NONE', ( #319 ), #232 ) ;
#273 =( NAMED_UNIT ( * ) PLANE_ANGLE_UNIT ( ) SI_UNIT ( $, .RADIAN. ) );
#274 = DIRECTION ( 'NONE',  ( -1.000000000000000000, 0.0000000000000000000, 2.170575815253423957E-16 ) ) ;
#275 = FACE_OUTER_BOUND ( 'NONE', #198, .T. ) ;
#276 = LINE ( 'NONE', #325, #109 ) ;
#277 = MANIFOLD_SOLID_BREP ( 'Fillet1', #300 ) ;
#278 = AXIS2_PLACEMENT_3D ( 'NONE', #45, #321, #111 ) ;
#279 = EDGE_LOOP ( 'NONE', ( #173, #11, #312, #256 ) ) ;
#280 =( CONVERSION_BASED_UNIT ( 'INCH', #175 ) LENGTH_UNIT ( ) NAMED_UNIT ( #95 ) );
#281 = ORIENTED_EDGE ( 'NONE', *, *, #1, .T. ) ;
#282 = EDGE_LOOP ( 'NONE', ( #305, #35, #178 ) ) ;
#283 = ORIENTED_EDGE ( 'NONE', *, *, #298, .F. ) ;
#284 = LINE ( 'NONE', #260, #225 ) ;
#285 = CARTESIAN_POINT ( 'NONE',  ( 1.687505730825492758E-16, 0.0000000000000000000, 1.377952999999999983 ) ) ;
#286 = CARTESIAN_POINT ( 'NONE',  ( 0.0000000000000000000, 0.0000000000000000000, 0.0000000000000000000 ) ) ;
#287 = SURFACE_STYLE_USAGE ( .BOTH. , #296 ) ;
#288 = CARTESIAN_POINT ( 'NONE',  ( 0.2999604999999996857, 3.765305171892445978E-17, 3.622047000000000239 ) ) ;
#289 = EDGE_CURVE ( 'NONE', #205, #309, #31, .T. ) ;
#290 = FACE_OUTER_BOUND ( 'NONE', #279, .T. ) ;
#291 = CYLINDRICAL_SURFACE ( 'NONE', #117, 0.3149604999999999766 ) ;
#292 = FILL_AREA_STYLE_COLOUR ( '', #192 ) ;
#293 = VECTOR ( 'NONE', #4, 39.37007874015748143 ) ;
#294 = CARTESIAN_POINT ( 'NONE',  ( 0.0000000000000000000, 0.0000000000000000000, 3.622047000000000239 ) ) ;
#295 = VECTOR ( 'NONE', #154, 39.37007874015748143 ) ;
#296 = SURFACE_SIDE_STYLE ('',( #144 ) ) ;
#297 = FACE_OUTER_BOUND ( 'NONE', #30, .T. ) ;
#298 = EDGE_CURVE ( 'NONE', #5, #127, #255, .T. ) ;
#299 = PRESENTATION_LAYER_ASSIGNMENT (  '', '', ( #272 ) ) ;
#300 = CLOSED_SHELL ( 'NONE', ( #210, #39, #270, #139, #33, #142, #174, #323, #13, #83, #226 ) ) ;
#301 = ORIENTED_EDGE ( 'NONE', *, *, #134, .F. ) ;
#302 = CARTESIAN_POINT ( 'NONE',  ( -0.3146455394999998489, 3.855225104987584957E-17, 1.377952999999999983 ) ) ;
#303 = VECTOR ( 'NONE', #162, 39.37007874015747433 ) ;
#304 = PRESENTATION_LAYER_ASSIGNMENT (  '', '', ( #123 ) ) ;
#305 = ORIENTED_EDGE ( 'NONE', *, *, #54, .F. ) ;
#306 = DIRECTION ( 'NONE',  ( 1.000000000000000000, 0.0000000000000000000, 0.0000000000000000000 ) ) ;
#307 = ORIENTED_EDGE ( 'NONE', *, *, #201, .F. ) ;
#308 = DIRECTION ( 'NONE',  ( 1.000000000000000000, 0.0000000000000000000, 0.0000000000000000000 ) ) ;
#309 = VERTEX_POINT ( 'NONE', #114 ) ;
#310 = FILL_AREA_STYLE_COLOUR ( '', #67 ) ;
#311 = AXIS2_PLACEMENT_3D ( 'NONE', #47, #167, #219 ) ;
#312 = ORIENTED_EDGE ( 'NONE', *, *, #59, .T. ) ;
#313 = DIRECTION ( 'NONE',  ( -1.224646799147353207E-16, -0.0000000000000000000, -1.000000000000000000 ) ) ;
#314 = DIRECTION ( 'NONE',  ( -1.000000000000000000, 0.0000000000000000000, 1.224646799147353207E-16 ) ) ;
#315 = DIRECTION ( 'NONE',  ( -0.0000000000000000000, -0.0000000000000000000, -1.000000000000000000 ) ) ;
#316 =( NAMED_UNIT ( * ) PLANE_ANGLE_UNIT ( ) SI_UNIT ( $, .RADIAN. ) );
#317 = PRODUCT_DEFINITION_FORMATION_WITH_SPECIFIED_SOURCE ( 'ANY', '', #113, .NOT_KNOWN. ) ;
#318 = FACE_OUTER_BOUND ( 'NONE', #261, .T. ) ;
#319 = PRESENTATION_STYLE_ASSIGNMENT (( #287 ) ) ;
#320 = CARTESIAN_POINT ( 'NONE',  ( -0.3149604999999999766, 0.0000000000000000000, 3.622047000000000239 ) ) ;
#321 = DIRECTION ( 'NONE',  ( 1.224646799147353207E-16, 0.0000000000000000000, 1.000000000000000000 ) ) ;
#322 = UNCERTAINTY_MEASURE_WITH_UNIT (LENGTH_MEASURE( 1.000000000000000082E-05 ), #280, 'distance_accuracy_value', 'NONE');
#323 = ADVANCED_FACE ( 'NONE', ( #275 ), #251, .T. ) ;
#324 = AXIS2_PLACEMENT_3D ( 'NONE', #294, #15, #64 ) ;
#325 = CARTESIAN_POINT ( 'NONE',  ( 0.2999604999999996857, 3.673456661956392842E-17, 3.622047000000000239 ) ) ;
ENDSEC;
END-ISO-10303-21;
