ISO-10303-21;
HEADER;
FILE_DESCRIPTION (( 'STEP AP214' ),
    '1' );
FILE_NAME ('Micro_BEMM-060-4X.STEP',
    '2021-09-03T13:28:20',
    ( '' ),
    ( '' ),
    'SwSTEP 2.0',
    'SolidWorks 2020',
    '' );
FILE_SCHEMA (( 'AUTOMOTIVE_DESIGN' ));
ENDSEC;

DATA;
#1 = CIRCLE ( 'NONE', #158, 0.1031100000000002570 ) ;
#2 = CARTESIAN_POINT ( 'NONE',  ( 8.678594253305624695E-17, 0.0000000000000000000, 0.7086609999999999854 ) ) ;
#3 = DIRECTION ( 'NONE',  ( -1.000000000000000000, 0.0000000000000000000, 0.0000000000000000000 ) ) ;
#4 = ORIENTED_EDGE ( 'NONE', *, *, #89, .T. ) ;
#5 = FACE_OUTER_BOUND ( 'NONE', #314, .T. ) ;
#6 = DIRECTION ( 'NONE',  ( -1.000000000000000000, 0.0000000000000000000, 1.224646799147353454E-16 ) ) ;
#7 = CIRCLE ( 'NONE', #319, 0.1181100000000000066 ) ;
#8 = ORIENTED_EDGE ( 'NONE', *, *, #154, .T. ) ;
#9 = ORIENTED_EDGE ( 'NONE', *, *, #161, .T. ) ;
#10 = AXIS2_PLACEMENT_3D ( 'NONE', #296, #65, #271 ) ;
#11 = CARTESIAN_POINT ( 'NONE',  ( 8.678594253305624695E-17, 0.0000000000000000000, 0.7086609999999999854 ) ) ;
#12 = EDGE_LOOP ( 'NONE', ( #101, #152, #184, #122 ) ) ;
#13 = FILL_AREA_STYLE_COLOUR ( '', #280 ) ;
#14 = ORIENTED_EDGE ( 'NONE', *, *, #44, .T. ) ;
#15 = PRODUCT_DEFINITION_CONTEXT ( 'detailed design', #182, 'design' ) ;
#16 = ADVANCED_FACE ( 'NONE', ( #129 ), #208, .T. ) ;
#17 = DIMENSIONAL_EXPONENTS ( 1.000000000000000000, 0.0000000000000000000, 0.0000000000000000000, 0.0000000000000000000, 0.0000000000000000000, 0.0000000000000000000, 0.0000000000000000000 ) ;
#18 = FACE_OUTER_BOUND ( 'NONE', #12, .T. ) ;
#19 = DIRECTION ( 'NONE',  ( 1.000000000000000000, 0.0000000000000000000, 0.0000000000000000000 ) ) ;
#20 = CARTESIAN_POINT ( 'NONE',  ( 0.1179918899999999882, 1.444983904138465938E-17, -1.444983904138465938E-17 ) ) ;
#21 = DIRECTION ( 'NONE',  ( 1.000000000000000000, 0.0000000000000000000, 0.0000000000000000000 ) ) ;
#22 = CARTESIAN_POINT ( 'NONE',  ( -0.1031100000000002570, 0.0000000000000000000, 2.244094000000000033 ) ) ;
#23 = AXIS2_PLACEMENT_3D ( 'NONE', #169, #137, #321 ) ;
#24 = DIRECTION ( 'NONE',  ( 0.0000000000000000000, 0.0000000000000000000, -1.000000000000000000 ) ) ;
#25 = ORIENTED_EDGE ( 'NONE', *, *, #44, .F. ) ;
#26 = ADVANCED_FACE ( 'NONE', ( #77 ), #288, .T. ) ;
#27 = CARTESIAN_POINT ( 'NONE',  ( 0.0000000000000000000, 0.0000000000000000000, 2.244094000000000033 ) ) ;
#28 = DIRECTION ( 'NONE',  ( -1.000000000000000000, 0.0000000000000000000, 0.0000000000000000000 ) ) ;
#29 = VERTEX_POINT ( 'NONE', #236 ) ;
#30 = PRESENTATION_LAYER_ASSIGNMENT (  '', '', ( #171 ) ) ;
#31 = ADVANCED_FACE ( 'NONE', ( #18 ), #96, .T. ) ;
#32 =( NAMED_UNIT ( * ) SI_UNIT ( $, .STERADIAN. ) SOLID_ANGLE_UNIT ( ) );
#33 = DIRECTION ( 'NONE',  ( 0.1736481776669313026, 0.0000000000000000000, 0.9848077530122077983 ) ) ;
#34 = EDGE_CURVE ( 'NONE', #29, #57, #125, .T. ) ;
#35 = ORIENTED_EDGE ( 'NONE', *, *, #316, .T. ) ;
#36 = CIRCLE ( 'NONE', #58, 0.1179918899999999882 ) ;
#37 = DIRECTION ( 'NONE',  ( -0.0000000000000000000, -0.0000000000000000000, -1.000000000000000000 ) ) ;
#38 = ORIENTED_EDGE ( 'NONE', *, *, #245, .F. ) ;
#39 = ORIENTED_EDGE ( 'NONE', *, *, #176, .T. ) ;
#40 = EDGE_CURVE ( 'NONE', #29, #264, #54, .T. ) ;
#41 = STYLED_ITEM ( 'NONE', ( #275 ), #78 ) ;
#42 =( NAMED_UNIT ( * ) PLANE_ANGLE_UNIT ( ) SI_UNIT ( $, .RADIAN. ) );
#43 = LINE ( 'NONE', #193, #103 ) ;
#44 = EDGE_CURVE ( 'NONE', #156, #264, #127, .T. ) ;
#45 =( NAMED_UNIT ( * ) SI_UNIT ( $, .STERADIAN. ) SOLID_ANGLE_UNIT ( ) );
#46 = DIRECTION ( 'NONE',  ( 1.224646799147353207E-16, 0.0000000000000000000, 1.000000000000000000 ) ) ;
#47 = CARTESIAN_POINT ( 'NONE',  ( 0.0000000000000000000, 0.0000000000000000000, 2.229093999999999465 ) ) ;
#48 = CIRCLE ( 'NONE', #237, 0.1179918899999999882 ) ;
#49 = DIRECTION ( 'NONE',  ( 1.000000000000000000, 0.0000000000000000000, 0.0000000000000000000 ) ) ;
#50 = EDGE_CURVE ( 'NONE', #180, #311, #273, .T. ) ;
#51 = DIRECTION ( 'NONE',  ( 1.224646799147353207E-16, 1.000000000000000000, -0.0000000000000000000 ) ) ;
#52 = DIRECTION ( 'NONE',  ( -1.224646799147353207E-16, -0.0000000000000000000, -1.000000000000000000 ) ) ;
#53 = PRESENTATION_STYLE_ASSIGNMENT (( #207 ) ) ;
#54 = LINE ( 'NONE', #153, #201 ) ;
#55 = EDGE_LOOP ( 'NONE', ( #229, #4, #157, #261 ) ) ;
#56 = SHAPE_DEFINITION_REPRESENTATION ( #93, #277 ) ;
#57 = VERTEX_POINT ( 'NONE', #217 ) ;
#58 = AXIS2_PLACEMENT_3D ( 'NONE', #146, #276, #144 ) ;
#59 = DIRECTION ( 'NONE',  ( -1.224646799147353207E-16, -0.0000000000000000000, -1.000000000000000000 ) ) ;
#60 = SURFACE_STYLE_FILL_AREA ( #241 ) ;
#61 = ORIENTED_EDGE ( 'NONE', *, *, #172, .F. ) ;
#62 = CARTESIAN_POINT ( 'NONE',  ( 8.686797367364865710E-17, 0.0000000000000000000, 0.7093308350957151509 ) ) ;
#63 = FACE_OUTER_BOUND ( 'NONE', #256, .T. ) ;
#64 = VECTOR ( 'NONE', #117, 39.37007874015748854 ) ;
#65 = DIRECTION ( 'NONE',  ( 0.0000000000000000000, -1.000000000000000000, 0.0000000000000000000 ) ) ;
#66 = SURFACE_STYLE_USAGE ( .BOTH. , #298 ) ;
#67 = EDGE_CURVE ( 'NONE', #57, #79, #272, .T. ) ;
#68 = VECTOR ( 'NONE', #112, 39.37007874015748143 ) ;
#69 = DIRECTION ( 'NONE',  ( 1.224646799147353207E-16, 0.0000000000000000000, 1.000000000000000000 ) ) ;
#70 = CARTESIAN_POINT ( 'NONE',  ( 1.444983904138465938E-17, 0.0000000000000000000, 0.1179918899999999882 ) ) ;
#71 = DIRECTION ( 'NONE',  ( 1.000000000000000000, 0.0000000000000000000, 0.0000000000000000000 ) ) ;
#72 = AXIS2_PLACEMENT_3D ( 'NONE', #62, #254, #21 ) ;
#73 = DIRECTION ( 'NONE',  ( -0.1736481776669311083, 2.126576849575782084E-17, 0.9848077530122080203 ) ) ;
#74 = CARTESIAN_POINT ( 'NONE',  ( 0.1031100000000002570, 1.262733314600838667E-17, 2.244094000000000033 ) ) ;
#75 = EDGE_LOOP ( 'NONE', ( #250, #300, #308, #204 ) ) ;
#76 = DIRECTION ( 'NONE',  ( -1.000000000000000000, 0.0000000000000000000, 0.0000000000000000000 ) ) ;
#77 = FACE_OUTER_BOUND ( 'NONE', #267, .T. ) ;
#78 = MANIFOLD_SOLID_BREP ( 'Fillet1', #197 ) ;
#79 = VERTEX_POINT ( 'NONE', #164 ) ;
#80 = DIRECTION ( 'NONE',  ( -1.224646799147353207E-16, -0.0000000000000000000, -1.000000000000000000 ) ) ;
#81 =( LENGTH_UNIT ( ) NAMED_UNIT ( * ) SI_UNIT ( $, .METRE. ) );
#82 = CONICAL_SURFACE ( 'NONE', #181, 0.1179918899999999882, 0.1745329251994338082 ) ;
#83 = EDGE_LOOP ( 'NONE', ( #95, #306 ) ) ;
#84 = CARTESIAN_POINT ( 'NONE',  ( -0.1179918899999999882, 0.0000000000000000000, 1.444983904138465938E-17 ) ) ;
#85 =( GEOMETRIC_REPRESENTATION_CONTEXT ( 3 ) GLOBAL_UNCERTAINTY_ASSIGNED_CONTEXT ( ( #209 ) ) GLOBAL_UNIT_ASSIGNED_CONTEXT ( ( #238, #106, #262 ) ) REPRESENTATION_CONTEXT ( 'NONE', 'WORKASPACE' ) );
#86 = CARTESIAN_POINT ( 'NONE',  ( 1.444983904138465938E-17, 0.0000000000000000000, 0.1179918899999999882 ) ) ;
#87 = DIRECTION ( 'NONE',  ( 0.0000000000000000000, 1.000000000000000000, 0.0000000000000000000 ) ) ;
#88 = DIRECTION ( 'NONE',  ( 0.0000000000000000000, 0.0000000000000000000, -1.000000000000000000 ) ) ;
#89 = EDGE_CURVE ( 'NONE', #29, #213, #140, .T. ) ;
#90 = FACE_OUTER_BOUND ( 'NONE', #183, .T. ) ;
#91 = LINE ( 'NONE', #199, #274 ) ;
#92 = EDGE_LOOP ( 'NONE', ( #202, #160, #175, #162 ) ) ;
#93 = PRODUCT_DEFINITION_SHAPE ( 'NONE', 'NONE',  #260 ) ;
#94 = DIRECTION ( 'NONE',  ( -1.000000000000000000, 0.0000000000000000000, 1.447052840699614652E-16 ) ) ;
#95 = ORIENTED_EDGE ( 'NONE', *, *, #50, .T. ) ;
#96 = CONICAL_SURFACE ( 'NONE', #115, 0.1179918899999999882, 0.1745329251994338082 ) ;
#97 = CIRCLE ( 'NONE', #142, 0.1179918899999999882 ) ;
#98 = ADVANCED_FACE ( 'NONE', ( #244 ), #141, .T. ) ;
#99 = SURFACE_SIDE_STYLE ('',( #60 ) ) ;
#100 = LENGTH_MEASURE_WITH_UNIT ( LENGTH_MEASURE( 0.02539999999999999897 ), #307 );
#101 = ORIENTED_EDGE ( 'NONE', *, *, #302, .F. ) ;
#102 = ADVANCED_FACE ( 'NONE', ( #63 ), #221, .T. ) ;
#103 = VECTOR ( 'NONE', #297, 39.37007874015748143 ) ;
#104 = DIRECTION ( 'NONE',  ( 1.224646799147353207E-16, 0.0000000000000000000, 1.000000000000000000 ) ) ;
#105 = VERTEX_POINT ( 'NONE', #143 ) ;
#106 =( NAMED_UNIT ( * ) PLANE_ANGLE_UNIT ( ) SI_UNIT ( $, .RADIAN. ) );
#107 = ORIENTED_EDGE ( 'NONE', *, *, #40, .F. ) ;
#108 =( GEOMETRIC_REPRESENTATION_CONTEXT ( 3 ) GLOBAL_UNCERTAINTY_ASSIGNED_CONTEXT ( ( #134 ) ) GLOBAL_UNIT_ASSIGNED_CONTEXT ( ( #210, #235, #32 ) ) REPRESENTATION_CONTEXT ( 'NONE', 'WORKASPACE' ) );
#109 = ADVANCED_FACE ( 'NONE', ( #248 ), #188, .T. ) ;
#110 = DIRECTION ( 'NONE',  ( 0.0000000000000000000, 1.000000000000000000, 0.0000000000000000000 ) ) ;
#111 = DIRECTION ( 'NONE',  ( 1.000000000000000000, 0.0000000000000000000, 0.0000000000000000000 ) ) ;
#112 = DIRECTION ( 'NONE',  ( -1.224646799147353207E-16, -0.0000000000000000000, -1.000000000000000000 ) ) ;
#113 = EDGE_CURVE ( 'NONE', #180, #105, #320, .T. ) ;
#114 = DIRECTION ( 'NONE',  ( 0.0000000000000000000, 0.0000000000000000000, 1.000000000000000000 ) ) ;
#115 = AXIS2_PLACEMENT_3D ( 'NONE', #11, #104, #132 ) ;
#116 = AXIS2_PLACEMENT_3D ( 'NONE', #138, #114, #247 ) ;
#117 = DIRECTION ( 'NONE',  ( 0.7071067811865358044, 8.659560562354788645E-17, -0.7071067811865590080 ) ) ;
#118 = LINE ( 'NONE', #74, #64 ) ;
#119 = AXIS2_PLACEMENT_3D ( 'NONE', #255, #222, #28 ) ;
#120 = CARTESIAN_POINT ( 'NONE',  ( 2.167475856207698752E-17, 0.0000000000000000000, 0.0000000000000000000 ) ) ;
#121 = CYLINDRICAL_SURFACE ( 'NONE', #225, 0.1181100000000000066 ) ;
#122 = ORIENTED_EDGE ( 'NONE', *, *, #268, .T. ) ;
#123 = CARTESIAN_POINT ( 'NONE',  ( 0.1031100000000002570, 1.354581824536888722E-17, 2.244094000000000033 ) ) ;
#124 = ORIENTED_EDGE ( 'NONE', *, *, #176, .F. ) ;
#125 = CIRCLE ( 'NONE', #214, 0.1179918899999999882 ) ;
#126 = CARTESIAN_POINT ( 'NONE',  ( 0.0000000000000000000, 0.0000000000000000000, 0.0000000000000000000 ) ) ;
#127 = LINE ( 'NONE', #269, #265 ) ;
#128 = APPLICATION_PROTOCOL_DEFINITION ( 'draft international standard', 'automotive_design', 1998, #182 ) ;
#129 = FACE_OUTER_BOUND ( 'NONE', #233, .T. ) ;
#130 = UNCERTAINTY_MEASURE_WITH_UNIT (LENGTH_MEASURE( 1.000000000000000082E-05 ), #167, 'distance_accuracy_value', 'NONE');
#131 = AXIS2_PLACEMENT_3D ( 'NONE', #168, #87, #111 ) ;
#132 = DIRECTION ( 'NONE',  ( 1.000000000000000000, 0.0000000000000000000, 0.0000000000000000000 ) ) ;
#133 = ORIENTED_EDGE ( 'NONE', *, *, #268, .F. ) ;
#134 = UNCERTAINTY_MEASURE_WITH_UNIT (LENGTH_MEASURE( 1.000000000000000082E-05 ), #210, 'distance_accuracy_value', 'NONE');
#135 = DIRECTION ( 'NONE',  ( -1.000000000000000000, 0.0000000000000000000, 1.224646799147353454E-16 ) ) ;
#136 = COLOUR_RGB ( '',0.7921568627450980005, 0.8196078431372548767, 0.9333333333333333481 ) ;
#137 = DIRECTION ( 'NONE',  ( 0.0000000000000000000, 0.0000000000000000000, 1.000000000000000000 ) ) ;
#138 = CARTESIAN_POINT ( 'NONE',  ( 0.0000000000000000000, 0.0000000000000000000, 2.244094000000000033 ) ) ;
#139 = EDGE_CURVE ( 'NONE', #286, #213, #253, .T. ) ;
#140 = LINE ( 'NONE', #20, #219 ) ;
#141 = PLANE ( 'NONE',  #116 ) ;
#142 = AXIS2_PLACEMENT_3D ( 'NONE', #70, #69, #94 ) ;
#143 = CARTESIAN_POINT ( 'NONE',  ( -0.1181100000000000066, 0.0000000000000000000, 2.229093999999999465 ) ) ;
#144 = DIRECTION ( 'NONE',  ( -1.000000000000000000, 0.0000000000000000000, 0.0000000000000000000 ) ) ;
#145 = ORIENTED_EDGE ( 'NONE', *, *, #302, .T. ) ;
#146 = CARTESIAN_POINT ( 'NONE',  ( 8.678594253305624695E-17, 0.0000000000000000000, 0.7086609999999999854 ) ) ;
#147 = AXIS2_PLACEMENT_3D ( 'NONE', #86, #110, #19 ) ;
#148 = CARTESIAN_POINT ( 'NONE',  ( 8.686797367364865710E-17, 0.0000000000000000000, 0.7093308350957151509 ) ) ;
#149 = PRODUCT ( 'Micro_BEMM-060-4X', 'Micro_BEMM-060-4X', '', ( #315 ) ) ;
#150 = CARTESIAN_POINT ( 'NONE',  ( 1.444983904138465938E-17, 0.0000000000000000000, 0.1179918899999999882 ) ) ;
#151 = CYLINDRICAL_SURFACE ( 'NONE', #165, 0.1179918899999999882 ) ;
#152 = ORIENTED_EDGE ( 'NONE', *, *, #34, .F. ) ;
#153 = CARTESIAN_POINT ( 'NONE',  ( 0.1179918900000000853, 0.0000000000000000000, 0.7086609999999999854 ) ) ;
#154 = EDGE_CURVE ( 'NONE', #105, #289, #43, .T. ) ;
#155 = DIMENSIONAL_EXPONENTS ( 1.000000000000000000, 0.0000000000000000000, 0.0000000000000000000, 0.0000000000000000000, 0.0000000000000000000, 0.0000000000000000000, 0.0000000000000000000 ) ;
#156 = VERTEX_POINT ( 'NONE', #293 ) ;
#157 = ORIENTED_EDGE ( 'NONE', *, *, #245, .T. ) ;
#158 = AXIS2_PLACEMENT_3D ( 'NONE', #304, #224, #173 ) ;
#159 = LENGTH_MEASURE_WITH_UNIT ( LENGTH_MEASURE( 0.02539999999999999897 ), #81 );
#160 = ORIENTED_EDGE ( 'NONE', *, *, #50, .F. ) ;
#161 = EDGE_CURVE ( 'NONE', #289, #264, #186, .T. ) ;
#162 = ORIENTED_EDGE ( 'NONE', *, *, #194, .F. ) ;
#163 = EDGE_CURVE ( 'NONE', #105, #156, #318, .T. ) ;
#164 = CARTESIAN_POINT ( 'NONE',  ( -0.1179918899999999743, 0.0000000000000000000, 0.1179918900000000159 ) ) ;
#165 = AXIS2_PLACEMENT_3D ( 'NONE', #303, #200, #6 ) ;
#166 = EDGE_CURVE ( 'NONE', #311, #156, #118, .T. ) ;
#167 =( CONVERSION_BASED_UNIT ( 'INCH', #218 ) LENGTH_UNIT ( ) NAMED_UNIT ( #155 ) );
#168 = CARTESIAN_POINT ( 'NONE',  ( 1.444983904138465938E-17, 0.0000000000000000000, 0.1179918899999999882 ) ) ;
#169 = CARTESIAN_POINT ( 'NONE',  ( 0.0000000000000000000, 0.0000000000000000000, 2.244094000000000033 ) ) ;
#170 = DIRECTION ( 'NONE',  ( -0.0000000000000000000, -0.0000000000000000000, -1.000000000000000000 ) ) ;
#171 = STYLED_ITEM ( 'NONE', ( #53 ), #277 ) ;
#172 = EDGE_CURVE ( 'NONE', #57, #29, #36, .T. ) ;
#173 = DIRECTION ( 'NONE',  ( 1.000000000000000000, 0.0000000000000000000, 0.0000000000000000000 ) ) ;
#174 = CARTESIAN_POINT ( 'NONE',  ( 0.1181100000000000899, 1.446430334472940009E-17, 0.7093308350957151509 ) ) ;
#175 = ORIENTED_EDGE ( 'NONE', *, *, #113, .T. ) ;
#176 = EDGE_CURVE ( 'NONE', #286, #79, #196, .T. ) ;
#177 = DIRECTION ( 'NONE',  ( -1.000000000000000000, 0.0000000000000000000, 1.447052840699614652E-16 ) ) ;
#178 = FACE_OUTER_BOUND ( 'NONE', #92, .T. ) ;
#179 = CARTESIAN_POINT ( 'NONE',  ( 0.0000000000000000000, 0.0000000000000000000, 2.229093999999999465 ) ) ;
#180 = VERTEX_POINT ( 'NONE', #22 ) ;
#181 = AXIS2_PLACEMENT_3D ( 'NONE', #2, #281, #71 ) ;
#182 = APPLICATION_CONTEXT ( 'automotive_design' ) ;
#183 = EDGE_LOOP ( 'NONE', ( #239, #14, #266, #231 ) ) ;
#184 = ORIENTED_EDGE ( 'NONE', *, *, #40, .T. ) ;
#185 = CARTESIAN_POINT ( 'NONE',  ( 8.678594253305624695E-17, 0.0000000000000000000, 0.7086609999999999854 ) ) ;
#186 = CIRCLE ( 'NONE', #72, 0.1181100000000000066 ) ;
#187 = CARTESIAN_POINT ( 'NONE',  ( 0.0000000000000000000, 0.0000000000000000000, 0.0000000000000000000 ) ) ;
#188 = SPHERICAL_SURFACE ( 'NONE', #131, 0.1179918899999999882 ) ;
#189 = ADVANCED_FACE ( 'NONE', ( #278 ), #151, .T. ) ;
#190 = DIRECTION ( 'NONE',  ( -1.224646799147353207E-16, -0.0000000000000000000, -1.000000000000000000 ) ) ;
#191 = VECTOR ( 'NONE', #324, 39.37007874015748854 ) ;
#192 = CARTESIAN_POINT ( 'NONE',  ( -0.1031100000000002570, 0.0000000000000000000, 2.244094000000000033 ) ) ;
#193 = CARTESIAN_POINT ( 'NONE',  ( -0.1181100000000000066, 0.0000000000000000000, 2.244094000000000033 ) ) ;
#194 = EDGE_CURVE ( 'NONE', #156, #105, #270, .T. ) ;
#195 = DIRECTION ( 'NONE',  ( 1.000000000000000000, 0.0000000000000000000, 0.0000000000000000000 ) ) ;
#196 = CIRCLE ( 'NONE', #285, 0.1179918899999999882 ) ;
#197 = CLOSED_SHELL ( 'NONE', ( #109, #189, #284, #257, #287, #26, #98, #232, #31, #16, #102 ) ) ;
#198 = DIRECTION ( 'NONE',  ( -1.000000000000000000, 1.224646799147353454E-16, 0.0000000000000000000 ) ) ;
#199 = CARTESIAN_POINT ( 'NONE',  ( -0.1179918899999999049, 1.444983904138465938E-17, 0.7086609999999999854 ) ) ;
#200 = DIRECTION ( 'NONE',  ( -1.224646799147353207E-16, -0.0000000000000000000, -1.000000000000000000 ) ) ;
#201 = VECTOR ( 'NONE', #33, 39.37007874015748143 ) ;
#202 = ORIENTED_EDGE ( 'NONE', *, *, #166, .F. ) ;
#203 = ORIENTED_EDGE ( 'NONE', *, *, #89, .F. ) ;
#204 = ORIENTED_EDGE ( 'NONE', *, *, #113, .F. ) ;
#205 = MECHANICAL_DESIGN_GEOMETRIC_PRESENTATION_REPRESENTATION (  '', ( #41 ), #295 ) ;
#206 = DIMENSIONAL_EXPONENTS ( 1.000000000000000000, 0.0000000000000000000, 0.0000000000000000000, 0.0000000000000000000, 0.0000000000000000000, 0.0000000000000000000, 0.0000000000000000000 ) ;
#207 = SURFACE_STYLE_USAGE ( .BOTH. , #99 ) ;
#208 = CYLINDRICAL_SURFACE ( 'NONE', #251, 0.1179918899999999882 ) ;
#209 = UNCERTAINTY_MEASURE_WITH_UNIT (LENGTH_MEASURE( 1.000000000000000082E-05 ), #238, 'distance_accuracy_value', 'NONE');
#210 =( CONVERSION_BASED_UNIT ( 'INCH', #159 ) LENGTH_UNIT ( ) NAMED_UNIT ( #206 ) );
#211 = ORIENTED_EDGE ( 'NONE', *, *, #139, .F. ) ;
#212 = APPLICATION_PROTOCOL_DEFINITION ( 'draft international standard', 'automotive_design', 1998, #234 ) ;
#213 = VERTEX_POINT ( 'NONE', #301 ) ;
#214 = AXIS2_PLACEMENT_3D ( 'NONE', #185, #59, #313 ) ;
#215 = MECHANICAL_DESIGN_GEOMETRIC_PRESENTATION_REPRESENTATION (  '', ( #171 ), #108 ) ;
#216 = FILL_AREA_STYLE ('',( #294 ) ) ;
#217 = CARTESIAN_POINT ( 'NONE',  ( -0.1179918899999999049, 1.445707119305702357E-17, 0.7086609999999999854 ) ) ;
#218 = LENGTH_MEASURE_WITH_UNIT ( LENGTH_MEASURE( 0.02539999999999999897 ), #323 );
#219 = VECTOR ( 'NONE', #190, 39.37007874015748143 ) ;
#220 = SURFACE_STYLE_FILL_AREA ( #216 ) ;
#221 = SPHERICAL_SURFACE ( 'NONE', #147, 0.1179918899999999882 ) ;
#222 = DIRECTION ( 'NONE',  ( 0.0000000000000000000, 0.0000000000000000000, -1.000000000000000000 ) ) ;
#223 = PRESENTATION_LAYER_ASSIGNMENT (  '', '', ( #41 ) ) ;
#224 = DIRECTION ( 'NONE',  ( 0.0000000000000000000, 0.0000000000000000000, 1.000000000000000000 ) ) ;
#225 = AXIS2_PLACEMENT_3D ( 'NONE', #279, #227, #3 ) ;
#226 = EDGE_CURVE ( 'NONE', #311, #180, #1, .T. ) ;
#227 = DIRECTION ( 'NONE',  ( -0.0000000000000000000, -0.0000000000000000000, -1.000000000000000000 ) ) ;
#228 = CARTESIAN_POINT ( 'NONE',  ( -0.1181099999999999234, 0.0000000000000000000, 0.7093308350957151509 ) ) ;
#229 = ORIENTED_EDGE ( 'NONE', *, *, #172, .T. ) ;
#230 = CARTESIAN_POINT ( 'NONE',  ( 1.444983904138465938E-17, 0.0000000000000000000, 0.1179918899999999882 ) ) ;
#231 = ORIENTED_EDGE ( 'NONE', *, *, #154, .F. ) ;
#232 = ADVANCED_FACE ( 'NONE', ( #178 ), #322, .T. ) ;
#233 = EDGE_LOOP ( 'NONE', ( #203, #283, #290, #35 ) ) ;
#234 = APPLICATION_CONTEXT ( 'automotive_design' ) ;
#235 =( NAMED_UNIT ( * ) PLANE_ANGLE_UNIT ( ) SI_UNIT ( $, .RADIAN. ) );
#236 = CARTESIAN_POINT ( 'NONE',  ( 0.1179918900000000853, 0.0000000000000000000, 0.7086609999999999854 ) ) ;
#237 = AXIS2_PLACEMENT_3D ( 'NONE', #230, #46, #177 ) ;
#238 =( CONVERSION_BASED_UNIT ( 'INCH', #100 ) LENGTH_UNIT ( ) NAMED_UNIT ( #17 ) );
#239 = ORIENTED_EDGE ( 'NONE', *, *, #163, .T. ) ;
#240 = PRODUCT_RELATED_PRODUCT_CATEGORY ( 'part', '', ( #149 ) ) ;
#241 = FILL_AREA_STYLE ('',( #13 ) ) ;
#242 = ORIENTED_EDGE ( 'NONE', *, *, #139, .T. ) ;
#243 = CARTESIAN_POINT ( 'NONE',  ( 0.0000000000000000000, 0.0000000000000000000, 2.244094000000000033 ) ) ;
#245 = EDGE_CURVE ( 'NONE', #213, #79, #97, .T. ) ;
#244 = FACE_OUTER_BOUND ( 'NONE', #83, .T. ) ;
#246 = AXIS2_PLACEMENT_3D ( 'NONE', #47, #282, #252 ) ;
#247 = DIRECTION ( 'NONE',  ( 1.000000000000000000, 0.0000000000000000000, -0.0000000000000000000 ) ) ;
#248 = FACE_OUTER_BOUND ( 'NONE', #292, .T. ) ;
#249 = DIRECTION ( 'NONE',  ( -1.000000000000000000, 0.0000000000000000000, 0.0000000000000000000 ) ) ;
#250 = ORIENTED_EDGE ( 'NONE', *, *, #226, .F. ) ;
#251 = AXIS2_PLACEMENT_3D ( 'NONE', #187, #80, #135 ) ;
#252 = DIRECTION ( 'NONE',  ( 1.000000000000000000, 0.0000000000000000000, 0.0000000000000000000 ) ) ;
#253 = CIRCLE ( 'NONE', #10, 0.1179918899999999882 ) ;
#254 = DIRECTION ( 'NONE',  ( -1.224646799147353207E-16, -0.0000000000000000000, -1.000000000000000000 ) ) ;
#255 = CARTESIAN_POINT ( 'NONE',  ( 0.0000000000000000000, 0.0000000000000000000, 2.244094000000000033 ) ) ;
#256 = EDGE_LOOP ( 'NONE', ( #124, #242, #263 ) ) ;
#257 = ADVANCED_FACE ( 'NONE', ( #325 ), #291, .T. ) ;
#258 = DIRECTION ( 'NONE',  ( 0.0000000000000000000, 0.0000000000000000000, 1.000000000000000000 ) ) ;
#259 = AXIS2_PLACEMENT_3D ( 'NONE', #27, #24, #249 ) ;
#260 = PRODUCT_DEFINITION ( 'UNKNOWN', '', #299, #15 ) ;
#261 = ORIENTED_EDGE ( 'NONE', *, *, #67, .F. ) ;
#262 =( NAMED_UNIT ( * ) SI_UNIT ( $, .STERADIAN. ) SOLID_ANGLE_UNIT ( ) );
#263 = ORIENTED_EDGE ( 'NONE', *, *, #316, .F. ) ;
#264 = VERTEX_POINT ( 'NONE', #174 ) ;
#265 = VECTOR ( 'NONE', #170, 39.37007874015748143 ) ;
#266 = ORIENTED_EDGE ( 'NONE', *, *, #161, .F. ) ;
#267 = EDGE_LOOP ( 'NONE', ( #25, #317, #8, #133 ) ) ;
#268 = EDGE_CURVE ( 'NONE', #264, #289, #7, .T. ) ;
#269 = CARTESIAN_POINT ( 'NONE',  ( 0.1181100000000000066, 1.446430334472939084E-17, 2.244094000000000033 ) ) ;
#270 = CIRCLE ( 'NONE', #246, 0.1181100000000000066 ) ;
#271 = DIRECTION ( 'NONE',  ( 0.0000000000000000000, 0.0000000000000000000, -1.000000000000000000 ) ) ;
#272 = LINE ( 'NONE', #84, #68 ) ;
#273 = CIRCLE ( 'NONE', #23, 0.1031100000000002570 ) ;
#274 = VECTOR ( 'NONE', #73, 39.37007874015747433 ) ;
#275 = PRESENTATION_STYLE_ASSIGNMENT (( #66 ) ) ;
#276 = DIRECTION ( 'NONE',  ( -1.224646799147353207E-16, -0.0000000000000000000, -1.000000000000000000 ) ) ;
#277 = ADVANCED_BREP_SHAPE_REPRESENTATION ( 'Micro_BEMM-060-4X', ( #78, #310 ), #85 ) ;
#278 = FACE_OUTER_BOUND ( 'NONE', #55, .T. ) ;
#279 = CARTESIAN_POINT ( 'NONE',  ( 0.0000000000000000000, 0.0000000000000000000, 2.244094000000000033 ) ) ;
#280 = COLOUR_RGB ( '',0.7921568627450980005, 0.8196078431372548767, 0.9333333333333333481 ) ;
#281 = DIRECTION ( 'NONE',  ( 1.224646799147353207E-16, 0.0000000000000000000, 1.000000000000000000 ) ) ;
#282 = DIRECTION ( 'NONE',  ( 0.0000000000000000000, 0.0000000000000000000, -1.000000000000000000 ) ) ;
#283 = ORIENTED_EDGE ( 'NONE', *, *, #34, .T. ) ;
#284 = ADVANCED_FACE ( 'NONE', ( #5 ), #82, .T. ) ;
#285 = AXIS2_PLACEMENT_3D ( 'NONE', #150, #51, #198 ) ;
#286 = VERTEX_POINT ( 'NONE', #120 ) ;
#287 = ADVANCED_FACE ( 'NONE', ( #90 ), #121, .T. ) ;
#288 = CYLINDRICAL_SURFACE ( 'NONE', #309, 0.1181100000000000066 ) ;
#289 = VERTEX_POINT ( 'NONE', #228 ) ;
#290 = ORIENTED_EDGE ( 'NONE', *, *, #67, .T. ) ;
#291 = CONICAL_SURFACE ( 'NONE', #259, 0.1031100000000002570, 0.7853981633974318477 ) ;
#292 = EDGE_LOOP ( 'NONE', ( #211, #39, #38 ) ) ;
#293 = CARTESIAN_POINT ( 'NONE',  ( 0.1181100000000000066, 1.446430334472939084E-17, 2.229093999999999465 ) ) ;
#294 = FILL_AREA_STYLE_COLOUR ( '', #136 ) ;
#295 =( GEOMETRIC_REPRESENTATION_CONTEXT ( 3 ) GLOBAL_UNCERTAINTY_ASSIGNED_CONTEXT ( ( #130 ) ) GLOBAL_UNIT_ASSIGNED_CONTEXT ( ( #167, #42, #45 ) ) REPRESENTATION_CONTEXT ( 'NONE', 'WORKASPACE' ) );
#296 = CARTESIAN_POINT ( 'NONE',  ( 1.444983904138465938E-17, 0.0000000000000000000, 0.1179918899999999882 ) ) ;
#297 = DIRECTION ( 'NONE',  ( -0.0000000000000000000, -0.0000000000000000000, -1.000000000000000000 ) ) ;
#298 = SURFACE_SIDE_STYLE ('',( #220 ) ) ;
#299 = PRODUCT_DEFINITION_FORMATION_WITH_SPECIFIED_SOURCE ( 'ANY', '', #149, .NOT_KNOWN. ) ;
#300 = ORIENTED_EDGE ( 'NONE', *, *, #166, .T. ) ;
#301 = CARTESIAN_POINT ( 'NONE',  ( 0.1179918900000000159, 1.444983904138465938E-17, 0.1179918899999999743 ) ) ;
#302 = EDGE_CURVE ( 'NONE', #57, #289, #91, .T. ) ;
#303 = CARTESIAN_POINT ( 'NONE',  ( 0.0000000000000000000, 0.0000000000000000000, 0.0000000000000000000 ) ) ;
#304 = CARTESIAN_POINT ( 'NONE',  ( 0.0000000000000000000, 0.0000000000000000000, 2.244094000000000033 ) ) ;
#305 = AXIS2_PLACEMENT_3D ( 'NONE', #179, #88, #195 ) ;
#306 = ORIENTED_EDGE ( 'NONE', *, *, #226, .T. ) ;
#307 =( LENGTH_UNIT ( ) NAMED_UNIT ( * ) SI_UNIT ( $, .METRE. ) );
#308 = ORIENTED_EDGE ( 'NONE', *, *, #163, .F. ) ;
#309 = AXIS2_PLACEMENT_3D ( 'NONE', #243, #37, #76 ) ;
#310 = AXIS2_PLACEMENT_3D ( 'NONE', #126, #258, #312 ) ;
#311 = VERTEX_POINT ( 'NONE', #123 ) ;
#312 = DIRECTION ( 'NONE',  ( 1.000000000000000000, 0.0000000000000000000, 0.0000000000000000000 ) ) ;
#313 = DIRECTION ( 'NONE',  ( -1.000000000000000000, 0.0000000000000000000, 0.0000000000000000000 ) ) ;
#314 = EDGE_LOOP ( 'NONE', ( #61, #145, #9, #107 ) ) ;
#315 = PRODUCT_CONTEXT ( 'NONE', #234, 'mechanical' ) ;
#316 = EDGE_CURVE ( 'NONE', #79, #213, #48, .T. ) ;
#317 = ORIENTED_EDGE ( 'NONE', *, *, #194, .T. ) ;
#318 = CIRCLE ( 'NONE', #305, 0.1181100000000000066 ) ;
#319 = AXIS2_PLACEMENT_3D ( 'NONE', #148, #52, #49 ) ;
#320 = LINE ( 'NONE', #192, #191 ) ;
#321 = DIRECTION ( 'NONE',  ( 1.000000000000000000, 0.0000000000000000000, 0.0000000000000000000 ) ) ;
#322 = CONICAL_SURFACE ( 'NONE', #119, 0.1031100000000002570, 0.7853981633974318477 ) ;
#323 =( LENGTH_UNIT ( ) NAMED_UNIT ( * ) SI_UNIT ( $, .METRE. ) );
#324 = DIRECTION ( 'NONE',  ( -0.7071067811865358044, 0.0000000000000000000, -0.7071067811865590080 ) ) ;
#325 = FACE_OUTER_BOUND ( 'NONE', #75, .T. ) ;
ENDSEC;
END-ISO-10303-21;
