ISO-10303-21;
HEADER;
FILE_DESCRIPTION (( 'STEP AP214' ),
    '1' );
FILE_NAME ('30107.STEP',
    '2023-06-22T17:57:06',
    ( '' ),
    ( '' ),
    'SwSTEP 2.0',
    'SolidWorks 2023',
    '' );
FILE_SCHEMA (( 'AUTOMOTIVE_DESIGN' ));
ENDSEC;

DATA;
#1 =( NAMED_UNIT ( * ) PLANE_ANGLE_UNIT ( ) SI_UNIT ( $, .RADIAN. ) );
#2 = LENGTH_MEASURE_WITH_UNIT ( LENGTH_MEASURE( 0.02539999999999999897 ), #336 );
#3 = ORIENTED_EDGE ( 'NONE', *, *, #309, .T. ) ;
#4 = AXIS2_PLACEMENT_3D ( 'NONE', #227, #173, #280 ) ;
#5 = DIMENSIONAL_EXPONENTS ( 1.000000000000000000, 0.000000000000000000, 0.000000000000000000, 0.000000000000000000, 0.000000000000000000, 0.000000000000000000, 0.000000000000000000 ) ;
#6 = AXIS2_PLACEMENT_3D ( 'NONE', #76, #352, #193 ) ;
#7 = VERTEX_POINT ( 'NONE', #149 ) ;
#8 = DIRECTION ( 'NONE',  ( -0.000000000000000000, -1.000000000000000000, -0.000000000000000000 ) ) ;
#9 = VERTEX_POINT ( 'NONE', #174 ) ;
#10 = FACE_OUTER_BOUND ( 'NONE', #177, .T. ) ;
#11 = CARTESIAN_POINT ( 'NONE',  ( 0.000000000000000000, 0.2500000000000000000, 0.000000000000000000 ) ) ;
#12 = VERTEX_POINT ( 'NONE', #117 ) ;
#13 = ORIENTED_EDGE ( 'NONE', *, *, #108, .T. ) ;
#14 = DIRECTION ( 'NONE',  ( -1.000000000000000000, 0.000000000000000000, 0.000000000000000000 ) ) ;
#15 = DIRECTION ( 'NONE',  ( -1.000000000000000000, 0.000000000000000000, 0.000000000000000000 ) ) ;
#16 = EDGE_CURVE ( 'NONE', #266, #31, #237, .T. ) ;
#17 = CIRCLE ( 'NONE', #252, 0.1093499999999999889 ) ;
#18 = DIRECTION ( 'NONE',  ( -0.000000000000000000, -1.000000000000000000, -0.000000000000000000 ) ) ;
#19 = DIRECTION ( 'NONE',  ( -1.000000000000000000, 0.000000000000000000, 0.000000000000000000 ) ) ;
#20 =( NAMED_UNIT ( * ) SI_UNIT ( $, .STERADIAN. ) SOLID_ANGLE_UNIT ( ) );
#21 = CARTESIAN_POINT ( 'NONE',  ( 0.000000000000000000, 0.000000000000000000, 0.000000000000000000 ) ) ;
#22 = MECHANICAL_DESIGN_GEOMETRIC_PRESENTATION_REPRESENTATION (  '', ( #337 ), #258 ) ;
#23 = MECHANICAL_DESIGN_GEOMETRIC_PRESENTATION_REPRESENTATION (  '', ( #328 ), #301 ) ;
#24 = DIRECTION ( 'NONE',  ( -0.000000000000000000, -1.000000000000000000, -0.000000000000000000 ) ) ;
#25 = ADVANCED_FACE ( 'NONE', ( #152 ), #343, .T. ) ;
#26 = DIRECTION ( 'NONE',  ( 3.498990854706723361E-17, 1.000000000000000000, -0.000000000000000000 ) ) ;
#27 = DIRECTION ( 'NONE',  ( 0.000000000000000000, 0.000000000000000000, -1.000000000000000000 ) ) ;
#28 = DIRECTION ( 'NONE',  ( 0.000000000000000000, 0.000000000000000000, 1.000000000000000000 ) ) ;
#29 = DIMENSIONAL_EXPONENTS ( 1.000000000000000000, 0.000000000000000000, 0.000000000000000000, 0.000000000000000000, 0.000000000000000000, 0.000000000000000000, 0.000000000000000000 ) ;
#30 = CIRCLE ( 'NONE', #215, 0.1250000000000000000 ) ;
#31 = VERTEX_POINT ( 'NONE', #255 ) ;
#32 = EDGE_CURVE ( 'NONE', #7, #12, #300, .T. ) ;
#33 = ORIENTED_EDGE ( 'NONE', *, *, #254, .T. ) ;
#34 = PRESENTATION_LAYER_ASSIGNMENT (  '', '', ( #337 ) ) ;
#35 = DIRECTION ( 'NONE',  ( -1.000000000000000000, 0.000000000000000000, 0.000000000000000000 ) ) ;
#36 =( NAMED_UNIT ( * ) SI_UNIT ( $, .STERADIAN. ) SOLID_ANGLE_UNIT ( ) );
#37 = ADVANCED_FACE ( 'NONE', ( #175 ), #284, .T. ) ;
#38 = EDGE_LOOP ( 'NONE', ( #290, #156 ) ) ;
#39 = CYLINDRICAL_SURFACE ( 'NONE', #145, 0.1250000000000000278 ) ;
#40 = ORIENTED_EDGE ( 'NONE', *, *, #182, .T. ) ;
#41 = FILL_AREA_STYLE_COLOUR ( '', #141 ) ;
#42 = CLOSED_SHELL ( 'NONE', ( #216, #25, #142, #37 ) ) ;
#43 = STYLED_ITEM ( 'NONE', ( #105 ), #223 ) ;
#44 = PRESENTATION_STYLE_ASSIGNMENT (( #186 ) ) ;
#45 = PRESENTATION_LAYER_ASSIGNMENT (  '', '', ( #171 ) ) ;
#46 = CIRCLE ( 'NONE', #239, 0.1250000000000000000 ) ;
#47 =( LENGTH_UNIT ( ) NAMED_UNIT ( * ) SI_UNIT ( $, .METRE. ) );
#48 = CYLINDRICAL_SURFACE ( 'NONE', #167, 0.1093499999999999889 ) ;
#49 = SURFACE_STYLE_FILL_AREA ( #131 ) ;
#50 = CYLINDRICAL_SURFACE ( 'NONE', #312, 0.1250000000000000278 ) ;
#51 = ADVANCED_FACE ( 'NONE', ( #207 ), #39, .T. ) ;
#52 =( NAMED_UNIT ( * ) SI_UNIT ( $, .STERADIAN. ) SOLID_ANGLE_UNIT ( ) );
#53 = AXIS2_PLACEMENT_3D ( 'NONE', #96, #181, #14 ) ;
#54 = VECTOR ( 'NONE', #8, 39.37007874015748143 ) ;
#55 =( LENGTH_UNIT ( ) NAMED_UNIT ( * ) SI_UNIT ( $, .METRE. ) );
#56 =( NAMED_UNIT ( * ) SI_UNIT ( $, .STERADIAN. ) SOLID_ANGLE_UNIT ( ) );
#57 = CARTESIAN_POINT ( 'NONE',  ( 0.1250000000000001110, 2.000000000000000000, 1.530808498934191817E-17 ) ) ;
#58 = DIMENSIONAL_EXPONENTS ( 1.000000000000000000, 0.000000000000000000, 0.000000000000000000, 0.000000000000000000, 0.000000000000000000, 0.000000000000000000, 0.000000000000000000 ) ;
#59 = VECTOR ( 'NONE', #158, 39.37007874015748143 ) ;
#60 = LENGTH_MEASURE_WITH_UNIT ( LENGTH_MEASURE( 0.02539999999999999897 ), #229 );
#61 = ADVANCED_FACE ( 'NONE', ( #92 ), #179, .F. ) ;
#62 =( CONVERSION_BASED_UNIT ( 'INCH', #278 ) LENGTH_UNIT ( ) NAMED_UNIT ( #307 ) );
#63 = ORIENTED_EDGE ( 'NONE', *, *, #32, .T. ) ;
#64 = FILL_AREA_STYLE ('',( #314 ) ) ;
#65 = EDGE_LOOP ( 'NONE', ( #183, #122, #349, #285 ) ) ;
#66 = DIRECTION ( 'NONE',  ( 0.000000000000000000, 0.000000000000000000, -1.000000000000000000 ) ) ;
#67 = VECTOR ( 'NONE', #26, 39.37007874015748143 ) ;
#68 = ORIENTED_EDGE ( 'NONE', *, *, #276, .T. ) ;
#69 = PLANE ( 'NONE',  #267 ) ;
#70 = VERTEX_POINT ( 'NONE', #323 ) ;
#71 = CARTESIAN_POINT ( 'NONE',  ( -0.1249999999999999584, 2.000000000000000000, 0.000000000000000000 ) ) ;
#72 = LINE ( 'NONE', #71, #59 ) ;
#73 = CARTESIAN_POINT ( 'NONE',  ( 0.1250000000000000555, 0.2929980216144648653, 1.530808498934192125E-17 ) ) ;
#74 = COLOUR_RGB ( '',1.000000000000000000, 0.000000000000000000, 0.000000000000000000 ) ;
#75 = CARTESIAN_POINT ( 'NONE',  ( -0.1093499999999999889, 0.2500000000000000555, 0.000000000000000000 ) ) ;
#76 = CARTESIAN_POINT ( 'NONE',  ( 7.582401355855259480E-33, 0.2500000000000000555, 0.000000000000000000 ) ) ;
#77 = UNCERTAINTY_MEASURE_WITH_UNIT (LENGTH_MEASURE( 1.000000000000000082E-05 ), #162, 'distance_accuracy_value', 'NONE');
#78 = DIRECTION ( 'NONE',  ( 0.000000000000000000, 0.000000000000000000, -1.000000000000000000 ) ) ;
#79 = PRESENTATION_STYLE_ASSIGNMENT (( #272 ) ) ;
#80 = DIRECTION ( 'NONE',  ( 3.498990854706723361E-17, 1.000000000000000000, -0.000000000000000000 ) ) ;
#81 = EDGE_CURVE ( 'NONE', #31, #266, #133, .T. ) ;
#82 =( NAMED_UNIT ( * ) PLANE_ANGLE_UNIT ( ) SI_UNIT ( $, .RADIAN. ) );
#83 = EDGE_CURVE ( 'NONE', #31, #125, #72, .T. ) ;
#84 = APPLICATION_PROTOCOL_DEFINITION ( 'draft international standard', 'automotive_design', 1998, #251 ) ;
#85 = AXIS2_PLACEMENT_3D ( 'NONE', #232, #291, #342 ) ;
#86 = VERTEX_POINT ( 'NONE', #269 ) ;
#87 = CARTESIAN_POINT ( 'NONE',  ( 0.000000000000000000, 0.000000000000000000, 0.000000000000000000 ) ) ;
#88 = ADVANCED_FACE ( 'NONE', ( #10 ), #69, .F. ) ;
#89 = ORIENTED_EDGE ( 'NONE', *, *, #351, .T. ) ;
#90 = CARTESIAN_POINT ( 'NONE',  ( 0.000000000000000000, 0.000000000000000000, 0.000000000000000000 ) ) ;
#91 = FILL_AREA_STYLE_COLOUR ( '', #187 ) ;
#92 = FACE_OUTER_BOUND ( 'NONE', #38, .T. ) ;
#93 =( GEOMETRIC_REPRESENTATION_CONTEXT ( 3 ) GLOBAL_UNCERTAINTY_ASSIGNED_CONTEXT ( ( #270 ) ) GLOBAL_UNIT_ASSIGNED_CONTEXT ( ( #197, #289, #36 ) ) REPRESENTATION_CONTEXT ( 'NONE', 'WORKASPACE' ) );
#94 = PRESENTATION_LAYER_ASSIGNMENT (  '', '', ( #328 ) ) ;
#95 = ORIENTED_EDGE ( 'NONE', *, *, #281, .T. ) ;
#96 = CARTESIAN_POINT ( 'NONE',  ( 7.582401355855259480E-33, 0.2500000000000000555, 0.000000000000000000 ) ) ;
#97 = ORIENTED_EDGE ( 'NONE', *, *, #233, .T. ) ;
#98 = DIRECTION ( 'NONE',  ( 0.000000000000000000, -1.000000000000000000, -0.000000000000000000 ) ) ;
#99 = EDGE_CURVE ( 'NONE', #339, #9, #151, .T. ) ;
#100 = DIRECTION ( 'NONE',  ( -0.000000000000000000, -1.000000000000000000, -0.000000000000000000 ) ) ;
#101 = LENGTH_MEASURE_WITH_UNIT ( LENGTH_MEASURE( 0.02539999999999999897 ), #242 );
#102 =( NAMED_UNIT ( * ) PLANE_ANGLE_UNIT ( ) SI_UNIT ( $, .RADIAN. ) );
#103 = SURFACE_STYLE_FILL_AREA ( #191 ) ;
#104 = CONICAL_SURFACE ( 'NONE', #306, 0.1093499999999999889, 0.3490658503988679495 ) ;
#105 = PRESENTATION_STYLE_ASSIGNMENT (( #356 ) ) ;
#106 = LINE ( 'NONE', #57, #67 ) ;
#107 = SURFACE_STYLE_FILL_AREA ( #316 ) ;
#108 = EDGE_CURVE ( 'NONE', #9, #339, #118, .T. ) ;
#109 = DIMENSIONAL_EXPONENTS ( 1.000000000000000000, 0.000000000000000000, 0.000000000000000000, 0.000000000000000000, 0.000000000000000000, 0.000000000000000000, 0.000000000000000000 ) ;
#110 = DIRECTION ( 'NONE',  ( 3.498990854706723361E-17, 1.000000000000000000, -0.000000000000000000 ) ) ;
#111 = SURFACE_SIDE_STYLE ('',( #107 ) ) ;
#112 =( GEOMETRIC_REPRESENTATION_CONTEXT ( 3 ) GLOBAL_UNCERTAINTY_ASSIGNED_CONTEXT ( ( #136 ) ) GLOBAL_UNIT_ASSIGNED_CONTEXT ( ( #353, #102, #52 ) ) REPRESENTATION_CONTEXT ( 'NONE', 'WORKASPACE' ) );
#113 = SURFACE_SIDE_STYLE ('',( #287 ) ) ;
#114 = PRODUCT_DEFINITION ( 'UNKNOWN', '', #243, #299 ) ;
#115 =( NAMED_UNIT ( * ) PLANE_ANGLE_UNIT ( ) SI_UNIT ( $, .RADIAN. ) );
#116 = PRODUCT_CONTEXT ( 'NONE', #213, 'mechanical' ) ;
#117 = CARTESIAN_POINT ( 'NONE',  ( 0.000000000000000000, 0.000000000000000000, -0.1093500000000000028 ) ) ;
#118 = CIRCLE ( 'NONE', #53, 0.1093499999999999889 ) ;
#119 = EDGE_CURVE ( 'NONE', #292, #86, #248, .T. ) ;
#120 = VECTOR ( 'NONE', #354, 39.37007874015748143 ) ;
#121 = ORIENTED_EDGE ( 'NONE', *, *, #119, .T. ) ;
#122 = ORIENTED_EDGE ( 'NONE', *, *, #16, .T. ) ;
#123 = PRODUCT_DEFINITION_SHAPE ( 'NONE', 'NONE',  #114 ) ;
#124 = DIRECTION ( 'NONE',  ( 3.498990854706723361E-17, 1.000000000000000000, -0.000000000000000000 ) ) ;
#125 = VERTEX_POINT ( 'NONE', #184 ) ;
#126 = DIRECTION ( 'NONE',  ( -1.000000000000000000, 0.000000000000000000, 0.000000000000000000 ) ) ;
#127 = DIRECTION ( 'NONE',  ( 0.000000000000000000, 0.000000000000000000, -1.000000000000000000 ) ) ;
#128 = COLOUR_RGB ( '',0.7921568627450980005, 0.8196078431372548767, 0.9333333333333333481 ) ;
#129 = ORIENTED_EDGE ( 'NONE', *, *, #246, .T. ) ;
#130 = DIRECTION ( 'NONE',  ( -0.000000000000000000, -1.000000000000000000, -0.000000000000000000 ) ) ;
#131 = FILL_AREA_STYLE ('',( #135 ) ) ;
#132 = EDGE_CURVE ( 'NONE', #12, #7, #196, .T. ) ;
#133 = CIRCLE ( 'NONE', #192, 0.1250000000000000555 ) ;
#134 = VECTOR ( 'NONE', #298, 39.37007874015748854 ) ;
#135 = FILL_AREA_STYLE_COLOUR ( '', #318 ) ;
#136 = UNCERTAINTY_MEASURE_WITH_UNIT (LENGTH_MEASURE( 1.000000000000000082E-05 ), #353, 'distance_accuracy_value', 'NONE');
#137 = CARTESIAN_POINT ( 'NONE',  ( 6.123233995736766036E-17, 2.000000000000000000, 0.000000000000000000 ) ) ;
#138 = SURFACE_STYLE_USAGE ( .BOTH. , #333 ) ;
#139 = LENGTH_MEASURE_WITH_UNIT ( LENGTH_MEASURE( 0.02539999999999999897 ), #326 );
#140 = CARTESIAN_POINT ( 'NONE',  ( 6.123233995736766036E-17, 2.000000000000000000, 0.000000000000000000 ) ) ;
#141 = COLOUR_RGB ( '',1.000000000000000000, 0.000000000000000000, 0.000000000000000000 ) ;
#142 = ADVANCED_FACE ( 'NONE', ( #295 ), #155, .T. ) ;
#143 = CARTESIAN_POINT ( 'NONE',  ( 6.123233995736766036E-17, 2.000000000000000000, 0.000000000000000000 ) ) ;
#144 = PRODUCT_RELATED_PRODUCT_CATEGORY ( 'part', '', ( #319 ) ) ;
#145 = AXIS2_PLACEMENT_3D ( 'NONE', #268, #188, #126 ) ;
#146 = DIRECTION ( 'NONE',  ( 1.000000000000000000, 0.000000000000000000, 0.000000000000000000 ) ) ;
#147 =( CONVERSION_BASED_UNIT ( 'INCH', #200 ) LENGTH_UNIT ( ) NAMED_UNIT ( #164 ) );
#148 = ORIENTED_EDGE ( 'NONE', *, *, #276, .F. ) ;
#149 = CARTESIAN_POINT ( 'NONE',  ( 1.339151274867630941E-17, 0.000000000000000000, 0.1093500000000000028 ) ) ;
#150 = ADVANCED_FACE ( 'NONE', ( #168 ), #172, .T. ) ;
#151 = CIRCLE ( 'NONE', #198, 0.1093499999999999889 ) ;
#152 = FACE_OUTER_BOUND ( 'NONE', #236, .T. ) ;
#153 = DIRECTION ( 'NONE',  ( -1.000000000000000000, 3.498990854706723361E-17, 0.000000000000000000 ) ) ;
#154 = ORIENTED_EDGE ( 'NONE', *, *, #233, .F. ) ;
#155 = CYLINDRICAL_SURFACE ( 'NONE', #230, 0.1093499999999999889 ) ;
#156 = ORIENTED_EDGE ( 'NONE', *, *, #108, .F. ) ;
#157 = FILL_AREA_STYLE ('',( #41 ) ) ;
#158 = DIRECTION ( 'NONE',  ( 3.498990854706723361E-17, 1.000000000000000000, -0.000000000000000000 ) ) ;
#159 = LINE ( 'NONE', #209, #54 ) ;
#160 = DIRECTION ( 'NONE',  ( -0.000000000000000000, -1.000000000000000000, -0.000000000000000000 ) ) ;
#161 = MECHANICAL_DESIGN_GEOMETRIC_PRESENTATION_REPRESENTATION (  '', ( #282 ), #93 ) ;
#162 =( CONVERSION_BASED_UNIT ( 'INCH', #277 ) LENGTH_UNIT ( ) NAMED_UNIT ( #331 ) );
#163 = FILL_AREA_STYLE_COLOUR ( '', #128 ) ;
#164 = DIMENSIONAL_EXPONENTS ( 1.000000000000000000, 0.000000000000000000, 0.000000000000000000, 0.000000000000000000, 0.000000000000000000, 0.000000000000000000, 0.000000000000000000 ) ;
#165 = DIRECTION ( 'NONE',  ( -1.000000000000000000, 0.000000000000000000, 0.000000000000000000 ) ) ;
#166 = MECHANICAL_DESIGN_GEOMETRIC_PRESENTATION_REPRESENTATION (  '', ( #171 ), #346 ) ;
#167 = AXIS2_PLACEMENT_3D ( 'NONE', #190, #18, #194 ) ;
#168 = FACE_OUTER_BOUND ( 'NONE', #204, .T. ) ;
#169 =( NAMED_UNIT ( * ) PLANE_ANGLE_UNIT ( ) SI_UNIT ( $, .RADIAN. ) );
#170 = SURFACE_STYLE_USAGE ( .BOTH. , #113 ) ;
#171 = STYLED_ITEM ( 'NONE', ( #217 ), #25 ) ;
#172 = CONICAL_SURFACE ( 'NONE', #6, 0.1093499999999999889, 0.3490658503988679495 ) ;
#173 = DIRECTION ( 'NONE',  ( 0.000000000000000000, 1.000000000000000000, 0.000000000000000000 ) ) ;
#174 = CARTESIAN_POINT ( 'NONE',  ( 0.1093499999999999889, 0.2500000000000000555, 1.434979886900911302E-17 ) ) ;
#175 = FACE_OUTER_BOUND ( 'NONE', #205, .T. ) ;
#176 = CARTESIAN_POINT ( 'NONE',  ( 1.504496843994944312E-18, 0.2929980216144648653, 0.000000000000000000 ) ) ;
#177 = EDGE_LOOP ( 'NONE', ( #129, #95 ) ) ;
#178 = AXIS2_PLACEMENT_3D ( 'NONE', #176, #286, #35 ) ;
#179 = PLANE ( 'NONE',  #222 ) ;
#180 = ORIENTED_EDGE ( 'NONE', *, *, #81, .T. ) ;
#181 = DIRECTION ( 'NONE',  ( 3.498990854706723361E-17, 1.000000000000000000, -0.000000000000000000 ) ) ;
#182 = EDGE_CURVE ( 'NONE', #339, #31, #189, .T. ) ;
#183 = ORIENTED_EDGE ( 'NONE', *, *, #351, .F. ) ;
#184 = CARTESIAN_POINT ( 'NONE',  ( -0.1249999999999999306, 2.000000000000000000, 0.000000000000000000 ) ) ;
#185 = SURFACE_STYLE_USAGE ( .BOTH. , #111 ) ;
#186 = SURFACE_STYLE_USAGE ( .BOTH. , #350 ) ;
#187 = COLOUR_RGB ( '',1.000000000000000000, 0.000000000000000000, 0.000000000000000000 ) ;
#188 = DIRECTION ( 'NONE',  ( 3.498990854706723361E-17, 1.000000000000000000, -0.000000000000000000 ) ) ;
#189 = LINE ( 'NONE', #75, #134 ) ;
#190 = CARTESIAN_POINT ( 'NONE',  ( 0.000000000000000000, 0.000000000000000000, 0.000000000000000000 ) ) ;
#191 = FILL_AREA_STYLE ('',( #163 ) ) ;
#192 = AXIS2_PLACEMENT_3D ( 'NONE', #238, #296, #262 ) ;
#193 = DIRECTION ( 'NONE',  ( -1.000000000000000000, 0.000000000000000000, 0.000000000000000000 ) ) ;
#194 = DIRECTION ( 'NONE',  ( 0.000000000000000000, 0.000000000000000000, -1.000000000000000000 ) ) ;
#195 = CARTESIAN_POINT ( 'NONE',  ( 1.339151274867630478E-17, 0.2500000000000000000, 0.1093499999999999889 ) ) ;
#196 = CIRCLE ( 'NONE', #294, 0.1093500000000000028 ) ;
#197 =( CONVERSION_BASED_UNIT ( 'INCH', #2 ) LENGTH_UNIT ( ) NAMED_UNIT ( #109 ) );
#198 = AXIS2_PLACEMENT_3D ( 'NONE', #211, #320, #15 ) ;
#199 = MECHANICAL_DESIGN_GEOMETRIC_PRESENTATION_REPRESENTATION (  '', ( #43 ), #329 ) ;
#200 = LENGTH_MEASURE_WITH_UNIT ( LENGTH_MEASURE( 0.02539999999999999897 ), #228 );
#201 = ORIENTED_EDGE ( 'NONE', *, *, #132, .F. ) ;
#202 = APPLICATION_PROTOCOL_DEFINITION ( 'draft international standard', 'automotive_design', 1998, #213 ) ;
#203 = DIRECTION ( 'NONE',  ( -0.000000000000000000, -1.000000000000000000, -0.000000000000000000 ) ) ;
#204 = EDGE_LOOP ( 'NONE', ( #256, #3, #341, #240 ) ) ;
#205 = EDGE_LOOP ( 'NONE', ( #257, #63 ) ) ;
#206 = ADVANCED_FACE ( 'NONE', ( #247 ), #104, .T. ) ;
#207 = FACE_OUTER_BOUND ( 'NONE', #65, .T. ) ;
#208 = MECHANICAL_DESIGN_GEOMETRIC_PRESENTATION_REPRESENTATION (  '', ( #359 ), #112 ) ;
#209 = CARTESIAN_POINT ( 'NONE',  ( 0.000000000000000000, 0.000000000000000000, -0.1093499999999999889 ) ) ;
#210 = ORIENTED_EDGE ( 'NONE', *, *, #246, .F. ) ;
#211 = CARTESIAN_POINT ( 'NONE',  ( 7.582401355855259480E-33, 0.2500000000000000555, 0.000000000000000000 ) ) ;
#212 = EDGE_LOOP ( 'NONE', ( #33, #97, #201, #148 ) ) ;
#213 = APPLICATION_CONTEXT ( 'automotive_design' ) ;
#214 =( CONVERSION_BASED_UNIT ( 'INCH', #101 ) LENGTH_UNIT ( ) NAMED_UNIT ( #58 ) );
#215 = AXIS2_PLACEMENT_3D ( 'NONE', #137, #110, #224 ) ;
#216 = ADVANCED_FACE ( 'NONE', ( #302 ), #48, .T. ) ;
#217 = PRESENTATION_STYLE_ASSIGNMENT (( #185 ) ) ;
#218 = DIRECTION ( 'NONE',  ( -1.000000000000000000, 0.000000000000000000, 0.000000000000000000 ) ) ;
#219 = SURFACE_SIDE_STYLE ('',( #327 ) ) ;
#220 = UNCERTAINTY_MEASURE_WITH_UNIT (LENGTH_MEASURE( 1.000000000000000082E-05 ), #214, 'distance_accuracy_value', 'NONE');
#221 = PRESENTATION_STYLE_ASSIGNMENT (( #138 ) ) ;
#222 = AXIS2_PLACEMENT_3D ( 'NONE', #344, #124, #153 ) ;
#223 = MANIFOLD_SOLID_BREP ( 'Revolve - Tool Body (Reduced Cut Diameter)', #311 ) ;
#224 = DIRECTION ( 'NONE',  ( -1.000000000000000000, 0.000000000000000000, 0.000000000000000000 ) ) ;
#225 = SHAPE_DEFINITION_REPRESENTATION ( #123, #334 ) ;
#226 = CARTESIAN_POINT ( 'NONE',  ( -0.1093499999999999889, 0.2500000000000000555, 0.000000000000000000 ) ) ;
#227 = CARTESIAN_POINT ( 'NONE',  ( 0.000000000000000000, 0.2500000000000000000, 0.000000000000000000 ) ) ;
#228 =( LENGTH_UNIT ( ) NAMED_UNIT ( * ) SI_UNIT ( $, .METRE. ) );
#229 =( LENGTH_UNIT ( ) NAMED_UNIT ( * ) SI_UNIT ( $, .METRE. ) );
#230 = AXIS2_PLACEMENT_3D ( 'NONE', #21, #160, #78 ) ;
#231 = EDGE_LOOP ( 'NONE', ( #154, #121, #68, #313 ) ) ;
#232 = CARTESIAN_POINT ( 'NONE',  ( 0.000000000000000000, 0.2500000000000000000, 0.000000000000000000 ) ) ;
#233 = EDGE_CURVE ( 'NONE', #292, #7, #335, .T. ) ;
#234 = EDGE_LOOP ( 'NONE', ( #180, #89, #210, #261 ) ) ;
#235 = CARTESIAN_POINT ( 'NONE',  ( 0.1250000000000000555, 2.000000000000000000, 0.000000000000000000 ) ) ;
#236 = EDGE_LOOP ( 'NONE', ( #324, #315 ) ) ;
#237 = CIRCLE ( 'NONE', #178, 0.1250000000000000555 ) ;
#238 = CARTESIAN_POINT ( 'NONE',  ( 1.504496843994944312E-18, 0.2929980216144648653, 0.000000000000000000 ) ) ;
#239 = AXIS2_PLACEMENT_3D ( 'NONE', #140, #80, #218 ) ;
#240 = ORIENTED_EDGE ( 'NONE', *, *, #182, .F. ) ;
#241 = SURFACE_STYLE_FILL_AREA ( #157 ) ;
#242 =( LENGTH_UNIT ( ) NAMED_UNIT ( * ) SI_UNIT ( $, .METRE. ) );
#243 = PRODUCT_DEFINITION_FORMATION_WITH_SPECIFIED_SOURCE ( 'ANY', '', #319, .NOT_KNOWN. ) ;
#244 =( NAMED_UNIT ( * ) PLANE_ANGLE_UNIT ( ) SI_UNIT ( $, .RADIAN. ) );
#245 = CARTESIAN_POINT ( 'NONE',  ( 0.1093499999999999889, 0.2500000000000000555, 1.339151274867630478E-17 ) ) ;
#246 = EDGE_CURVE ( 'NONE', #125, #70, #30, .T. ) ;
#247 = FACE_OUTER_BOUND ( 'NONE', #322, .T. ) ;
#248 = CIRCLE ( 'NONE', #85, 0.1093499999999999889 ) ;
#249 = SURFACE_SIDE_STYLE ('',( #49 ) ) ;
#250 = CARTESIAN_POINT ( 'NONE',  ( 1.339151274867630478E-17, 0.000000000000000000, 0.1093499999999999889 ) ) ;
#251 = APPLICATION_CONTEXT ( 'automotive_design' ) ;
#252 = AXIS2_PLACEMENT_3D ( 'NONE', #11, #100, #127 ) ;
#253 =( CONVERSION_BASED_UNIT ( 'INCH', #60 ) LENGTH_UNIT ( ) NAMED_UNIT ( #29 ) );
#254 = EDGE_CURVE ( 'NONE', #86, #292, #17, .T. ) ;
#255 = CARTESIAN_POINT ( 'NONE',  ( -0.1250000000000000555, 0.2929980216144648653, 0.000000000000000000 ) ) ;
#256 = ORIENTED_EDGE ( 'NONE', *, *, #99, .T. ) ;
#257 = ORIENTED_EDGE ( 'NONE', *, *, #132, .T. ) ;
#258 =( GEOMETRIC_REPRESENTATION_CONTEXT ( 3 ) GLOBAL_UNCERTAINTY_ASSIGNED_CONTEXT ( ( #220 ) ) GLOBAL_UNIT_ASSIGNED_CONTEXT ( ( #214, #244, #20 ) ) REPRESENTATION_CONTEXT ( 'NONE', 'WORKASPACE' ) );
#259 = AXIS2_PLACEMENT_3D ( 'NONE', #279, #28, #146 ) ;
#260 = PRESENTATION_STYLE_ASSIGNMENT (( #170 ) ) ;
#261 = ORIENTED_EDGE ( 'NONE', *, *, #83, .F. ) ;
#262 = DIRECTION ( 'NONE',  ( -1.000000000000000000, 0.000000000000000000, 0.000000000000000000 ) ) ;
#263 = ORIENTED_EDGE ( 'NONE', *, *, #16, .F. ) ;
#264 = DIRECTION ( 'NONE',  ( 1.000000000000000000, -3.498990854706723361E-17, 0.000000000000000000 ) ) ;
#265 = UNCERTAINTY_MEASURE_WITH_UNIT (LENGTH_MEASURE( 1.000000000000000082E-05 ), #62, 'distance_accuracy_value', 'NONE');
#266 = VERTEX_POINT ( 'NONE', #73 ) ;
#267 = AXIS2_PLACEMENT_3D ( 'NONE', #235, #293, #264 ) ;
#268 = CARTESIAN_POINT ( 'NONE',  ( 6.123233995736766036E-17, 2.000000000000000000, 0.000000000000000000 ) ) ;
#269 = CARTESIAN_POINT ( 'NONE',  ( 0.000000000000000000, 0.2500000000000000000, -0.1093499999999999889 ) ) ;
#270 = UNCERTAINTY_MEASURE_WITH_UNIT (LENGTH_MEASURE( 1.000000000000000082E-05 ), #197, 'distance_accuracy_value', 'NONE');
#271 = DIRECTION ( 'NONE',  ( 3.498990854706723361E-17, 1.000000000000000000, -0.000000000000000000 ) ) ;
#272 = SURFACE_STYLE_USAGE ( .BOTH. , #219 ) ;
#273 = FILL_AREA_STYLE_COLOUR ( '', #74 ) ;
#274 = AXIS2_PLACEMENT_3D ( 'NONE', #87, #203, #27 ) ;
#275 = VECTOR ( 'NONE', #24, 39.37007874015748143 ) ;
#276 = EDGE_CURVE ( 'NONE', #86, #12, #159, .T. ) ;
#277 = LENGTH_MEASURE_WITH_UNIT ( LENGTH_MEASURE( 0.02539999999999999897 ), #47 );
#278 = LENGTH_MEASURE_WITH_UNIT ( LENGTH_MEASURE( 0.02539999999999999897 ), #55 );
#279 = CARTESIAN_POINT ( 'NONE',  ( 0.000000000000000000, 0.000000000000000000, 0.000000000000000000 ) ) ;
#280 = DIRECTION ( 'NONE',  ( 0.000000000000000000, -0.000000000000000000, 1.000000000000000000 ) ) ;
#281 = EDGE_CURVE ( 'NONE', #70, #125, #46, .T. ) ;
#282 = STYLED_ITEM ( 'NONE', ( #260 ), #37 ) ;
#283 = PRESENTATION_LAYER_ASSIGNMENT (  '', '', ( #43 ) ) ;
#284 = PLANE ( 'NONE',  #355 ) ;
#285 = ORIENTED_EDGE ( 'NONE', *, *, #281, .F. ) ;
#286 = DIRECTION ( 'NONE',  ( 3.498990854706723361E-17, 1.000000000000000000, -0.000000000000000000 ) ) ;
#287 = SURFACE_STYLE_FILL_AREA ( #64 ) ;
#288 = PRESENTATION_LAYER_ASSIGNMENT (  '', '', ( #359 ) ) ;
#289 =( NAMED_UNIT ( * ) PLANE_ANGLE_UNIT ( ) SI_UNIT ( $, .RADIAN. ) );
#290 = ORIENTED_EDGE ( 'NONE', *, *, #99, .F. ) ;
#291 = DIRECTION ( 'NONE',  ( -0.000000000000000000, -1.000000000000000000, -0.000000000000000000 ) ) ;
#292 = VERTEX_POINT ( 'NONE', #195 ) ;
#293 = DIRECTION ( 'NONE',  ( -3.498990854706723361E-17, -1.000000000000000000, 0.000000000000000000 ) ) ;
#294 = AXIS2_PLACEMENT_3D ( 'NONE', #90, #130, #325 ) ;
#295 = FACE_OUTER_BOUND ( 'NONE', #231, .T. ) ;
#296 = DIRECTION ( 'NONE',  ( 3.498990854706723361E-17, 1.000000000000000000, -0.000000000000000000 ) ) ;
#297 = ADVANCED_FACE ( 'NONE', ( #304 ), #50, .T. ) ;
#298 = DIRECTION ( 'NONE',  ( -0.3420201433256706003, 0.9396926207859076507, 0.000000000000000000 ) ) ;
#299 = PRODUCT_DEFINITION_CONTEXT ( 'detailed design', #251, 'design' ) ;
#300 = CIRCLE ( 'NONE', #274, 0.1093500000000000028 ) ;
#301 =( GEOMETRIC_REPRESENTATION_CONTEXT ( 3 ) GLOBAL_UNCERTAINTY_ASSIGNED_CONTEXT ( ( #303 ) ) GLOBAL_UNIT_ASSIGNED_CONTEXT ( ( #147, #169, #340 ) ) REPRESENTATION_CONTEXT ( 'NONE', 'WORKASPACE' ) );
#302 = FACE_OUTER_BOUND ( 'NONE', #212, .T. ) ;
#303 = UNCERTAINTY_MEASURE_WITH_UNIT (LENGTH_MEASURE( 1.000000000000000082E-05 ), #147, 'distance_accuracy_value', 'NONE');
#304 = FACE_OUTER_BOUND ( 'NONE', #234, .T. ) ;
#305 = DIRECTION ( 'NONE',  ( 3.498990854706723361E-17, 1.000000000000000000, -0.000000000000000000 ) ) ;
#306 = AXIS2_PLACEMENT_3D ( 'NONE', #330, #305, #165 ) ;
#307 = DIMENSIONAL_EXPONENTS ( 1.000000000000000000, 0.000000000000000000, 0.000000000000000000, 0.000000000000000000, 0.000000000000000000, 0.000000000000000000, 0.000000000000000000 ) ;
#308 =( NAMED_UNIT ( * ) SI_UNIT ( $, .STERADIAN. ) SOLID_ANGLE_UNIT ( ) );
#309 = EDGE_CURVE ( 'NONE', #9, #266, #357, .T. ) ;
#310 =( NAMED_UNIT ( * ) SI_UNIT ( $, .STERADIAN. ) SOLID_ANGLE_UNIT ( ) );
#311 = CLOSED_SHELL ( 'NONE', ( #297, #150, #61, #206, #51, #88 ) ) ;
#312 = AXIS2_PLACEMENT_3D ( 'NONE', #143, #271, #19 ) ;
#313 = ORIENTED_EDGE ( 'NONE', *, *, #32, .F. ) ;
#314 = FILL_AREA_STYLE_COLOUR ( '', #317 ) ;
#315 = ORIENTED_EDGE ( 'NONE', *, *, #119, .F. ) ;
#316 = FILL_AREA_STYLE ('',( #91 ) ) ;
#317 = COLOUR_RGB ( '',1.000000000000000000, 0.000000000000000000, 0.000000000000000000 ) ;
#318 = COLOUR_RGB ( '',0.7921568627450980005, 0.8196078431372548767, 0.9333333333333333481 ) ;
#319 = PRODUCT ( '30107', '30107', '', ( #116 ) ) ;
#320 = DIRECTION ( 'NONE',  ( 3.498990854706723361E-17, 1.000000000000000000, -0.000000000000000000 ) ) ;
#321 = UNCERTAINTY_MEASURE_WITH_UNIT (LENGTH_MEASURE( 1.000000000000000082E-05 ), #253, 'distance_accuracy_value', 'NONE');
#322 = EDGE_LOOP ( 'NONE', ( #345, #13, #40, #263 ) ) ;
#323 = CARTESIAN_POINT ( 'NONE',  ( 0.1250000000000000833, 2.000000000000000000, 1.530808498934192125E-17 ) ) ;
#324 = ORIENTED_EDGE ( 'NONE', *, *, #254, .F. ) ;
#325 = DIRECTION ( 'NONE',  ( 0.000000000000000000, 0.000000000000000000, -1.000000000000000000 ) ) ;
#326 =( LENGTH_UNIT ( ) NAMED_UNIT ( * ) SI_UNIT ( $, .METRE. ) );
#327 = SURFACE_STYLE_FILL_AREA ( #332 ) ;
#328 = STYLED_ITEM ( 'NONE', ( #221 ), #338 ) ;
#329 =( GEOMETRIC_REPRESENTATION_CONTEXT ( 3 ) GLOBAL_UNCERTAINTY_ASSIGNED_CONTEXT ( ( #77 ) ) GLOBAL_UNIT_ASSIGNED_CONTEXT ( ( #162, #82, #308 ) ) REPRESENTATION_CONTEXT ( 'NONE', 'WORKASPACE' ) );
#330 = CARTESIAN_POINT ( 'NONE',  ( 7.582401355855259480E-33, 0.2500000000000000555, 0.000000000000000000 ) ) ;
#331 = DIMENSIONAL_EXPONENTS ( 1.000000000000000000, 0.000000000000000000, 0.000000000000000000, 0.000000000000000000, 0.000000000000000000, 0.000000000000000000, 0.000000000000000000 ) ;
#332 = FILL_AREA_STYLE ('',( #273 ) ) ;
#333 = SURFACE_SIDE_STYLE ('',( #103 ) ) ;
#334 = ADVANCED_BREP_SHAPE_REPRESENTATION ( '30107', ( #338, #223, #259 ), #347 ) ;
#335 = LINE ( 'NONE', #250, #275 ) ;
#336 =( LENGTH_UNIT ( ) NAMED_UNIT ( * ) SI_UNIT ( $, .METRE. ) );
#337 = STYLED_ITEM ( 'NONE', ( #44 ), #142 ) ;
#338 = MANIFOLD_SOLID_BREP ( 'Revolve - Cutting Edge', #42 ) ;
#339 = VERTEX_POINT ( 'NONE', #226 ) ;
#340 =( NAMED_UNIT ( * ) SI_UNIT ( $, .STERADIAN. ) SOLID_ANGLE_UNIT ( ) );
#341 = ORIENTED_EDGE ( 'NONE', *, *, #81, .F. ) ;
#342 = DIRECTION ( 'NONE',  ( 0.000000000000000000, 0.000000000000000000, -1.000000000000000000 ) ) ;
#343 = PLANE ( 'NONE',  #4 ) ;
#344 = CARTESIAN_POINT ( 'NONE',  ( 6.693825805472412726E-35, 0.2500000000000000000, 0.000000000000000000 ) ) ;
#345 = ORIENTED_EDGE ( 'NONE', *, *, #309, .F. ) ;
#346 =( GEOMETRIC_REPRESENTATION_CONTEXT ( 3 ) GLOBAL_UNCERTAINTY_ASSIGNED_CONTEXT ( ( #321 ) ) GLOBAL_UNIT_ASSIGNED_CONTEXT ( ( #253, #115, #56 ) ) REPRESENTATION_CONTEXT ( 'NONE', 'WORKASPACE' ) );
#347 =( GEOMETRIC_REPRESENTATION_CONTEXT ( 3 ) GLOBAL_UNCERTAINTY_ASSIGNED_CONTEXT ( ( #265 ) ) GLOBAL_UNIT_ASSIGNED_CONTEXT ( ( #62, #1, #310 ) ) REPRESENTATION_CONTEXT ( 'NONE', 'WORKASPACE' ) );
#348 = CARTESIAN_POINT ( 'NONE',  ( 0.000000000000000000, 0.000000000000000000, 0.000000000000000000 ) ) ;
#349 = ORIENTED_EDGE ( 'NONE', *, *, #83, .T. ) ;
#350 = SURFACE_SIDE_STYLE ('',( #241 ) ) ;
#351 = EDGE_CURVE ( 'NONE', #266, #70, #106, .T. ) ;
#352 = DIRECTION ( 'NONE',  ( 3.498990854706723361E-17, 1.000000000000000000, -0.000000000000000000 ) ) ;
#353 =( CONVERSION_BASED_UNIT ( 'INCH', #139 ) LENGTH_UNIT ( ) NAMED_UNIT ( #5 ) );
#354 = DIRECTION ( 'NONE',  ( 0.3420201433256707113, 0.9396926207859076507, 4.188538737677015184E-17 ) ) ;
#355 = AXIS2_PLACEMENT_3D ( 'NONE', #348, #98, #66 ) ;
#356 = SURFACE_STYLE_USAGE ( .BOTH. , #249 ) ;
#357 = LINE ( 'NONE', #245, #120 ) ;
#358 = PRESENTATION_LAYER_ASSIGNMENT (  '', '', ( #282 ) ) ;
#359 = STYLED_ITEM ( 'NONE', ( #79 ), #216 ) ;
ENDSEC;
END-ISO-10303-21;
