ISO-10303-21;
HEADER;
FILE_DESCRIPTION (( 'STEP AP214' ),
    '1' );
FILE_NAME ('Micro_BEM-312-04.STEP',
    '2021-09-03T13:11:26',
    ( '' ),
    ( '' ),
    'SwSTEP 2.0',
    'SolidWorks 2020',
    '' );
FILE_SCHEMA (( 'AUTOMOTIVE_DESIGN' ));
ENDSEC;

DATA;
#1 = AXIS2_PLACEMENT_3D ( 'NONE', #115, #215, #315 ) ;
#2 = EDGE_CURVE ( 'NONE', #105, #43, #133, .T. ) ;
#3 = FILL_AREA_STYLE ('',( #172 ) ) ;
#4 = CARTESIAN_POINT ( 'NONE',  ( -0.1560937499999998923, 1.912553868355905422E-17, 0.8129999999999999449 ) ) ;
#5 = VERTEX_POINT ( 'NONE', #214 ) ;
#6 = PRODUCT_RELATED_PRODUCT_CATEGORY ( 'part', '', ( #40 ) ) ;
#7 = SURFACE_SIDE_STYLE ('',( #67 ) ) ;
#8 = ORIENTED_EDGE ( 'NONE', *, *, #254, .F. ) ;
#9 = VECTOR ( 'NONE', #45, 39.37007874015748143 ) ;
#10 = VERTEX_POINT ( 'NONE', #89 ) ;
#11 = CIRCLE ( 'NONE', #168, 0.1562500000000000000 ) ;
#12 = ADVANCED_FACE ( 'NONE', ( #285 ), #186, .T. ) ;
#13 = ORIENTED_EDGE ( 'NONE', *, *, #121, .F. ) ;
#14 = EDGE_CURVE ( 'NONE', #68, #282, #148, .T. ) ;
#15 = VERTEX_POINT ( 'NONE', #91 ) ;
#16 = ORIENTED_EDGE ( 'NONE', *, *, #268, .F. ) ;
#17 = ADVANCED_BREP_SHAPE_REPRESENTATION ( 'Micro_BEM-312-04', ( #306, #202 ), #55 ) ;
#18 = VECTOR ( 'NONE', #144, 39.37007874015747433 ) ;
#19 =( GEOMETRIC_REPRESENTATION_CONTEXT ( 3 ) GLOBAL_UNCERTAINTY_ASSIGNED_CONTEXT ( ( #63 ) ) GLOBAL_UNIT_ASSIGNED_CONTEXT ( ( #108, #262, #137 ) ) REPRESENTATION_CONTEXT ( 'NONE', 'WORKASPACE' ) );
#20 = ORIENTED_EDGE ( 'NONE', *, *, #180, .T. ) ;
#21 = CARTESIAN_POINT ( 'NONE',  ( 1.911597113044071690E-17, 0.0000000000000000000, 0.1560937499999999756 ) ) ;
#22 = CARTESIAN_POINT ( 'NONE',  ( 9.956378477067980482E-17, 0.0000000000000000000, 0.8129999999999999449 ) ) ;
#23 = CONICAL_SURFACE ( 'NONE', #84, 0.1412499999999994871, 0.7853981633974391752 ) ;
#24 = ADVANCED_FACE ( 'NONE', ( #292 ), #139, .T. ) ;
#25 = FACE_OUTER_BOUND ( 'NONE', #312, .T. ) ;
#26 = FACE_OUTER_BOUND ( 'NONE', #179, .T. ) ;
#27 = APPLICATION_CONTEXT ( 'automotive_design' ) ;
#28 = AXIS2_PLACEMENT_3D ( 'NONE', #74, #46, #142 ) ;
#29 = AXIS2_PLACEMENT_3D ( 'NONE', #280, #323, #324 ) ;
#30 = FACE_OUTER_BOUND ( 'NONE', #261, .T. ) ;
#31 = SURFACE_SIDE_STYLE ('',( #252 ) ) ;
#32 =( CONVERSION_BASED_UNIT ( 'INCH', #203 ) LENGTH_UNIT ( ) NAMED_UNIT ( #314 ) );
#33 = ORIENTED_EDGE ( 'NONE', *, *, #246, .T. ) ;
#34 =( LENGTH_UNIT ( ) NAMED_UNIT ( * ) SI_UNIT ( $, .METRE. ) );
#35 = SURFACE_STYLE_USAGE ( .BOTH. , #7 ) ;
#36 = ORIENTED_EDGE ( 'NONE', *, *, #268, .T. ) ;
#37 = ADVANCED_FACE ( 'NONE', ( #216 ), #23, .T. ) ;
#38 = ORIENTED_EDGE ( 'NONE', *, *, #80, .T. ) ;
#39 = ORIENTED_EDGE ( 'NONE', *, *, #145, .T. ) ;
#40 = PRODUCT ( 'Micro_BEM-312-04', 'Micro_BEM-312-04', '', ( #258 ) ) ;
#41 = CARTESIAN_POINT ( 'NONE',  ( 0.0000000000000000000, 0.0000000000000000000, 2.500000000000000000 ) ) ;
#42 = APPLICATION_CONTEXT ( 'automotive_design' ) ;
#43 = VERTEX_POINT ( 'NONE', #259 ) ;
#44 = CONICAL_SURFACE ( 'NONE', #193, 0.1560937499999999756, 0.1745329251994338915 ) ;
#45 = DIRECTION ( 'NONE',  ( -1.224646799147353207E-16, -0.0000000000000000000, -1.000000000000000000 ) ) ;
#46 = DIRECTION ( 'NONE',  ( 0.0000000000000000000, -1.000000000000000000, 0.0000000000000000000 ) ) ;
#47 = ORIENTED_EDGE ( 'NONE', *, *, #159, .F. ) ;
#48 = CARTESIAN_POINT ( 'NONE',  ( 9.967230535079632947E-17, 0.0000000000000000000, 0.8138861377843152889 ) ) ;
#49 = CIRCLE ( 'NONE', #227, 0.1562500000000000000 ) ;
#50 = EDGE_CURVE ( 'NONE', #282, #68, #60, .T. ) ;
#51 = CARTESIAN_POINT ( 'NONE',  ( -0.1560937499999998923, 1.911597113044071690E-17, 0.8129999999999999449 ) ) ;
#52 = CARTESIAN_POINT ( 'NONE',  ( 9.956378477067980482E-17, 0.0000000000000000000, 0.8129999999999999449 ) ) ;
#53 = DIRECTION ( 'NONE',  ( 0.0000000000000000000, 0.0000000000000000000, 1.000000000000000000 ) ) ;
#54 = AXIS2_PLACEMENT_3D ( 'NONE', #322, #242, #223 ) ;
#55 =( GEOMETRIC_REPRESENTATION_CONTEXT ( 3 ) GLOBAL_UNCERTAINTY_ASSIGNED_CONTEXT ( ( #109 ) ) GLOBAL_UNIT_ASSIGNED_CONTEXT ( ( #32, #311, #189 ) ) REPRESENTATION_CONTEXT ( 'NONE', 'WORKASPACE' ) );
#56 = CYLINDRICAL_SURFACE ( 'NONE', #290, 0.1562500000000000000 ) ;
#57 = ORIENTED_EDGE ( 'NONE', *, *, #302, .F. ) ;
#58 = ORIENTED_EDGE ( 'NONE', *, *, #164, .F. ) ;
#59 = LINE ( 'NONE', #152, #206 ) ;
#60 = CIRCLE ( 'NONE', #200, 0.1412499999999994871 ) ;
#61 = EDGE_LOOP ( 'NONE', ( #253, #136 ) ) ;
#62 = ORIENTED_EDGE ( 'NONE', *, *, #159, .T. ) ;
#63 = UNCERTAINTY_MEASURE_WITH_UNIT (LENGTH_MEASURE( 1.000000000000000082E-05 ), #108, 'distance_accuracy_value', 'NONE');
#64 = ORIENTED_EDGE ( 'NONE', *, *, #222, .T. ) ;
#65 = AXIS2_PLACEMENT_3D ( 'NONE', #100, #75, #192 ) ;
#66 = ORIENTED_EDGE ( 'NONE', *, *, #93, .T. ) ;
#67 = SURFACE_STYLE_FILL_AREA ( #178 ) ;
#68 = VERTEX_POINT ( 'NONE', #197 ) ;
#69 = ORIENTED_EDGE ( 'NONE', *, *, #106, .F. ) ;
#70 = SPHERICAL_SURFACE ( 'NONE', #276, 0.1560937499999999756 ) ;
#71 = STYLED_ITEM ( 'NONE', ( #288 ), #17 ) ;
#72 = CARTESIAN_POINT ( 'NONE',  ( 1.911597113044071690E-17, 0.0000000000000000000, 0.1560937499999999756 ) ) ;
#73 = EDGE_CURVE ( 'NONE', #241, #90, #211, .T. ) ;
#74 = CARTESIAN_POINT ( 'NONE',  ( 1.911597113044071690E-17, 0.0000000000000000000, 0.1560937499999999756 ) ) ;
#75 = DIRECTION ( 'NONE',  ( -1.224646799147353207E-16, -0.0000000000000000000, -1.000000000000000000 ) ) ;
#76 = AXIS2_PLACEMENT_3D ( 'NONE', #149, #173, #277 ) ;
#77 = CARTESIAN_POINT ( 'NONE',  ( 0.1562500000000000000, 1.913510623667739463E-17, 2.484999999999999432 ) ) ;
#78 = DIRECTION ( 'NONE',  ( -1.000000000000000000, 0.0000000000000000000, 0.0000000000000000000 ) ) ;
#79 = VECTOR ( 'NONE', #153, 39.37007874015748143 ) ;
#80 = EDGE_CURVE ( 'NONE', #15, #289, #266, .T. ) ;
#81 = PRODUCT_DEFINITION_SHAPE ( 'NONE', 'NONE',  #187 ) ;
#82 = DIRECTION ( 'NONE',  ( 1.000000000000000000, 0.0000000000000000000, -0.0000000000000000000 ) ) ;
#83 = ORIENTED_EDGE ( 'NONE', *, *, #145, .F. ) ;
#84 = AXIS2_PLACEMENT_3D ( 'NONE', #318, #92, #154 ) ;
#85 = PRODUCT_DEFINITION_FORMATION_WITH_SPECIFIED_SOURCE ( 'ANY', '', #40, .NOT_KNOWN. ) ;
#86 = APPLICATION_PROTOCOL_DEFINITION ( 'draft international standard', 'automotive_design', 1998, #42 ) ;
#87 = DIRECTION ( 'NONE',  ( 0.0000000000000000000, 0.0000000000000000000, -1.000000000000000000 ) ) ;
#88 = ORIENTED_EDGE ( 'NONE', *, *, #164, .T. ) ;
#89 = CARTESIAN_POINT ( 'NONE',  ( 0.1562500000000001110, 1.913510623667740388E-17, 0.8138861377843152889 ) ) ;
#90 = VERTEX_POINT ( 'NONE', #217 ) ;
#91 = CARTESIAN_POINT ( 'NONE',  ( -0.1560937499999999478, 0.0000000000000000000, 0.1560937500000000311 ) ) ;
#92 = DIRECTION ( 'NONE',  ( 0.0000000000000000000, 0.0000000000000000000, -1.000000000000000000 ) ) ;
#93 = EDGE_CURVE ( 'NONE', #241, #15, #94, .T. ) ;
#94 = LINE ( 'NONE', #166, #9 ) ;
#95 = CARTESIAN_POINT ( 'NONE',  ( 0.1562500000000000000, 1.913510623667739463E-17, 2.500000000000000000 ) ) ;
#96 =( GEOMETRIC_REPRESENTATION_CONTEXT ( 3 ) GLOBAL_UNCERTAINTY_ASSIGNED_CONTEXT ( ( #209 ) ) GLOBAL_UNIT_ASSIGNED_CONTEXT ( ( #174, #229, #132 ) ) REPRESENTATION_CONTEXT ( 'NONE', 'WORKASPACE' ) );
#97 = CARTESIAN_POINT ( 'NONE',  ( 1.911597113044071690E-17, 0.0000000000000000000, 0.1560937499999999756 ) ) ;
#98 = DIRECTION ( 'NONE',  ( 1.224646799147353207E-16, 0.0000000000000000000, 1.000000000000000000 ) ) ;
#99 = CLOSED_SHELL ( 'NONE', ( #213, #255, #231, #37, #12, #243, #270, #198, #102, #24, #150 ) ) ;
#100 = CARTESIAN_POINT ( 'NONE',  ( 9.956378477067980482E-17, 0.0000000000000000000, 0.8129999999999999449 ) ) ;
#101 = AXIS2_PLACEMENT_3D ( 'NONE', #48, #224, #250 ) ;
#102 = ADVANCED_FACE ( 'NONE', ( #146 ), #44, .T. ) ;
#103 = CARTESIAN_POINT ( 'NONE',  ( -0.1412499999999994871, 0.0000000000000000000, 2.500000000000000000 ) ) ;
#104 = PRESENTATION_STYLE_ASSIGNMENT (( #129 ) ) ;
#105 = VERTEX_POINT ( 'NONE', #77 ) ;
#106 = EDGE_CURVE ( 'NONE', #10, #5, #240, .T. ) ;
#107 = PLANE ( 'NONE',  #235 ) ;
#108 =( CONVERSION_BASED_UNIT ( 'INCH', #308 ) LENGTH_UNIT ( ) NAMED_UNIT ( #191 ) );
#109 = UNCERTAINTY_MEASURE_WITH_UNIT (LENGTH_MEASURE( 1.000000000000000082E-05 ), #32, 'distance_accuracy_value', 'NONE');
#110 = PRESENTATION_LAYER_ASSIGNMENT (  '', '', ( #194 ) ) ;
#111 = CARTESIAN_POINT ( 'NONE',  ( 0.0000000000000000000, 0.0000000000000000000, 0.0000000000000000000 ) ) ;
#112 = ORIENTED_EDGE ( 'NONE', *, *, #14, .F. ) ;
#113 = CARTESIAN_POINT ( 'NONE',  ( 0.0000000000000000000, 0.0000000000000000000, 2.484999999999999432 ) ) ;
#114 =( LENGTH_UNIT ( ) NAMED_UNIT ( * ) SI_UNIT ( $, .METRE. ) );
#115 = CARTESIAN_POINT ( 'NONE',  ( 0.0000000000000000000, 0.0000000000000000000, 2.500000000000000000 ) ) ;
#116 = AXIS2_PLACEMENT_3D ( 'NONE', #72, #98, #167 ) ;
#117 = DIRECTION ( 'NONE',  ( 0.0000000000000000000, 0.0000000000000000000, 1.000000000000000000 ) ) ;
#118 = COLOUR_RGB ( '',0.7921568627450980005, 0.8196078431372548767, 0.9333333333333333481 ) ;
#119 = DIRECTION ( 'NONE',  ( -1.000000000000000000, 0.0000000000000000000, 1.224646799147353454E-16 ) ) ;
#120 = FACE_OUTER_BOUND ( 'NONE', #212, .T. ) ;
#121 = EDGE_CURVE ( 'NONE', #90, #241, #283, .T. ) ;
#122 = DIRECTION ( 'NONE',  ( -1.000000000000000000, 0.0000000000000000000, 0.0000000000000000000 ) ) ;
#123 = DIRECTION ( 'NONE',  ( 1.000000000000000000, 0.0000000000000000000, 0.0000000000000000000 ) ) ;
#124 = AXIS2_PLACEMENT_3D ( 'NONE', #239, #210, #119 ) ;
#125 = FACE_OUTER_BOUND ( 'NONE', #175, .T. ) ;
#126 = DIRECTION ( 'NONE',  ( 1.224646799147353207E-16, 0.0000000000000000000, 1.000000000000000000 ) ) ;
#127 = VECTOR ( 'NONE', #321, 39.37007874015748143 ) ;
#128 = LINE ( 'NONE', #307, #79 ) ;
#129 = SURFACE_STYLE_USAGE ( .BOTH. , #31 ) ;
#130 = DIRECTION ( 'NONE',  ( 0.7071067811865410224, 8.659560562354852739E-17, -0.7071067811865539010 ) ) ;
#131 = CIRCLE ( 'NONE', #29, 0.1560937499999999756 ) ;
#132 =( NAMED_UNIT ( * ) SI_UNIT ( $, .STERADIAN. ) SOLID_ANGLE_UNIT ( ) );
#133 = CIRCLE ( 'NONE', #176, 0.1562500000000000000 ) ;
#134 = ORIENTED_EDGE ( 'NONE', *, *, #222, .F. ) ;
#135 = VECTOR ( 'NONE', #244, 39.37007874015748854 ) ;
#136 = ORIENTED_EDGE ( 'NONE', *, *, #14, .T. ) ;
#137 =( NAMED_UNIT ( * ) SI_UNIT ( $, .STERADIAN. ) SOLID_ANGLE_UNIT ( ) );
#138 = DIRECTION ( 'NONE',  ( -0.0000000000000000000, -0.0000000000000000000, -1.000000000000000000 ) ) ;
#139 = CYLINDRICAL_SURFACE ( 'NONE', #124, 0.1560937499999999756 ) ;
#140 = ORIENTED_EDGE ( 'NONE', *, *, #80, .F. ) ;
#141 = LINE ( 'NONE', #195, #162 ) ;
#142 = DIRECTION ( 'NONE',  ( 0.0000000000000000000, 0.0000000000000000000, -1.000000000000000000 ) ) ;
#143 = DIRECTION ( 'NONE',  ( -1.224646799147353207E-16, -0.0000000000000000000, -1.000000000000000000 ) ) ;
#144 = DIRECTION ( 'NONE',  ( -0.1736481776669311916, 2.126576849575783316E-17, 0.9848077530122080203 ) ) ;
#145 = EDGE_CURVE ( 'NONE', #105, #10, #248, .T. ) ;
#146 = FACE_OUTER_BOUND ( 'NONE', #155, .T. ) ;
#147 = FACE_OUTER_BOUND ( 'NONE', #233, .T. ) ;
#148 = CIRCLE ( 'NONE', #1, 0.1412499999999994871 ) ;
#149 = CARTESIAN_POINT ( 'NONE',  ( 0.0000000000000000000, 0.0000000000000000000, 0.0000000000000000000 ) ) ;
#150 = ADVANCED_FACE ( 'NONE', ( #120 ), #274, .T. ) ;
#151 = CARTESIAN_POINT ( 'NONE',  ( 9.967230535079632947E-17, 0.0000000000000000000, 0.8138861377843152889 ) ) ;
#152 = CARTESIAN_POINT ( 'NONE',  ( 0.1412499999999994871, 1.729813603795630110E-17, 2.500000000000000000 ) ) ;
#153 = DIRECTION ( 'NONE',  ( -0.0000000000000000000, -0.0000000000000000000, -1.000000000000000000 ) ) ;
#154 = DIRECTION ( 'NONE',  ( -1.000000000000000000, 0.0000000000000000000, 0.0000000000000000000 ) ) ;
#155 = EDGE_LOOP ( 'NONE', ( #230, #13, #309, #204 ) ) ;
#156 = AXIS2_PLACEMENT_3D ( 'NONE', #41, #138, #238 ) ;
#157 = ORIENTED_EDGE ( 'NONE', *, *, #50, .F. ) ;
#158 = EDGE_CURVE ( 'NONE', #241, #5, #294, .T. ) ;
#159 = EDGE_CURVE ( 'NONE', #90, #289, #141, .T. ) ;
#160 = ORIENTED_EDGE ( 'NONE', *, *, #199, .T. ) ;
#161 = DIRECTION ( 'NONE',  ( 1.000000000000000000, 0.0000000000000000000, 0.0000000000000000000 ) ) ;
#162 = VECTOR ( 'NONE', #143, 39.37007874015748143 ) ;
#163 = DIRECTION ( 'NONE',  ( 0.0000000000000000000, 1.000000000000000000, 0.0000000000000000000 ) ) ;
#164 = EDGE_CURVE ( 'NONE', #185, #289, #273, .T. ) ;
#165 = DIRECTION ( 'NONE',  ( 1.224646799147353207E-16, 0.0000000000000000000, 1.000000000000000000 ) ) ;
#166 = CARTESIAN_POINT ( 'NONE',  ( -0.1560937499999999756, 0.0000000000000000000, 1.911597113044071690E-17 ) ) ;
#167 = DIRECTION ( 'NONE',  ( -1.000000000000000000, 0.0000000000000000000, 2.187666060992403218E-16 ) ) ;
#168 = AXIS2_PLACEMENT_3D ( 'NONE', #151, #251, #171 ) ;
#169 = CARTESIAN_POINT ( 'NONE',  ( 1.911597113044071690E-17, 0.0000000000000000000, 0.1560937499999999756 ) ) ;
#170 = CARTESIAN_POINT ( 'NONE',  ( 0.0000000000000000000, 0.0000000000000000000, 2.500000000000000000 ) ) ;
#171 = DIRECTION ( 'NONE',  ( 1.000000000000000000, 0.0000000000000000000, 0.0000000000000000000 ) ) ;
#172 = FILL_AREA_STYLE_COLOUR ( '', #118 ) ;
#173 = DIRECTION ( 'NONE',  ( -1.224646799147353207E-16, -0.0000000000000000000, -1.000000000000000000 ) ) ;
#174 =( CONVERSION_BASED_UNIT ( 'INCH', #325 ) LENGTH_UNIT ( ) NAMED_UNIT ( #237 ) );
#175 = EDGE_LOOP ( 'NONE', ( #188, #221, #33, #8 ) ) ;
#176 = AXIS2_PLACEMENT_3D ( 'NONE', #113, #87, #264 ) ;
#177 = COLOUR_RGB ( '',0.7921568627450980005, 0.8196078431372548767, 0.9333333333333333481 ) ;
#178 = FILL_AREA_STYLE ('',( #260 ) ) ;
#179 = EDGE_LOOP ( 'NONE', ( #57, #157, #64, #291 ) ) ;
#180 = EDGE_CURVE ( 'NONE', #43, #105, #49, .T. ) ;
#181 = ORIENTED_EDGE ( 'NONE', *, *, #73, .T. ) ;
#182 = PRODUCT_DEFINITION_CONTEXT ( 'detailed design', #42, 'design' ) ;
#183 = APPLICATION_PROTOCOL_DEFINITION ( 'draft international standard', 'automotive_design', 1998, #27 ) ;
#184 = ORIENTED_EDGE ( 'NONE', *, *, #180, .F. ) ;
#185 = VERTEX_POINT ( 'NONE', #297 ) ;
#186 = CYLINDRICAL_SURFACE ( 'NONE', #156, 0.1562500000000000000 ) ;
#187 = PRODUCT_DEFINITION ( 'UNKNOWN', '', #85, #182 ) ;
#188 = ORIENTED_EDGE ( 'NONE', *, *, #73, .F. ) ;
#189 =( NAMED_UNIT ( * ) SI_UNIT ( $, .STERADIAN. ) SOLID_ANGLE_UNIT ( ) );
#190 = CARTESIAN_POINT ( 'NONE',  ( 0.0000000000000000000, 0.0000000000000000000, 2.500000000000000000 ) ) ;
#191 = DIMENSIONAL_EXPONENTS ( 1.000000000000000000, 0.0000000000000000000, 0.0000000000000000000, 0.0000000000000000000, 0.0000000000000000000, 0.0000000000000000000, 0.0000000000000000000 ) ;
#192 = DIRECTION ( 'NONE',  ( -1.000000000000000000, 0.0000000000000000000, 0.0000000000000000000 ) ) ;
#193 = AXIS2_PLACEMENT_3D ( 'NONE', #272, #126, #271 ) ;
#194 = STYLED_ITEM ( 'NONE', ( #104 ), #306 ) ;
#195 = CARTESIAN_POINT ( 'NONE',  ( 0.1560937499999999756, 1.911597113044071690E-17, -1.911597113044071690E-17 ) ) ;
#196 = DIRECTION ( 'NONE',  ( 0.0000000000000000000, 1.000000000000000000, 0.0000000000000000000 ) ) ;
#197 = CARTESIAN_POINT ( 'NONE',  ( 0.1412499999999994871, 1.821662113731684786E-17, 2.500000000000000000 ) ) ;
#198 = ADVANCED_FACE ( 'NONE', ( #26 ), #295, .T. ) ;
#199 = EDGE_CURVE ( 'NONE', #289, #15, #234, .T. ) ;
#200 = AXIS2_PLACEMENT_3D ( 'NONE', #190, #293, #161 ) ;
#201 = CARTESIAN_POINT ( 'NONE',  ( 0.0000000000000000000, 0.0000000000000000000, 2.484999999999999432 ) ) ;
#202 = AXIS2_PLACEMENT_3D ( 'NONE', #111, #117, #317 ) ;
#203 = LENGTH_MEASURE_WITH_UNIT ( LENGTH_MEASURE( 0.02539999999999999897 ), #305 );
#204 = ORIENTED_EDGE ( 'NONE', *, *, #106, .T. ) ;
#205 = CYLINDRICAL_SURFACE ( 'NONE', #76, 0.1560937499999999756 ) ;
#206 = VECTOR ( 'NONE', #130, 39.37007874015748854 ) ;
#207 = CARTESIAN_POINT ( 'NONE',  ( 0.0000000000000000000, 0.0000000000000000000, 2.500000000000000000 ) ) ;
#208 = DIRECTION ( 'NONE',  ( -0.0000000000000000000, -0.0000000000000000000, -1.000000000000000000 ) ) ;
#209 = UNCERTAINTY_MEASURE_WITH_UNIT (LENGTH_MEASURE( 1.000000000000000082E-05 ), #174, 'distance_accuracy_value', 'NONE');
#210 = DIRECTION ( 'NONE',  ( -1.224646799147353207E-16, -0.0000000000000000000, -1.000000000000000000 ) ) ;
#211 = CIRCLE ( 'NONE', #304, 0.1560937499999999756 ) ;
#212 = EDGE_LOOP ( 'NONE', ( #284, #88, #140 ) ) ;
#213 = ADVANCED_FACE ( 'NONE', ( #25 ), #70, .T. ) ;
#214 = CARTESIAN_POINT ( 'NONE',  ( -0.1562499999999999167, 0.0000000000000000000, 0.8138861377843152889 ) ) ;
#215 = DIRECTION ( 'NONE',  ( 0.0000000000000000000, 0.0000000000000000000, 1.000000000000000000 ) ) ;
#216 = FACE_OUTER_BOUND ( 'NONE', #281, .T. ) ;
#217 = CARTESIAN_POINT ( 'NONE',  ( 0.1560937500000000866, 0.0000000000000000000, 0.8129999999999999449 ) ) ;
#218 = DIRECTION ( 'NONE',  ( -1.000000000000000000, 0.0000000000000000000, 2.187666060992403218E-16 ) ) ;
#219 = EDGE_LOOP ( 'NONE', ( #47, #287, #66, #38 ) ) ;
#220 = DIRECTION ( 'NONE',  ( 1.224646799147353207E-16, 0.0000000000000000000, 1.000000000000000000 ) ) ;
#221 = ORIENTED_EDGE ( 'NONE', *, *, #158, .T. ) ;
#222 = EDGE_CURVE ( 'NONE', #282, #43, #319, .T. ) ;
#223 = DIRECTION ( 'NONE',  ( -1.000000000000000000, 0.0000000000000000000, 0.0000000000000000000 ) ) ;
#224 = DIRECTION ( 'NONE',  ( -1.224646799147353207E-16, -0.0000000000000000000, -1.000000000000000000 ) ) ;
#225 = CARTESIAN_POINT ( 'NONE',  ( 0.1560937500000000311, 1.911597113044071690E-17, 0.1560937499999999478 ) ) ;
#226 = DIRECTION ( 'NONE',  ( 0.1736481776669313859, 0.0000000000000000000, 0.9848077530122077983 ) ) ;
#227 = AXIS2_PLACEMENT_3D ( 'NONE', #201, #247, #320 ) ;
#228 = VECTOR ( 'NONE', #226, 39.37007874015748143 ) ;
#229 =( NAMED_UNIT ( * ) PLANE_ANGLE_UNIT ( ) SI_UNIT ( $, .RADIAN. ) );
#230 = ORIENTED_EDGE ( 'NONE', *, *, #158, .F. ) ;
#231 = ADVANCED_FACE ( 'NONE', ( #125 ), #267, .T. ) ;
#232 = ORIENTED_EDGE ( 'NONE', *, *, #316, .T. ) ;
#233 = EDGE_LOOP ( 'NONE', ( #181, #62, #160, #236 ) ) ;
#234 = CIRCLE ( 'NONE', #116, 0.1560937499999999756 ) ;
#235 = AXIS2_PLACEMENT_3D ( 'NONE', #170, #53, #82 ) ;
#236 = ORIENTED_EDGE ( 'NONE', *, *, #93, .F. ) ;
#237 = DIMENSIONAL_EXPONENTS ( 1.000000000000000000, 0.0000000000000000000, 0.0000000000000000000, 0.0000000000000000000, 0.0000000000000000000, 0.0000000000000000000, 0.0000000000000000000 ) ;
#238 = DIRECTION ( 'NONE',  ( -1.000000000000000000, 0.0000000000000000000, 0.0000000000000000000 ) ) ;
#239 = CARTESIAN_POINT ( 'NONE',  ( 0.0000000000000000000, 0.0000000000000000000, 0.0000000000000000000 ) ) ;
#240 = CIRCLE ( 'NONE', #101, 0.1562500000000000000 ) ;
#241 = VERTEX_POINT ( 'NONE', #4 ) ;
#242 = DIRECTION ( 'NONE',  ( 0.0000000000000000000, 0.0000000000000000000, -1.000000000000000000 ) ) ;
#243 = ADVANCED_FACE ( 'NONE', ( #30 ), #56, .T. ) ;
#244 = DIRECTION ( 'NONE',  ( -0.7071067811865410224, 0.0000000000000000000, -0.7071067811865539010 ) ) ;
#245 = AXIS2_PLACEMENT_3D ( 'NONE', #169, #196, #299 ) ;
#246 = EDGE_CURVE ( 'NONE', #5, #10, #11, .T. ) ;
#247 = DIRECTION ( 'NONE',  ( 0.0000000000000000000, 0.0000000000000000000, -1.000000000000000000 ) ) ;
#248 = LINE ( 'NONE', #95, #127 ) ;
#249 = ORIENTED_EDGE ( 'NONE', *, *, #2, .T. ) ;
#250 = DIRECTION ( 'NONE',  ( 1.000000000000000000, 0.0000000000000000000, 0.0000000000000000000 ) ) ;
#251 = DIRECTION ( 'NONE',  ( -1.224646799147353207E-16, -0.0000000000000000000, -1.000000000000000000 ) ) ;
#252 = SURFACE_STYLE_FILL_AREA ( #3 ) ;
#253 = ORIENTED_EDGE ( 'NONE', *, *, #50, .T. ) ;
#254 = EDGE_CURVE ( 'NONE', #90, #10, #303, .T. ) ;
#255 = ADVANCED_FACE ( 'NONE', ( #147 ), #205, .T. ) ;
#256 = AXIS2_PLACEMENT_3D ( 'NONE', #21, #165, #218 ) ;
#257 = PRESENTATION_LAYER_ASSIGNMENT (  '', '', ( #71 ) ) ;
#258 = PRODUCT_CONTEXT ( 'NONE', #27, 'mechanical' ) ;
#259 = CARTESIAN_POINT ( 'NONE',  ( -0.1562500000000000000, 0.0000000000000000000, 2.484999999999999432 ) ) ;
#260 = FILL_AREA_STYLE_COLOUR ( '', #177 ) ;
#261 = EDGE_LOOP ( 'NONE', ( #83, #249, #36, #69 ) ) ;
#262 =( NAMED_UNIT ( * ) PLANE_ANGLE_UNIT ( ) SI_UNIT ( $, .RADIAN. ) );
#263 = ORIENTED_EDGE ( 'NONE', *, *, #246, .F. ) ;
#264 = DIRECTION ( 'NONE',  ( 1.000000000000000000, 0.0000000000000000000, 0.0000000000000000000 ) ) ;
#265 = EDGE_LOOP ( 'NONE', ( #20, #39, #263, #16 ) ) ;
#266 = CIRCLE ( 'NONE', #256, 0.1560937499999999756 ) ;
#267 = CONICAL_SURFACE ( 'NONE', #296, 0.1560937499999999756, 0.1745329251994338915 ) ;
#268 = EDGE_CURVE ( 'NONE', #43, #5, #128, .T. ) ;
#269 = DIRECTION ( 'NONE',  ( -1.224646799147353207E-16, -0.0000000000000000000, -1.000000000000000000 ) ) ;
#270 = ADVANCED_FACE ( 'NONE', ( #279 ), #107, .T. ) ;
#271 = DIRECTION ( 'NONE',  ( 1.000000000000000000, 0.0000000000000000000, 0.0000000000000000000 ) ) ;
#272 = CARTESIAN_POINT ( 'NONE',  ( 9.956378477067980482E-17, 0.0000000000000000000, 0.8129999999999999449 ) ) ;
#273 = CIRCLE ( 'NONE', #28, 0.1560937499999999756 ) ;
#274 = SPHERICAL_SURFACE ( 'NONE', #245, 0.1560937499999999756 ) ;
#275 = CARTESIAN_POINT ( 'NONE',  ( 0.1560937500000000866, 0.0000000000000000000, 0.8129999999999999449 ) ) ;
#276 = AXIS2_PLACEMENT_3D ( 'NONE', #97, #163, #123 ) ;
#277 = DIRECTION ( 'NONE',  ( -1.000000000000000000, 0.0000000000000000000, 1.224646799147353454E-16 ) ) ;
#278 = MECHANICAL_DESIGN_GEOMETRIC_PRESENTATION_REPRESENTATION (  '', ( #71 ), #19 ) ;
#279 = FACE_OUTER_BOUND ( 'NONE', #61, .T. ) ;
#280 = CARTESIAN_POINT ( 'NONE',  ( 1.911597113044071690E-17, 0.0000000000000000000, 0.1560937499999999756 ) ) ;
#281 = EDGE_LOOP ( 'NONE', ( #112, #313, #184, #134 ) ) ;
#282 = VERTEX_POINT ( 'NONE', #103 ) ;
#283 = CIRCLE ( 'NONE', #65, 0.1560937499999999756 ) ;
#284 = ORIENTED_EDGE ( 'NONE', *, *, #316, .F. ) ;
#285 = FACE_OUTER_BOUND ( 'NONE', #265, .T. ) ;
#286 = SHAPE_DEFINITION_REPRESENTATION ( #81, #17 ) ;
#287 = ORIENTED_EDGE ( 'NONE', *, *, #121, .T. ) ;
#288 = PRESENTATION_STYLE_ASSIGNMENT (( #35 ) ) ;
#289 = VERTEX_POINT ( 'NONE', #225 ) ;
#290 = AXIS2_PLACEMENT_3D ( 'NONE', #207, #208, #78 ) ;
#291 = ORIENTED_EDGE ( 'NONE', *, *, #2, .F. ) ;
#292 = FACE_OUTER_BOUND ( 'NONE', #219, .T. ) ;
#293 = DIRECTION ( 'NONE',  ( 0.0000000000000000000, 0.0000000000000000000, 1.000000000000000000 ) ) ;
#294 = LINE ( 'NONE', #51, #18 ) ;
#295 = CONICAL_SURFACE ( 'NONE', #54, 0.1412499999999994871, 0.7853981633974391752 ) ;
#296 = AXIS2_PLACEMENT_3D ( 'NONE', #22, #220, #298 ) ;
#297 = CARTESIAN_POINT ( 'NONE',  ( 2.867395669566107843E-17, 0.0000000000000000000, 0.0000000000000000000 ) ) ;
#298 = DIRECTION ( 'NONE',  ( 1.000000000000000000, 0.0000000000000000000, 0.0000000000000000000 ) ) ;
#299 = DIRECTION ( 'NONE',  ( 1.000000000000000000, 0.0000000000000000000, 0.0000000000000000000 ) ) ;
#300 = MECHANICAL_DESIGN_GEOMETRIC_PRESENTATION_REPRESENTATION (  '', ( #194 ), #96 ) ;
#301 = CARTESIAN_POINT ( 'NONE',  ( -0.1412499999999994871, 0.0000000000000000000, 2.500000000000000000 ) ) ;
#302 = EDGE_CURVE ( 'NONE', #68, #105, #59, .T. ) ;
#303 = LINE ( 'NONE', #275, #228 ) ;
#304 = AXIS2_PLACEMENT_3D ( 'NONE', #52, #269, #122 ) ;
#305 =( LENGTH_UNIT ( ) NAMED_UNIT ( * ) SI_UNIT ( $, .METRE. ) );
#306 = MANIFOLD_SOLID_BREP ( 'Fillet1', #99 ) ;
#307 = CARTESIAN_POINT ( 'NONE',  ( -0.1562500000000000000, 0.0000000000000000000, 2.500000000000000000 ) ) ;
#308 = LENGTH_MEASURE_WITH_UNIT ( LENGTH_MEASURE( 0.02539999999999999897 ), #114 );
#309 = ORIENTED_EDGE ( 'NONE', *, *, #254, .T. ) ;
#310 = ORIENTED_EDGE ( 'NONE', *, *, #199, .F. ) ;
#311 =( NAMED_UNIT ( * ) PLANE_ANGLE_UNIT ( ) SI_UNIT ( $, .RADIAN. ) );
#312 = EDGE_LOOP ( 'NONE', ( #58, #232, #310 ) ) ;
#313 = ORIENTED_EDGE ( 'NONE', *, *, #302, .T. ) ;
#314 = DIMENSIONAL_EXPONENTS ( 1.000000000000000000, 0.0000000000000000000, 0.0000000000000000000, 0.0000000000000000000, 0.0000000000000000000, 0.0000000000000000000, 0.0000000000000000000 ) ;
#315 = DIRECTION ( 'NONE',  ( 1.000000000000000000, 0.0000000000000000000, 0.0000000000000000000 ) ) ;
#316 = EDGE_CURVE ( 'NONE', #185, #15, #131, .T. ) ;
#317 = DIRECTION ( 'NONE',  ( 1.000000000000000000, 0.0000000000000000000, 0.0000000000000000000 ) ) ;
#318 = CARTESIAN_POINT ( 'NONE',  ( 0.0000000000000000000, 0.0000000000000000000, 2.500000000000000000 ) ) ;
#319 = LINE ( 'NONE', #301, #135 ) ;
#320 = DIRECTION ( 'NONE',  ( 1.000000000000000000, 0.0000000000000000000, 0.0000000000000000000 ) ) ;
#321 = DIRECTION ( 'NONE',  ( -0.0000000000000000000, -0.0000000000000000000, -1.000000000000000000 ) ) ;
#322 = CARTESIAN_POINT ( 'NONE',  ( 0.0000000000000000000, 0.0000000000000000000, 2.500000000000000000 ) ) ;
#323 = DIRECTION ( 'NONE',  ( 1.224646799147353207E-16, 1.000000000000000000, -0.0000000000000000000 ) ) ;
#324 = DIRECTION ( 'NONE',  ( -1.000000000000000000, 1.224646799147353454E-16, 0.0000000000000000000 ) ) ;
#325 = LENGTH_MEASURE_WITH_UNIT ( LENGTH_MEASURE( 0.02539999999999999897 ), #34 );
ENDSEC;
END-ISO-10303-21;
