ISO-10303-21;
HEADER;
FILE_DESCRIPTION (( 'STEP AP214' ),
    '1' );
FILE_NAME ('Micro_SEM-125-02.STEP',
    '2021-09-02T01:25:24',
    ( '' ),
    ( '' ),
    'SwSTEP 2.0',
    'SolidWorks 2020',
    '' );
FILE_SCHEMA (( 'AUTOMOTIVE_DESIGN' ));
ENDSEC;

DATA;
#1 = VERTEX_POINT ( 'NONE', #240 ) ;
#2 = EDGE_CURVE ( 'NONE', #253, #146, #204, .T. ) ;
#3 = DIMENSIONAL_EXPONENTS ( 1.000000000000000000, 0.0000000000000000000, 0.0000000000000000000, 0.0000000000000000000, 0.0000000000000000000, 0.0000000000000000000, 0.0000000000000000000 ) ;
#4 = DIRECTION ( 'NONE',  ( 1.224646799147353454E-16, 0.0000000000000000000, 1.000000000000000000 ) ) ;
#5 = ORIENTED_EDGE ( 'NONE', *, *, #83, .F. ) ;
#6 = AXIS2_PLACEMENT_3D ( 'NONE', #17, #11, #221 ) ;
#7 = ORIENTED_EDGE ( 'NONE', *, *, #163, .F. ) ;
#8 = PRODUCT_RELATED_PRODUCT_CATEGORY ( 'part', '', ( #220 ) ) ;
#9 = VERTEX_POINT ( 'NONE', #148 ) ;
#10 = FACE_OUTER_BOUND ( 'NONE', #28, .T. ) ;
#11 = DIRECTION ( 'NONE',  ( -1.224646799147353454E-16, -0.0000000000000000000, -1.000000000000000000 ) ) ;
#12 = LINE ( 'NONE', #222, #273 ) ;
#13 = CARTESIAN_POINT ( 'NONE',  ( 0.0000000000000000000, 0.0000000000000000000, 1.500000000000000222 ) ) ;
#14 = PRODUCT_DEFINITION_SHAPE ( 'NONE', 'NONE',  #237 ) ;
#15 = AXIS2_PLACEMENT_3D ( 'NONE', #38, #102, #132 ) ;
#16 = AXIS2_PLACEMENT_3D ( 'NONE', #244, #22, #133 ) ;
#17 = CARTESIAN_POINT ( 'NONE',  ( 0.0000000000000000000, 0.0000000000000000000, 0.0000000000000000000 ) ) ;
#18 =( NAMED_UNIT ( * ) SI_UNIT ( $, .STERADIAN. ) SOLID_ANGLE_UNIT ( ) );
#19 = CIRCLE ( 'NONE', #116, 0.06250000000000000000 ) ;
#20 = FACE_OUTER_BOUND ( 'NONE', #27, .T. ) ;
#21 = ADVANCED_FACE ( 'NONE', ( #61 ), #289, .T. ) ;
#22 = DIRECTION ( 'NONE',  ( 0.0000000000000000000, 0.0000000000000000000, 1.000000000000000000 ) ) ;
#23 = CARTESIAN_POINT ( 'NONE',  ( 0.0000000000000000000, 0.0000000000000000000, 1.500000000000000222 ) ) ;
#24 = AXIS2_PLACEMENT_3D ( 'NONE', #286, #84, #199 ) ;
#25 = EDGE_LOOP ( 'NONE', ( #259, #7, #193, #299 ) ) ;
#26 = ORIENTED_EDGE ( 'NONE', *, *, #113, .F. ) ;
#27 = EDGE_LOOP ( 'NONE', ( #281, #217, #96, #137 ) ) ;
#28 = EDGE_LOOP ( 'NONE', ( #98, #143, #173, #282 ) ) ;
#29 = AXIS2_PLACEMENT_3D ( 'NONE', #225, #180, #45 ) ;
#30 = ADVANCED_FACE ( 'NONE', ( #88 ), #151, .T. ) ;
#31 =( CONVERSION_BASED_UNIT ( 'INCH', #190 ) LENGTH_UNIT ( ) NAMED_UNIT ( #3 ) );
#32 = CARTESIAN_POINT ( 'NONE',  ( 0.0000000000000000000, 0.0000000000000000000, 0.0000000000000000000 ) ) ;
#33 = DIRECTION ( 'NONE',  ( -1.000000000000000000, 0.0000000000000000000, 0.0000000000000000000 ) ) ;
#34 = CIRCLE ( 'NONE', #207, 0.06243749999999999994 ) ;
#35 = MECHANICAL_DESIGN_GEOMETRIC_PRESENTATION_REPRESENTATION (  '', ( #93 ), #164 ) ;
#36 = CYLINDRICAL_SURFACE ( 'NONE', #15, 0.06243750000000001382 ) ;
#37 = DIRECTION ( 'NONE',  ( 1.000000000000000000, 0.0000000000000000000, -0.0000000000000000000 ) ) ;
#38 = CARTESIAN_POINT ( 'NONE',  ( 0.0000000000000000000, 0.0000000000000000000, 0.0000000000000000000 ) ) ;
#39 = FACE_OUTER_BOUND ( 'NONE', #50, .T. ) ;
#40 = FACE_OUTER_BOUND ( 'NONE', #279, .T. ) ;
#41 = PRESENTATION_STYLE_ASSIGNMENT (( #243 ) ) ;
#42 = EDGE_CURVE ( 'NONE', #276, #9, #247, .T. ) ;
#43 =( GEOMETRIC_REPRESENTATION_CONTEXT ( 3 ) GLOBAL_UNCERTAINTY_ASSIGNED_CONTEXT ( ( #194 ) ) GLOBAL_UNIT_ASSIGNED_CONTEXT ( ( #31, #77, #161 ) ) REPRESENTATION_CONTEXT ( 'NONE', 'WORKASPACE' ) );
#44 = DIRECTION ( 'NONE',  ( 0.0000000000000000000, 0.0000000000000000000, -1.000000000000000000 ) ) ;
#45 = DIRECTION ( 'NONE',  ( 1.000000000000000000, 0.0000000000000000000, 0.0000000000000000000 ) ) ;
#46 = PRODUCT_CONTEXT ( 'NONE', #257, 'mechanical' ) ;
#47 = EDGE_LOOP ( 'NONE', ( #51, #258, #125, #233 ) ) ;
#48 = EDGE_CURVE ( 'NONE', #170, #167, #209, .T. ) ;
#49 = AXIS2_PLACEMENT_3D ( 'NONE', #177, #56, #103 ) ;
#50 = EDGE_LOOP ( 'NONE', ( #256, #213 ) ) ;
#51 = ORIENTED_EDGE ( 'NONE', *, *, #42, .F. ) ;
#52 = DIMENSIONAL_EXPONENTS ( 1.000000000000000000, 0.0000000000000000000, 0.0000000000000000000, 0.0000000000000000000, 0.0000000000000000000, 0.0000000000000000000, 0.0000000000000000000 ) ;
#53 =( NAMED_UNIT ( * ) SI_UNIT ( $, .STERADIAN. ) SOLID_ANGLE_UNIT ( ) );
#54 = VERTEX_POINT ( 'NONE', #263 ) ;
#55 = ORIENTED_EDGE ( 'NONE', *, *, #261, .F. ) ;
#56 = DIRECTION ( 'NONE',  ( -0.0000000000000000000, -0.0000000000000000000, -1.000000000000000000 ) ) ;
#57 = ORIENTED_EDGE ( 'NONE', *, *, #215, .T. ) ;
#58 = EDGE_CURVE ( 'NONE', #1, #167, #12, .T. ) ;
#59 = CARTESIAN_POINT ( 'NONE',  ( 3.061616997868383634E-17, 0.0000000000000000000, 0.2500000000000000000 ) ) ;
#60 = VECTOR ( 'NONE', #109, 39.37007874015748143 ) ;
#61 = FACE_OUTER_BOUND ( 'NONE', #94, .T. ) ;
#62 = DIRECTION ( 'NONE',  ( -1.000000000000000000, 0.0000000000000000000, 0.0000000000000000000 ) ) ;
#63 = ADVANCED_FACE ( 'NONE', ( #197 ), #175, .T. ) ;
#64 = LENGTH_MEASURE_WITH_UNIT ( LENGTH_MEASURE( 0.02539999999999999897 ), #134 );
#65 = PRODUCT_DEFINITION_FORMATION_WITH_SPECIFIED_SOURCE ( 'ANY', '', #220, .NOT_KNOWN. ) ;
#66 = ADVANCED_FACE ( 'NONE', ( #267 ), #254, .T. ) ;
#67 = CARTESIAN_POINT ( 'NONE',  ( 0.0000000000000000000, 0.0000000000000000000, 1.485000000000000764 ) ) ;
#68 = LINE ( 'NONE', #270, #248 ) ;
#69 = COLOUR_RGB ( '',0.7921568627450980005, 0.8196078431372548767, 0.9333333333333333481 ) ;
#70 = FILL_AREA_STYLE_COLOUR ( '', #69 ) ;
#71 = UNCERTAINTY_MEASURE_WITH_UNIT (LENGTH_MEASURE( 1.000000000000000082E-05 ), #91, 'distance_accuracy_value', 'NONE');
#72 = FILL_AREA_STYLE ('',( #123 ) ) ;
#73 = EDGE_CURVE ( 'NONE', #9, #276, #242, .T. ) ;
#74 =( LENGTH_UNIT ( ) NAMED_UNIT ( * ) SI_UNIT ( $, .METRE. ) );
#75 =( GEOMETRIC_REPRESENTATION_CONTEXT ( 3 ) GLOBAL_UNCERTAINTY_ASSIGNED_CONTEXT ( ( #100 ) ) GLOBAL_UNIT_ASSIGNED_CONTEXT ( ( #165, #234, #53 ) ) REPRESENTATION_CONTEXT ( 'NONE', 'WORKASPACE' ) );
#76 = ADVANCED_FACE ( 'NONE', ( #105 ), #147, .F. ) ;
#77 =( NAMED_UNIT ( * ) PLANE_ANGLE_UNIT ( ) SI_UNIT ( $, .RADIAN. ) );
#78 = ORIENTED_EDGE ( 'NONE', *, *, #58, .F. ) ;
#79 = DIRECTION ( 'NONE',  ( 1.000000000000000000, 0.0000000000000000000, 0.0000000000000000000 ) ) ;
#80 = ORIENTED_EDGE ( 'NONE', *, *, #140, .T. ) ;
#81 = AXIS2_PLACEMENT_3D ( 'NONE', #119, #4, #188 ) ;
#82 = CARTESIAN_POINT ( 'NONE',  ( 0.06250000000000000000, 7.654042494670956004E-18, 1.500000000000000222 ) ) ;
#83 = EDGE_CURVE ( 'NONE', #167, #170, #106, .T. ) ;
#84 = DIRECTION ( 'NONE',  ( -1.224646799147353454E-16, -0.0000000000000000000, -1.000000000000000000 ) ) ;
#85 = DIRECTION ( 'NONE',  ( -1.224646799147353454E-16, -0.0000000000000000000, -1.000000000000000000 ) ) ;
#86 = AXIS2_PLACEMENT_3D ( 'NONE', #117, #280, #79 ) ;
#87 = DIRECTION ( 'NONE',  ( 1.000000000000000000, 0.0000000000000000000, 0.0000000000000000000 ) ) ;
#88 = FACE_OUTER_BOUND ( 'NONE', #192, .T. ) ;
#89 = FILL_AREA_STYLE ('',( #70 ) ) ;
#90 = DIRECTION ( 'NONE',  ( 1.000000000000000000, 0.0000000000000000000, 0.0000000000000000000 ) ) ;
#91 =( CONVERSION_BASED_UNIT ( 'INCH', #64 ) LENGTH_UNIT ( ) NAMED_UNIT ( #52 ) );
#92 = DIRECTION ( 'NONE',  ( 0.1736481776669313581, 0.0000000000000000000, 0.9848077530122077983 ) ) ;
#93 = STYLED_ITEM ( 'NONE', ( #41 ), #182 ) ;
#94 = EDGE_LOOP ( 'NONE', ( #57, #166, #5, #78 ) ) ;
#95 = SURFACE_SIDE_STYLE ('',( #232 ) ) ;
#96 = ORIENTED_EDGE ( 'NONE', *, *, #215, .F. ) ;
#97 = EDGE_CURVE ( 'NONE', #276, #167, #262, .T. ) ;
#98 = ORIENTED_EDGE ( 'NONE', *, *, #42, .T. ) ;
#99 = ORIENTED_EDGE ( 'NONE', *, *, #97, .F. ) ;
#100 = UNCERTAINTY_MEASURE_WITH_UNIT (LENGTH_MEASURE( 1.000000000000000082E-05 ), #165, 'distance_accuracy_value', 'NONE');
#101 = ADVANCED_FACE ( 'NONE', ( #10 ), #36, .T. ) ;
#102 = DIRECTION ( 'NONE',  ( -1.224646799147353454E-16, -0.0000000000000000000, -1.000000000000000000 ) ) ;
#103 = DIRECTION ( 'NONE',  ( -1.000000000000000000, 0.0000000000000000000, 0.0000000000000000000 ) ) ;
#104 = DIRECTION ( 'NONE',  ( -1.224646799147353454E-16, -0.0000000000000000000, -1.000000000000000000 ) ) ;
#105 = FACE_OUTER_BOUND ( 'NONE', #189, .T. ) ;
#106 = CIRCLE ( 'NONE', #195, 0.06250000000000000000 ) ;
#107 = AXIS2_PLACEMENT_3D ( 'NONE', #23, #208, #183 ) ;
#108 = CARTESIAN_POINT ( 'NONE',  ( 0.0000000000000000000, 0.0000000000000000000, 1.500000000000000222 ) ) ;
#109 = DIRECTION ( 'NONE',  ( -0.7071067811865456854, 0.0000000000000000000, -0.7071067811865493491 ) ) ;
#110 = DIRECTION ( 'NONE',  ( -1.224646799147353454E-16, -0.0000000000000000000, -1.000000000000000000 ) ) ;
#111 = CARTESIAN_POINT ( 'NONE',  ( 0.06243750000000001382, 7.646388452176288915E-18, -7.646388452176288915E-18 ) ) ;
#112 = CARTESIAN_POINT ( 'NONE',  ( -0.06243750000000001382, 0.0000000000000000000, 7.646388452176288915E-18 ) ) ;
#113 = EDGE_CURVE ( 'NONE', #230, #170, #284, .T. ) ;
#114 = CARTESIAN_POINT ( 'NONE',  ( 0.0000000000000000000, 0.0000000000000000000, 1.500000000000000222 ) ) ;
#115 = AXIS2_PLACEMENT_3D ( 'NONE', #290, #203, #87 ) ;
#116 = AXIS2_PLACEMENT_3D ( 'NONE', #67, #44, #227 ) ;
#117 = CARTESIAN_POINT ( 'NONE',  ( 0.0000000000000000000, 0.0000000000000000000, 0.0000000000000000000 ) ) ;
#118 = ORIENTED_EDGE ( 'NONE', *, *, #48, .F. ) ;
#119 = CARTESIAN_POINT ( 'NONE',  ( 3.061616997868383634E-17, 0.0000000000000000000, 0.2500000000000000000 ) ) ;
#120 = ORIENTED_EDGE ( 'NONE', *, *, #2, .F. ) ;
#121 = PRESENTATION_STYLE_ASSIGNMENT (( #168 ) ) ;
#122 = ORIENTED_EDGE ( 'NONE', *, *, #58, .T. ) ;
#123 = FILL_AREA_STYLE_COLOUR ( '', #145 ) ;
#124 = PRESENTATION_LAYER_ASSIGNMENT (  '', '', ( #93 ) ) ;
#125 = ORIENTED_EDGE ( 'NONE', *, *, #83, .T. ) ;
#126 = CARTESIAN_POINT ( 'NONE',  ( 3.065957821073043634E-17, 0.0000000000000000000, 0.2503544551137260044 ) ) ;
#127 = AXIS2_PLACEMENT_3D ( 'NONE', #32, #201, #37 ) ;
#128 = DIRECTION ( 'NONE',  ( -1.224646799147353454E-16, -0.0000000000000000000, -1.000000000000000000 ) ) ;
#129 = DIRECTION ( 'NONE',  ( -1.000000000000000000, 0.0000000000000000000, 1.224646799147353700E-16 ) ) ;
#130 = EDGE_CURVE ( 'NONE', #54, #275, #184, .T. ) ;
#131 = CARTESIAN_POINT ( 'NONE',  ( 3.061616997868383634E-17, 0.0000000000000000000, 0.2500000000000000000 ) ) ;
#132 = DIRECTION ( 'NONE',  ( -1.000000000000000000, 0.0000000000000000000, 1.224646799147353207E-16 ) ) ;
#133 = DIRECTION ( 'NONE',  ( 1.000000000000000000, 0.0000000000000000000, 0.0000000000000000000 ) ) ;
#134 =( LENGTH_UNIT ( ) NAMED_UNIT ( * ) SI_UNIT ( $, .METRE. ) );
#135 = CARTESIAN_POINT ( 'NONE',  ( 3.061616997868383634E-17, 0.0000000000000000000, 0.2500000000000000000 ) ) ;
#136 = APPLICATION_PROTOCOL_DEFINITION ( 'draft international standard', 'automotive_design', 1998, #138 ) ;
#137 = ORIENTED_EDGE ( 'NONE', *, *, #169, .F. ) ;
#138 = APPLICATION_CONTEXT ( 'automotive_design' ) ;
#139 = ORIENTED_EDGE ( 'NONE', *, *, #277, .T. ) ;
#140 = EDGE_CURVE ( 'NONE', #146, #253, #34, .T. ) ;
#141 = ORIENTED_EDGE ( 'NONE', *, *, #73, .F. ) ;
#142 = DIMENSIONAL_EXPONENTS ( 1.000000000000000000, 0.0000000000000000000, 0.0000000000000000000, 0.0000000000000000000, 0.0000000000000000000, 0.0000000000000000000, 0.0000000000000000000 ) ;
#143 = ORIENTED_EDGE ( 'NONE', *, *, #261, .T. ) ;
#144 =( LENGTH_UNIT ( ) NAMED_UNIT ( * ) SI_UNIT ( $, .METRE. ) );
#145 = COLOUR_RGB ( '',0.7921568627450980005, 0.8196078431372548767, 0.9333333333333333481 ) ;
#146 = VERTEX_POINT ( 'NONE', #223 ) ;
#147 = PLANE ( 'NONE',  #127 ) ;
#148 = CARTESIAN_POINT ( 'NONE',  ( 0.06243750000000004852, 0.0000000000000000000, 0.2500000000000000000 ) ) ;
#149 = CARTESIAN_POINT ( 'NONE',  ( 0.0000000000000000000, 0.0000000000000000000, 1.500000000000000222 ) ) ;
#150 = VECTOR ( 'NONE', #186, 39.37007874015748143 ) ;
#151 = CYLINDRICAL_SURFACE ( 'NONE', #200, 0.06250000000000000000 ) ;
#152 = DIRECTION ( 'NONE',  ( -0.1736481776669311639, 2.126576849575783008E-17, 0.9848077530122080203 ) ) ;
#153 = CONICAL_SURFACE ( 'NONE', #81, 0.06243750000000001382, 0.1745329251994338637 ) ;
#154 = LINE ( 'NONE', #295, #210 ) ;
#155 = SURFACE_SIDE_STYLE ('',( #178 ) ) ;
#156 = CARTESIAN_POINT ( 'NONE',  ( -0.06243749999999997913, 7.650215473423623230E-18, 0.2500000000000000000 ) ) ;
#157 = AXIS2_PLACEMENT_3D ( 'NONE', #59, #85, #260 ) ;
#158 = AXIS2_PLACEMENT_3D ( 'NONE', #114, #297, #296 ) ;
#159 = CARTESIAN_POINT ( 'NONE',  ( 0.06250000000000000000, 7.654042494670956004E-18, 1.485000000000000764 ) ) ;
#160 = CLOSED_SHELL ( 'NONE', ( #101, #292, #255, #21, #30, #179, #66, #272, #63, #76 ) ) ;
#161 =( NAMED_UNIT ( * ) SI_UNIT ( $, .STERADIAN. ) SOLID_ANGLE_UNIT ( ) );
#162 = AXIS2_PLACEMENT_3D ( 'NONE', #13, #266, #174 ) ;
#163 = EDGE_CURVE ( 'NONE', #275, #54, #293, .T. ) ;
#164 =( GEOMETRIC_REPRESENTATION_CONTEXT ( 3 ) GLOBAL_UNCERTAINTY_ASSIGNED_CONTEXT ( ( #71 ) ) GLOBAL_UNIT_ASSIGNED_CONTEXT ( ( #91, #245, #18 ) ) REPRESENTATION_CONTEXT ( 'NONE', 'WORKASPACE' ) );
#165 =( CONVERSION_BASED_UNIT ( 'INCH', #216 ) LENGTH_UNIT ( ) NAMED_UNIT ( #142 ) );
#166 = ORIENTED_EDGE ( 'NONE', *, *, #113, .T. ) ;
#167 = VERTEX_POINT ( 'NONE', #271 ) ;
#168 = SURFACE_STYLE_USAGE ( .BOTH. , #95 ) ;
#169 = EDGE_CURVE ( 'NONE', #275, #1, #205, .T. ) ;
#170 = VERTEX_POINT ( 'NONE', #291 ) ;
#171 = AXIS2_PLACEMENT_3D ( 'NONE', #108, #196, #62 ) ;
#172 = PRESENTATION_LAYER_ASSIGNMENT (  '', '', ( #264 ) ) ;
#173 = ORIENTED_EDGE ( 'NONE', *, *, #140, .F. ) ;
#174 = DIRECTION ( 'NONE',  ( 1.000000000000000000, 0.0000000000000000000, 0.0000000000000000000 ) ) ;
#175 = CYLINDRICAL_SURFACE ( 'NONE', #6, 0.06243750000000001382 ) ;
#176 = DIRECTION ( 'NONE',  ( -0.0000000000000000000, -0.0000000000000000000, -1.000000000000000000 ) ) ;
#177 = CARTESIAN_POINT ( 'NONE',  ( 0.0000000000000000000, 0.0000000000000000000, 1.500000000000000222 ) ) ;
#178 = SURFACE_STYLE_FILL_AREA ( #89 ) ;
#179 = ADVANCED_FACE ( 'NONE', ( #39 ), #228, .T. ) ;
#180 = DIRECTION ( 'NONE',  ( 0.0000000000000000000, 0.0000000000000000000, -1.000000000000000000 ) ) ;
#181 = CONICAL_SURFACE ( 'NONE', #107, 0.04750000000000064587, 0.7853981633974457255 ) ;
#182 = MANIFOLD_SOLID_BREP ( 'Cut-Revolve1', #160 ) ;
#183 = DIRECTION ( 'NONE',  ( -1.000000000000000000, 0.0000000000000000000, 0.0000000000000000000 ) ) ;
#184 = CIRCLE ( 'NONE', #162, 0.04750000000000064587 ) ;
#185 = MECHANICAL_DESIGN_GEOMETRIC_PRESENTATION_REPRESENTATION (  '', ( #264 ), #43 ) ;
#186 = DIRECTION ( 'NONE',  ( -1.224646799147353454E-16, -0.0000000000000000000, -1.000000000000000000 ) ) ;
#187 = EDGE_LOOP ( 'NONE', ( #55, #214, #139, #120 ) ) ;
#188 = DIRECTION ( 'NONE',  ( 1.000000000000000000, 0.0000000000000000000, 0.0000000000000000000 ) ) ;
#189 = EDGE_LOOP ( 'NONE', ( #80, #191 ) ) ;
#190 = LENGTH_MEASURE_WITH_UNIT ( LENGTH_MEASURE( 0.02539999999999999897 ), #144 );
#191 = ORIENTED_EDGE ( 'NONE', *, *, #2, .T. ) ;
#192 = EDGE_LOOP ( 'NONE', ( #26, #231, #122, #118 ) ) ;
#193 = ORIENTED_EDGE ( 'NONE', *, *, #169, .T. ) ;
#194 = UNCERTAINTY_MEASURE_WITH_UNIT (LENGTH_MEASURE( 1.000000000000000082E-05 ), #31, 'distance_accuracy_value', 'NONE');
#195 = AXIS2_PLACEMENT_3D ( 'NONE', #126, #104, #241 ) ;
#196 = DIRECTION ( 'NONE',  ( 0.0000000000000000000, 0.0000000000000000000, -1.000000000000000000 ) ) ;
#197 = FACE_OUTER_BOUND ( 'NONE', #187, .T. ) ;
#198 = EDGE_CURVE ( 'NONE', #230, #1, #288, .T. ) ;
#199 = DIRECTION ( 'NONE',  ( -1.000000000000000000, 0.0000000000000000000, 1.224646799147353700E-16 ) ) ;
#200 = AXIS2_PLACEMENT_3D ( 'NONE', #149, #238, #33 ) ;
#201 = DIRECTION ( 'NONE',  ( 0.0000000000000000000, 0.0000000000000000000, 1.000000000000000000 ) ) ;
#202 = VECTOR ( 'NONE', #110, 39.37007874015748143 ) ;
#203 = DIRECTION ( 'NONE',  ( -1.224646799147353454E-16, -0.0000000000000000000, -1.000000000000000000 ) ) ;
#204 = CIRCLE ( 'NONE', #24, 0.06243749999999999994 ) ;
#205 = LINE ( 'NONE', #229, #60 ) ;
#206 = DIRECTION ( 'NONE',  ( 1.224646799147353454E-16, 0.0000000000000000000, 1.000000000000000000 ) ) ;
#207 = AXIS2_PLACEMENT_3D ( 'NONE', #224, #285, #129 ) ;
#208 = DIRECTION ( 'NONE',  ( 0.0000000000000000000, 0.0000000000000000000, -1.000000000000000000 ) ) ;
#209 = CIRCLE ( 'NONE', #115, 0.06250000000000000000 ) ;
#210 = VECTOR ( 'NONE', #294, 39.37007874015748143 ) ;
#211 = CONICAL_SURFACE ( 'NONE', #274, 0.06243750000000001382, 0.1745329251994338637 ) ;
#212 = SHAPE_DEFINITION_REPRESENTATION ( #14, #226 ) ;
#213 = ORIENTED_EDGE ( 'NONE', *, *, #130, .T. ) ;
#214 = ORIENTED_EDGE ( 'NONE', *, *, #73, .T. ) ;
#215 = EDGE_CURVE ( 'NONE', #1, #230, #19, .T. ) ;
#216 = LENGTH_MEASURE_WITH_UNIT ( LENGTH_MEASURE( 0.02539999999999999897 ), #74 );
#217 = ORIENTED_EDGE ( 'NONE', *, *, #265, .T. ) ;
#218 = ORIENTED_EDGE ( 'NONE', *, *, #250, .T. ) ;
#219 = CARTESIAN_POINT ( 'NONE',  ( -0.06243749999999997913, 7.646388452176288915E-18, 0.2500000000000000000 ) ) ;
#220 = PRODUCT ( 'Micro_SEM-125-02', 'Micro_SEM-125-02', '', ( #46 ) ) ;
#221 = DIRECTION ( 'NONE',  ( -1.000000000000000000, 0.0000000000000000000, 1.224646799147353207E-16 ) ) ;
#222 = CARTESIAN_POINT ( 'NONE',  ( -0.06250000000000000000, 0.0000000000000000000, 1.500000000000000222 ) ) ;
#223 = CARTESIAN_POINT ( 'NONE',  ( -0.06243749999999999994, 0.0000000000000000000, 1.529277690435257783E-17 ) ) ;
#224 = CARTESIAN_POINT ( 'NONE',  ( 9.364125142994977476E-34, 0.0000000000000000000, 7.646388452176288915E-18 ) ) ;
#225 = CARTESIAN_POINT ( 'NONE',  ( 0.0000000000000000000, 0.0000000000000000000, 1.485000000000000764 ) ) ;
#226 = ADVANCED_BREP_SHAPE_REPRESENTATION ( 'Micro_SEM-125-02', ( #182, #86 ), #75 ) ;
#227 = DIRECTION ( 'NONE',  ( 1.000000000000000000, 0.0000000000000000000, 0.0000000000000000000 ) ) ;
#228 = PLANE ( 'NONE',  #158 ) ;
#229 = CARTESIAN_POINT ( 'NONE',  ( -0.04750000000000064587, 0.0000000000000000000, 1.500000000000000222 ) ) ;
#230 = VERTEX_POINT ( 'NONE', #159 ) ;
#231 = ORIENTED_EDGE ( 'NONE', *, *, #198, .T. ) ;
#232 = SURFACE_STYLE_FILL_AREA ( #72 ) ;
#233 = ORIENTED_EDGE ( 'NONE', *, *, #250, .F. ) ;
#234 =( NAMED_UNIT ( * ) PLANE_ANGLE_UNIT ( ) SI_UNIT ( $, .RADIAN. ) );
#235 = ORIENTED_EDGE ( 'NONE', *, *, #48, .T. ) ;
#236 = DIRECTION ( 'NONE',  ( -1.000000000000000000, 0.0000000000000000000, 0.0000000000000000000 ) ) ;
#237 = PRODUCT_DEFINITION ( 'UNKNOWN', '', #65, #251 ) ;
#238 = DIRECTION ( 'NONE',  ( -0.0000000000000000000, -0.0000000000000000000, -1.000000000000000000 ) ) ;
#239 = DIRECTION ( 'NONE',  ( -0.0000000000000000000, -0.0000000000000000000, -1.000000000000000000 ) ) ;
#240 = CARTESIAN_POINT ( 'NONE',  ( -0.06250000000000000000, 0.0000000000000000000, 1.485000000000000764 ) ) ;
#241 = DIRECTION ( 'NONE',  ( 1.000000000000000000, 0.0000000000000000000, 0.0000000000000000000 ) ) ;
#242 = CIRCLE ( 'NONE', #157, 0.06243750000000001382 ) ;
#243 = SURFACE_STYLE_USAGE ( .BOTH. , #155 ) ;
#244 = CARTESIAN_POINT ( 'NONE',  ( 0.0000000000000000000, 0.0000000000000000000, 1.500000000000000222 ) ) ;
#245 =( NAMED_UNIT ( * ) PLANE_ANGLE_UNIT ( ) SI_UNIT ( $, .RADIAN. ) );
#246 = LINE ( 'NONE', #112, #150 ) ;
#247 = CIRCLE ( 'NONE', #287, 0.06243750000000001382 ) ;
#248 = VECTOR ( 'NONE', #92, 39.37007874015748143 ) ;
#249 = CARTESIAN_POINT ( 'NONE',  ( 0.06243749999999999994, 7.646388452176287375E-18, -9.478001694819074349E-34 ) ) ;
#250 = EDGE_CURVE ( 'NONE', #9, #170, #68, .T. ) ;
#251 = PRODUCT_DEFINITION_CONTEXT ( 'detailed design', #138, 'design' ) ;
#252 = APPLICATION_PROTOCOL_DEFINITION ( 'draft international standard', 'automotive_design', 1998, #257 ) ;
#253 = VERTEX_POINT ( 'NONE', #249 ) ;
#254 = CONICAL_SURFACE ( 'NONE', #171, 0.04750000000000064587, 0.7853981633974457255 ) ;
#255 = ADVANCED_FACE ( 'NONE', ( #20 ), #181, .T. ) ;
#256 = ORIENTED_EDGE ( 'NONE', *, *, #163, .T. ) ;
#257 = APPLICATION_CONTEXT ( 'automotive_design' ) ;
#258 = ORIENTED_EDGE ( 'NONE', *, *, #97, .T. ) ;
#259 = ORIENTED_EDGE ( 'NONE', *, *, #265, .F. ) ;
#260 = DIRECTION ( 'NONE',  ( -1.000000000000000000, 0.0000000000000000000, 0.0000000000000000000 ) ) ;
#261 = EDGE_CURVE ( 'NONE', #9, #253, #268, .T. ) ;
#262 = LINE ( 'NONE', #219, #298 ) ;
#263 = CARTESIAN_POINT ( 'NONE',  ( 0.04750000000000064587, 6.735557395310482421E-18, 1.500000000000000222 ) ) ;
#264 = STYLED_ITEM ( 'NONE', ( #121 ), #226 ) ;
#265 = EDGE_CURVE ( 'NONE', #54, #230, #154, .T. ) ;
#266 = DIRECTION ( 'NONE',  ( 0.0000000000000000000, 0.0000000000000000000, 1.000000000000000000 ) ) ;
#267 = FACE_OUTER_BOUND ( 'NONE', #25, .T. ) ;
#268 = LINE ( 'NONE', #111, #202 ) ;
#269 = CARTESIAN_POINT ( 'NONE',  ( -0.04750000000000064587, 0.0000000000000000000, 1.500000000000000222 ) ) ;
#270 = CARTESIAN_POINT ( 'NONE',  ( 0.06243750000000004852, 0.0000000000000000000, 0.2500000000000000000 ) ) ;
#271 = CARTESIAN_POINT ( 'NONE',  ( -0.06249999999999996531, 0.0000000000000000000, 0.2503544551137260044 ) ) ;
#272 = ADVANCED_FACE ( 'NONE', ( #40 ), #211, .T. ) ;
#273 = VECTOR ( 'NONE', #239, 39.37007874015748143 ) ;
#274 = AXIS2_PLACEMENT_3D ( 'NONE', #135, #206, #90 ) ;
#275 = VERTEX_POINT ( 'NONE', #269 ) ;
#276 = VERTEX_POINT ( 'NONE', #156 ) ;
#277 = EDGE_CURVE ( 'NONE', #276, #146, #246, .T. ) ;
#278 = FACE_OUTER_BOUND ( 'NONE', #47, .T. ) ;
#279 = EDGE_LOOP ( 'NONE', ( #99, #141, #218, #235 ) ) ;
#280 = DIRECTION ( 'NONE',  ( 0.0000000000000000000, 0.0000000000000000000, 1.000000000000000000 ) ) ;
#281 = ORIENTED_EDGE ( 'NONE', *, *, #130, .F. ) ;
#282 = ORIENTED_EDGE ( 'NONE', *, *, #277, .F. ) ;
#283 = VECTOR ( 'NONE', #176, 39.37007874015748143 ) ;
#284 = LINE ( 'NONE', #82, #283 ) ;
#285 = DIRECTION ( 'NONE',  ( -1.224646799147353454E-16, -0.0000000000000000000, -1.000000000000000000 ) ) ;
#286 = CARTESIAN_POINT ( 'NONE',  ( 9.364125142994977476E-34, 0.0000000000000000000, 7.646388452176288915E-18 ) ) ;
#287 = AXIS2_PLACEMENT_3D ( 'NONE', #131, #128, #236 ) ;
#288 = CIRCLE ( 'NONE', #29, 0.06250000000000000000 ) ;
#289 = CYLINDRICAL_SURFACE ( 'NONE', #49, 0.06250000000000000000 ) ;
#290 = CARTESIAN_POINT ( 'NONE',  ( 3.065957821073043634E-17, 0.0000000000000000000, 0.2503544551137260044 ) ) ;
#291 = CARTESIAN_POINT ( 'NONE',  ( 0.06250000000000002776, 7.654042494670959086E-18, 0.2503544551137260044 ) ) ;
#292 = ADVANCED_FACE ( 'NONE', ( #278 ), #153, .T. ) ;
#293 = CIRCLE ( 'NONE', #16, 0.04750000000000064587 ) ;
#294 = DIRECTION ( 'NONE',  ( 0.7071067811865456854, 8.659560562354911904E-17, -0.7071067811865493491 ) ) ;
#295 = CARTESIAN_POINT ( 'NONE',  ( 0.04750000000000064587, 5.817072295950006528E-18, 1.500000000000000222 ) ) ;
#296 = DIRECTION ( 'NONE',  ( 1.000000000000000000, 0.0000000000000000000, -0.0000000000000000000 ) ) ;
#297 = DIRECTION ( 'NONE',  ( 0.0000000000000000000, 0.0000000000000000000, 1.000000000000000000 ) ) ;
#298 = VECTOR ( 'NONE', #152, 39.37007874015747433 ) ;
#299 = ORIENTED_EDGE ( 'NONE', *, *, #198, .F. ) ;
ENDSEC;
END-ISO-10303-21;
