ISO-10303-21;
HEADER;
FILE_DESCRIPTION (( 'STEP AP214' ),
    '1' );
FILE_NAME ('59545.STEP',
    '2023-07-24T15:10:11',
    ( '' ),
    ( '' ),
    'SwSTEP 2.0',
    'SolidWorks 2023',
    '' );
FILE_SCHEMA (( 'AUTOMOTIVE_DESIGN' ));
ENDSEC;

DATA;
#1 = ORIENTED_EDGE ( 'NONE', *, *, #82, .T. ) ;
#2 = PRESENTATION_LAYER_ASSIGNMENT (  '', '', ( #150 ) ) ;
#3 =( LENGTH_UNIT ( ) NAMED_UNIT ( * ) SI_UNIT ( .MILLI., .METRE. ) );
#4 = PRESENTATION_STYLE_ASSIGNMENT (( #122 ) ) ;
#5 = MECHANICAL_DESIGN_GEOMETRIC_PRESENTATION_REPRESENTATION (  '', ( #336 ), #125 ) ;
#6 = STYLED_ITEM ( 'NONE', ( #204 ), #356 ) ;
#7 = CYLINDRICAL_SURFACE ( 'NONE', #262, 6.000000000000000000 ) ;
#8 = SURFACE_STYLE_USAGE ( .BOTH. , #312 ) ;
#9 = PRESENTATION_STYLE_ASSIGNMENT (( #357 ) ) ;
#10 = EDGE_LOOP ( 'NONE', ( #273, #49, #144, #201 ) ) ;
#11 = APPLICATION_CONTEXT ( 'automotive_design' ) ;
#12 = DIRECTION ( 'NONE',  ( -1.000000000000000000, 0.000000000000000000, 0.000000000000000000 ) ) ;
#13 = UNCERTAINTY_MEASURE_WITH_UNIT (LENGTH_MEASURE( 1.000000000000000082E-05 ), #363, 'distance_accuracy_value', 'NONE');
#14 = CARTESIAN_POINT ( 'NONE',  ( 0.000000000000000000, 1.000000000000000000, -5.000000000000000000 ) ) ;
#15 = CARTESIAN_POINT ( 'NONE',  ( 0.000000000000000000, 1.000000000000000000, 0.000000000000000000 ) ) ;
#16 = ORIENTED_EDGE ( 'NONE', *, *, #231, .F. ) ;
#17 = SURFACE_SIDE_STYLE ('',( #364 ) ) ;
#18 = AXIS2_PLACEMENT_3D ( 'NONE', #242, #368, #77 ) ;
#19 = ORIENTED_EDGE ( 'NONE', *, *, #326, .T. ) ;
#20 = CARTESIAN_POINT ( 'NONE',  ( -5.999999999999991118, 24.00000000000000000, 0.000000000000000000 ) ) ;
#21 = DIRECTION ( 'NONE',  ( 1.000000000000000000, 0.000000000000000000, 0.000000000000000000 ) ) ;
#22 = EDGE_CURVE ( 'NONE', #107, #164, #71, .T. ) ;
#23 = ORIENTED_EDGE ( 'NONE', *, *, #213, .F. ) ;
#24 = PLANE ( 'NONE',  #18 ) ;
#25 = STYLED_ITEM ( 'NONE', ( #215 ), #285 ) ;
#26 = CARTESIAN_POINT ( 'NONE',  ( 0.000000000000000000, 0.000000000000000000, 0.000000000000000000 ) ) ;
#27 = DIRECTION ( 'NONE',  ( -1.223542297630008506E-16, 1.000000000000000000, -0.000000000000000000 ) ) ;
#28 = CYLINDRICAL_SURFACE ( 'NONE', #211, 6.000000000000000000 ) ;
#29 = VERTEX_POINT ( 'NONE', #62 ) ;
#30 = VERTEX_POINT ( 'NONE', #346 ) ;
#31 = DIRECTION ( 'NONE',  ( 0.000000000000000000, 0.000000000000000000, -1.000000000000000000 ) ) ;
#32 = FACE_OUTER_BOUND ( 'NONE', #239, .T. ) ;
#33 = ADVANCED_FACE ( 'NONE', ( #210 ), #127, .T. ) ;
#34 = STYLED_ITEM ( 'NONE', ( #41 ), #57 ) ;
#35 =( GEOMETRIC_REPRESENTATION_CONTEXT ( 3 ) GLOBAL_UNCERTAINTY_ASSIGNED_CONTEXT ( ( #202 ) ) GLOBAL_UNIT_ASSIGNED_CONTEXT ( ( #327, #176, #114 ) ) REPRESENTATION_CONTEXT ( 'NONE', 'WORKASPACE' ) );
#36 = FILL_AREA_STYLE_COLOUR ( '', #322 ) ;
#37 = PRESENTATION_STYLE_ASSIGNMENT (( #67 ) ) ;
#38 = UNCERTAINTY_MEASURE_WITH_UNIT (LENGTH_MEASURE( 1.000000000000000082E-05 ), #156, 'distance_accuracy_value', 'NONE');
#39 = FILL_AREA_STYLE ('',( #349 ) ) ;
#40 = CARTESIAN_POINT ( 'NONE',  ( 0.000000000000000000, 1.000000000000000000, 0.000000000000000000 ) ) ;
#41 = PRESENTATION_STYLE_ASSIGNMENT (( #236 ) ) ;
#42 = MECHANICAL_DESIGN_GEOMETRIC_PRESENTATION_REPRESENTATION (  '', ( #293 ), #300 ) ;
#43 =( NAMED_UNIT ( * ) SI_UNIT ( $, .STERADIAN. ) SOLID_ANGLE_UNIT ( ) );
#44 = PRODUCT_DEFINITION_CONTEXT ( 'detailed design', #11, 'design' ) ;
#45 = CARTESIAN_POINT ( 'NONE',  ( 0.000000000000000000, 0.000000000000000000, 0.000000000000000000 ) ) ;
#46 = PRODUCT ( '59545', '59545', '', ( #243 ) ) ;
#47 = DIRECTION ( 'NONE',  ( 0.000000000000000000, 0.000000000000000000, -1.000000000000000000 ) ) ;
#48 =( GEOMETRIC_REPRESENTATION_CONTEXT ( 3 ) GLOBAL_UNCERTAINTY_ASSIGNED_CONTEXT ( ( #38 ) ) GLOBAL_UNIT_ASSIGNED_CONTEXT ( ( #156, #289, #43 ) ) REPRESENTATION_CONTEXT ( 'NONE', 'WORKASPACE' ) );
#49 = ORIENTED_EDGE ( 'NONE', *, *, #225, .T. ) ;
#50 = DIRECTION ( 'NONE',  ( -0.000000000000000000, -1.000000000000000000, -0.000000000000000000 ) ) ;
#51 = DIRECTION ( 'NONE',  ( 1.000000000000000000, 1.223542297630008506E-16, 0.000000000000000000 ) ) ;
#52 = ORIENTED_EDGE ( 'NONE', *, *, #92, .F. ) ;
#53 = DIRECTION ( 'NONE',  ( -0.000000000000000000, -1.000000000000000000, -0.000000000000000000 ) ) ;
#54 = CLOSED_SHELL ( 'NONE', ( #292, #334, #285, #57, #342, #338 ) ) ;
#55 = CIRCLE ( 'NONE', #244, 1.000000000000000000 ) ;
#56 = DIRECTION ( 'NONE',  ( 0.000000000000000000, 0.000000000000000000, -1.000000000000000000 ) ) ;
#57 = ADVANCED_FACE ( 'NONE', ( #64 ), #95, .T. ) ;
#58 = VECTOR ( 'NONE', #68, 1000.000000000000000 ) ;
#59 = FACE_OUTER_BOUND ( 'NONE', #194, .T. ) ;
#60 = CARTESIAN_POINT ( 'NONE',  ( 0.000000000000000000, 24.00000000000000000, 0.000000000000000000 ) ) ;
#61 = DIRECTION ( 'NONE',  ( -0.000000000000000000, -1.000000000000000000, -0.000000000000000000 ) ) ;
#62 = CARTESIAN_POINT ( 'NONE',  ( 0.000000000000000000, 24.00000000000000000, -6.000000000000000000 ) ) ;
#63 =( LENGTH_UNIT ( ) NAMED_UNIT ( * ) SI_UNIT ( .MILLI., .METRE. ) );
#64 = FACE_OUTER_BOUND ( 'NONE', #158, .T. ) ;
#65 = UNCERTAINTY_MEASURE_WITH_UNIT (LENGTH_MEASURE( 1.000000000000000082E-05 ), #89, 'distance_accuracy_value', 'NONE');
#66 = TOROIDAL_SURFACE ( 'NONE', #232, 5.000000000000000000, 0.9999999999999995559 ) ;
#67 = SURFACE_STYLE_USAGE ( .BOTH. , #323 ) ;
#68 = DIRECTION ( 'NONE',  ( -1.223542297630008506E-16, 1.000000000000000000, -0.000000000000000000 ) ) ;
#69 = ORIENTED_EDGE ( 'NONE', *, *, #216, .T. ) ;
#70 = DIRECTION ( 'NONE',  ( 0.000000000000000000, 0.000000000000000000, 1.000000000000000000 ) ) ;
#71 = CIRCLE ( 'NONE', #120, 6.000000000000001776 ) ;
#72 = DIRECTION ( 'NONE',  ( -1.000000000000000000, 0.000000000000000000, 0.000000000000000000 ) ) ;
#73 = MECHANICAL_DESIGN_GEOMETRIC_PRESENTATION_REPRESENTATION (  '', ( #25 ), #35 ) ;
#74 =( NAMED_UNIT ( * ) PLANE_ANGLE_UNIT ( ) SI_UNIT ( $, .RADIAN. ) );
#75 = DIRECTION ( 'NONE',  ( -0.000000000000000000, -1.000000000000000000, -0.000000000000000000 ) ) ;
#76 = LINE ( 'NONE', #165, #58 ) ;
#77 = DIRECTION ( 'NONE',  ( -1.000000000000000000, -1.223542297630008506E-16, 0.000000000000000000 ) ) ;
#78 = EDGE_LOOP ( 'NONE', ( #108, #52 ) ) ;
#79 = CIRCLE ( 'NONE', #129, 5.000000000000000000 ) ;
#80 =( GEOMETRIC_REPRESENTATION_CONTEXT ( 3 ) GLOBAL_UNCERTAINTY_ASSIGNED_CONTEXT ( ( #98 ) ) GLOBAL_UNIT_ASSIGNED_CONTEXT ( ( #3, #196, #145 ) ) REPRESENTATION_CONTEXT ( 'NONE', 'WORKASPACE' ) );
#81 = CARTESIAN_POINT ( 'NONE',  ( 0.000000000000000000, 0.000000000000000000, 0.000000000000000000 ) ) ;
#82 = EDGE_CURVE ( 'NONE', #90, #252, #79, .T. ) ;
#83 = DIRECTION ( 'NONE',  ( -1.223542297630008506E-16, 1.000000000000000000, -0.000000000000000000 ) ) ;
#84 = FACE_OUTER_BOUND ( 'NONE', #78, .T. ) ;
#85 = APPLICATION_CONTEXT ( 'automotive_design' ) ;
#86 = COLOUR_RGB ( '',0.7921568627450980005, 0.8196078431372548767, 0.9333333333333333481 ) ;
#87 = AXIS2_PLACEMENT_3D ( 'NONE', #275, #27, #161 ) ;
#88 = SURFACE_SIDE_STYLE ('',( #224 ) ) ;
#89 =( LENGTH_UNIT ( ) NAMED_UNIT ( * ) SI_UNIT ( .MILLI., .METRE. ) );
#90 = VERTEX_POINT ( 'NONE', #266 ) ;
#91 = DIRECTION ( 'NONE',  ( 0.000000000000000000, 0.000000000000000000, 1.000000000000000000 ) ) ;
#92 = EDGE_CURVE ( 'NONE', #307, #29, #299, .T. ) ;
#93 = FILL_AREA_STYLE_COLOUR ( '', #183 ) ;
#94 = ORIENTED_EDGE ( 'NONE', *, *, #260, .T. ) ;
#95 = TOROIDAL_SURFACE ( 'NONE', #281, 5.000000000000000000, 0.9999999999999995559 ) ;
#96 = CIRCLE ( 'NONE', #199, 5.000000000000000000 ) ;
#97 = CARTESIAN_POINT ( 'NONE',  ( -1.469576158976823750E-15, 75.00000000000000000, 0.000000000000000000 ) ) ;
#98 = UNCERTAINTY_MEASURE_WITH_UNIT (LENGTH_MEASURE( 1.000000000000000082E-05 ), #3, 'distance_accuracy_value', 'NONE');
#99 = SURFACE_STYLE_FILL_AREA ( #39 ) ;
#100 = CARTESIAN_POINT ( 'NONE',  ( 0.000000000000000000, 0.000000000000000000, 0.000000000000000000 ) ) ;
#101 = VECTOR ( 'NONE', #50, 1000.000000000000000 ) ;
#102 = FILL_AREA_STYLE ('',( #128 ) ) ;
#103 = MANIFOLD_SOLID_BREP ( 'Revolve - Tool Body (Straight Shanked)', #360 ) ;
#104 = AXIS2_PLACEMENT_3D ( 'NONE', #26, #70, #21 ) ;
#105 = EDGE_CURVE ( 'NONE', #316, #30, #321, .T. ) ;
#106 = DIRECTION ( 'NONE',  ( -1.223542297630008506E-16, 1.000000000000000000, -0.000000000000000000 ) ) ;
#107 = VERTEX_POINT ( 'NONE', #112 ) ;
#108 = ORIENTED_EDGE ( 'NONE', *, *, #155, .F. ) ;
#109 = CARTESIAN_POINT ( 'NONE',  ( 5.999999999999996447, 75.00000000000000000, 7.347880794884117764E-16 ) ) ;
#110 = AXIS2_PLACEMENT_3D ( 'NONE', #271, #301, #51 ) ;
#111 = ORIENTED_EDGE ( 'NONE', *, *, #22, .T. ) ;
#112 = CARTESIAN_POINT ( 'NONE',  ( -6.000000000000003553, 75.00000000000000000, 0.000000000000000000 ) ) ;
#113 = CARTESIAN_POINT ( 'NONE',  ( 0.000000000000000000, 24.00000000000000000, 0.000000000000000000 ) ) ;
#114 =( NAMED_UNIT ( * ) SI_UNIT ( $, .STERADIAN. ) SOLID_ANGLE_UNIT ( ) );
#115 = AXIS2_PLACEMENT_3D ( 'NONE', #329, #106, #245 ) ;
#116 = PRESENTATION_LAYER_ASSIGNMENT (  '', '', ( #293 ) ) ;
#117 = FACE_OUTER_BOUND ( 'NONE', #277, .T. ) ;
#118 = DIRECTION ( 'NONE',  ( 0.000000000000000000, -1.000000000000000000, -0.000000000000000000 ) ) ;
#119 = ORIENTED_EDGE ( 'NONE', *, *, #264, .T. ) ;
#120 = AXIS2_PLACEMENT_3D ( 'NONE', #351, #315, #12 ) ;
#121 = AXIS2_PLACEMENT_3D ( 'NONE', #142, #253, #31 ) ;
#122 = SURFACE_STYLE_USAGE ( .BOTH. , #88 ) ;
#123 = SURFACE_STYLE_FILL_AREA ( #259 ) ;
#124 =( NAMED_UNIT ( * ) SI_UNIT ( $, .STERADIAN. ) SOLID_ANGLE_UNIT ( ) );
#125 =( GEOMETRIC_REPRESENTATION_CONTEXT ( 3 ) GLOBAL_UNCERTAINTY_ASSIGNED_CONTEXT ( ( #286 ) ) GLOBAL_UNIT_ASSIGNED_CONTEXT ( ( #63, #287, #124 ) ) REPRESENTATION_CONTEXT ( 'NONE', 'WORKASPACE' ) );
#126 = FILL_AREA_STYLE ('',( #93 ) ) ;
#127 = CYLINDRICAL_SURFACE ( 'NONE', #190, 5.999999999999998224 ) ;
#128 = FILL_AREA_STYLE_COLOUR ( '', #86 ) ;
#129 = AXIS2_PLACEMENT_3D ( 'NONE', #100, #160, #235 ) ;
#130 = MECHANICAL_DESIGN_GEOMETRIC_PRESENTATION_REPRESENTATION (  '', ( #341 ), #80 ) ;
#131 = SURFACE_STYLE_USAGE ( .BOTH. , #17 ) ;
#132 = PRODUCT_DEFINITION_FORMATION_WITH_SPECIFIED_SOURCE ( 'ANY', '', #46, .NOT_KNOWN. ) ;
#133 =( NAMED_UNIT ( * ) SI_UNIT ( $, .STERADIAN. ) SOLID_ANGLE_UNIT ( ) );
#134 = CARTESIAN_POINT ( 'NONE',  ( 0.000000000000000000, 0.000000000000000000, -6.000000000000000000 ) ) ;
#135 = FACE_OUTER_BOUND ( 'NONE', #347, .T. ) ;
#136 = EDGE_LOOP ( 'NONE', ( #318, #69, #305, #353 ) ) ;
#137 =( NAMED_UNIT ( * ) PLANE_ANGLE_UNIT ( ) SI_UNIT ( $, .RADIAN. ) );
#138 = VECTOR ( 'NONE', #53, 1000.000000000000000 ) ;
#139 =( NAMED_UNIT ( * ) PLANE_ANGLE_UNIT ( ) SI_UNIT ( $, .RADIAN. ) );
#140 = CIRCLE ( 'NONE', #121, 6.000000000000000000 ) ;
#141 = FACE_OUTER_BOUND ( 'NONE', #177, .T. ) ;
#142 = CARTESIAN_POINT ( 'NONE',  ( 0.000000000000000000, 1.000000000000000000, 0.000000000000000000 ) ) ;
#143 = ORIENTED_EDGE ( 'NONE', *, *, #155, .T. ) ;
#144 = ORIENTED_EDGE ( 'NONE', *, *, #22, .F. ) ;
#145 =( NAMED_UNIT ( * ) SI_UNIT ( $, .STERADIAN. ) SOLID_ANGLE_UNIT ( ) );
#146 = UNCERTAINTY_MEASURE_WITH_UNIT (LENGTH_MEASURE( 1.000000000000000082E-05 ), #291, 'distance_accuracy_value', 'NONE');
#147 = FILL_AREA_STYLE_COLOUR ( '', #283 ) ;
#148 = CARTESIAN_POINT ( 'NONE',  ( 0.000000000000000000, 1.000000000000000000, -6.000000000000000000 ) ) ;
#149 = ORIENTED_EDGE ( 'NONE', *, *, #264, .F. ) ;
#150 = STYLED_ITEM ( 'NONE', ( #203 ), #342 ) ;
#151 = FILL_AREA_STYLE ('',( #36 ) ) ;
#152 = EDGE_CURVE ( 'NONE', #29, #316, #303, .T. ) ;
#153 = CARTESIAN_POINT ( 'NONE',  ( 0.000000000000000000, 1.000000000000000000, 0.000000000000000000 ) ) ;
#154 = FILL_AREA_STYLE_COLOUR ( '', #184 ) ;
#155 = EDGE_CURVE ( 'NONE', #29, #307, #222, .T. ) ;
#156 =( LENGTH_UNIT ( ) NAMED_UNIT ( * ) SI_UNIT ( .MILLI., .METRE. ) );
#157 = AXIS2_PLACEMENT_3D ( 'NONE', #171, #83, #197 ) ;
#158 = EDGE_LOOP ( 'NONE', ( #302, #19, #254, #298 ) ) ;
#159 = SURFACE_STYLE_USAGE ( .BOTH. , #263 ) ;
#160 = DIRECTION ( 'NONE',  ( -0.000000000000000000, -1.000000000000000000, -0.000000000000000000 ) ) ;
#161 = DIRECTION ( 'NONE',  ( -1.000000000000000000, 0.000000000000000000, 0.000000000000000000 ) ) ;
#162 = CIRCLE ( 'NONE', #228, 1.000000000000000000 ) ;
#163 = AXIS2_PLACEMENT_3D ( 'NONE', #354, #290, #257 ) ;
#164 = VERTEX_POINT ( 'NONE', #331 ) ;
#165 = CARTESIAN_POINT ( 'NONE',  ( -6.000000000000000000, 75.00000000000000000, 0.000000000000000000 ) ) ;
#166 = CARTESIAN_POINT ( 'NONE',  ( 6.123233995736766282E-16, 1.000000000000000000, 5.000000000000000000 ) ) ;
#167 = ORIENTED_EDGE ( 'NONE', *, *, #193, .T. ) ;
#168 = DIRECTION ( 'NONE',  ( 0.000000000000000000, 0.000000000000000000, -1.000000000000000000 ) ) ;
#169 = ORIENTED_EDGE ( 'NONE', *, *, #92, .T. ) ;
#170 =( NAMED_UNIT ( * ) PLANE_ANGLE_UNIT ( ) SI_UNIT ( $, .RADIAN. ) );
#171 = CARTESIAN_POINT ( 'NONE',  ( -1.469576158976823750E-15, 75.00000000000000000, 0.000000000000000000 ) ) ;
#172 = MECHANICAL_DESIGN_GEOMETRIC_PRESENTATION_REPRESENTATION (  '', ( #34 ), #48 ) ;
#173 =( GEOMETRIC_REPRESENTATION_CONTEXT ( 3 ) GLOBAL_UNCERTAINTY_ASSIGNED_CONTEXT ( ( #146 ) ) GLOBAL_UNIT_ASSIGNED_CONTEXT ( ( #291, #265, #256 ) ) REPRESENTATION_CONTEXT ( 'NONE', 'WORKASPACE' ) );
#174 = CYLINDRICAL_SURFACE ( 'NONE', #157, 5.999999999999998224 ) ;
#175 = UNCERTAINTY_MEASURE_WITH_UNIT (LENGTH_MEASURE( 1.000000000000000082E-05 ), #180, 'distance_accuracy_value', 'NONE');
#176 =( NAMED_UNIT ( * ) PLANE_ANGLE_UNIT ( ) SI_UNIT ( $, .RADIAN. ) );
#177 = EDGE_LOOP ( 'NONE', ( #94, #1 ) ) ;
#178 = STYLED_ITEM ( 'NONE', ( #37 ), #103 ) ;
#179 = PRESENTATION_LAYER_ASSIGNMENT (  '', '', ( #336 ) ) ;
#180 =( LENGTH_UNIT ( ) NAMED_UNIT ( * ) SI_UNIT ( .MILLI., .METRE. ) );
#181 = SURFACE_SIDE_STYLE ('',( #320 ) ) ;
#182 = DIRECTION ( 'NONE',  ( -1.000000000000000000, 0.000000000000000000, 0.000000000000000000 ) ) ;
#183 = COLOUR_RGB ( '',1.000000000000000000, 0.000000000000000000, 0.000000000000000000 ) ;
#184 = COLOUR_RGB ( '',0.7921568627450980005, 0.8196078431372548767, 0.9333333333333333481 ) ;
#185 = DIRECTION ( 'NONE',  ( -0.000000000000000000, -1.000000000000000000, -0.000000000000000000 ) ) ;
#186 = CIRCLE ( 'NONE', #350, 5.999999999999996447 ) ;
#187 = DIRECTION ( 'NONE',  ( 1.000000000000000000, 0.000000000000000000, -1.224646799147353207E-16 ) ) ;
#188 = DIRECTION ( 'NONE',  ( -1.223542297630008506E-16, 1.000000000000000000, -0.000000000000000000 ) ) ;
#189 = DIRECTION ( 'NONE',  ( -0.000000000000000000, -1.000000000000000000, -0.000000000000000000 ) ) ;
#190 = AXIS2_PLACEMENT_3D ( 'NONE', #97, #295, #317 ) ;
#191 = FILL_AREA_STYLE ('',( #343 ) ) ;
#192 = COLOUR_RGB ( '',1.000000000000000000, 0.000000000000000000, 0.000000000000000000 ) ;
#193 = EDGE_CURVE ( 'NONE', #280, #107, #76, .T. ) ;
#194 = EDGE_LOOP ( 'NONE', ( #16, #169, #237, #249 ) ) ;
#195 = SURFACE_SIDE_STYLE ('',( #223 ) ) ;
#196 =( NAMED_UNIT ( * ) PLANE_ANGLE_UNIT ( ) SI_UNIT ( $, .RADIAN. ) );
#197 = DIRECTION ( 'NONE',  ( -1.000000000000000000, 0.000000000000000000, 0.000000000000000000 ) ) ;
#198 = MECHANICAL_DESIGN_GEOMETRIC_PRESENTATION_REPRESENTATION (  '', ( #178 ), #274 ) ;
#199 = AXIS2_PLACEMENT_3D ( 'NONE', #45, #189, #297 ) ;
#200 = CARTESIAN_POINT ( 'NONE',  ( 0.000000000000000000, 0.000000000000000000, 0.000000000000000000 ) ) ;
#201 = ORIENTED_EDGE ( 'NONE', *, *, #193, .F. ) ;
#202 = UNCERTAINTY_MEASURE_WITH_UNIT (LENGTH_MEASURE( 1.000000000000000082E-05 ), #327, 'distance_accuracy_value', 'NONE');
#203 = PRESENTATION_STYLE_ASSIGNMENT (( #8 ) ) ;
#204 = PRESENTATION_STYLE_ASSIGNMENT (( #159 ) ) ;
#205 = MECHANICAL_DESIGN_GEOMETRIC_PRESENTATION_REPRESENTATION (  '', ( #150 ), #173 ) ;
#206 = SURFACE_SIDE_STYLE ('',( #234 ) ) ;
#207 = ADVANCED_BREP_SHAPE_REPRESENTATION ( '59545', ( #356, #103, #104 ), #310 ) ;
#208 = DIRECTION ( 'NONE',  ( 0.000000000000000000, 0.000000000000000000, -1.000000000000000000 ) ) ;
#209 = DIRECTION ( 'NONE',  ( -0.000000000000000000, -1.000000000000000000, -0.000000000000000000 ) ) ;
#210 = FACE_OUTER_BOUND ( 'NONE', #10, .T. ) ;
#211 = AXIS2_PLACEMENT_3D ( 'NONE', #200, #284, #56 ) ;
#212 =( GEOMETRIC_REPRESENTATION_CONTEXT ( 3 ) GLOBAL_UNCERTAINTY_ASSIGNED_CONTEXT ( ( #65 ) ) GLOBAL_UNIT_ASSIGNED_CONTEXT ( ( #89, #74, #133 ) ) REPRESENTATION_CONTEXT ( 'NONE', 'WORKASPACE' ) );
#213 = EDGE_CURVE ( 'NONE', #164, #107, #267, .T. ) ;
#214 = SURFACE_STYLE_FILL_AREA ( #102 ) ;
#215 = PRESENTATION_STYLE_ASSIGNMENT (( #131 ) ) ;
#216 = EDGE_CURVE ( 'NONE', #30, #90, #162, .T. ) ;
#217 = FACE_OUTER_BOUND ( 'NONE', #339, .T. ) ;
#218 = LINE ( 'NONE', #109, #255 ) ;
#219 = ADVANCED_FACE ( 'NONE', ( #135 ), #272, .F. ) ;
#220 =( NAMED_UNIT ( * ) SI_UNIT ( $, .STERADIAN. ) SOLID_ANGLE_UNIT ( ) );
#221 = ORIENTED_EDGE ( 'NONE', *, *, #278, .F. ) ;
#222 = CIRCLE ( 'NONE', #328, 6.000000000000000000 ) ;
#223 = SURFACE_STYLE_FILL_AREA ( #191 ) ;
#224 = SURFACE_STYLE_FILL_AREA ( #227 ) ;
#225 = EDGE_CURVE ( 'NONE', #370, #164, #218, .T. ) ;
#226 = DIRECTION ( 'NONE',  ( 0.000000000000000000, 0.000000000000000000, -1.000000000000000000 ) ) ;
#227 = FILL_AREA_STYLE ('',( #147 ) ) ;
#228 = AXIS2_PLACEMENT_3D ( 'NONE', #166, #187, #333 ) ;
#229 =( NAMED_UNIT ( * ) SI_UNIT ( $, .STERADIAN. ) SOLID_ANGLE_UNIT ( ) );
#230 = DIRECTION ( 'NONE',  ( 0.000000000000000000, 0.000000000000000000, -1.000000000000000000 ) ) ;
#231 = EDGE_CURVE ( 'NONE', #307, #30, #269, .T. ) ;
#232 = AXIS2_PLACEMENT_3D ( 'NONE', #153, #61, #230 ) ;
#233 = ORIENTED_EDGE ( 'NONE', *, *, #213, .T. ) ;
#234 = SURFACE_STYLE_FILL_AREA ( #151 ) ;
#235 = DIRECTION ( 'NONE',  ( 0.000000000000000000, 0.000000000000000000, -1.000000000000000000 ) ) ;
#236 = SURFACE_STYLE_USAGE ( .BOTH. , #181 ) ;
#237 = ORIENTED_EDGE ( 'NONE', *, *, #152, .T. ) ;
#238 = CARTESIAN_POINT ( 'NONE',  ( 7.347880794884119736E-16, 0.000000000000000000, 6.000000000000000000 ) ) ;
#239 = EDGE_LOOP ( 'NONE', ( #332, #119, #167, #23 ) ) ;
#240 =( NAMED_UNIT ( * ) SI_UNIT ( $, .STERADIAN. ) SOLID_ANGLE_UNIT ( ) );
#241 = FILL_AREA_STYLE ('',( #369 ) ) ;
#242 = CARTESIAN_POINT ( 'NONE',  ( 4.770489558936219510E-15, 24.00000000000000000, 0.000000000000000000 ) ) ;
#243 = PRODUCT_CONTEXT ( 'NONE', #85, 'mechanical' ) ;
#244 = AXIS2_PLACEMENT_3D ( 'NONE', #14, #182, #91 ) ;
#245 = DIRECTION ( 'NONE',  ( -1.000000000000000000, 0.000000000000000000, 0.000000000000000000 ) ) ;
#246 = ADVANCED_FACE ( 'NONE', ( #217 ), #24, .F. ) ;
#247 = PLANE ( 'NONE',  #304 ) ;
#248 = CARTESIAN_POINT ( 'NONE',  ( 7.347880794884119736E-16, 24.00000000000000000, 6.000000000000000000 ) ) ;
#249 = ORIENTED_EDGE ( 'NONE', *, *, #326, .F. ) ;
#250 = PRESENTATION_LAYER_ASSIGNMENT (  '', '', ( #178 ) ) ;
#251 = COLOUR_RGB ( '',1.000000000000000000, 0.000000000000000000, 0.000000000000000000 ) ;
#252 = VERTEX_POINT ( 'NONE', #296 ) ;
#253 = DIRECTION ( 'NONE',  ( -0.000000000000000000, -1.000000000000000000, -0.000000000000000000 ) ) ;
#254 = ORIENTED_EDGE ( 'NONE', *, *, #345, .T. ) ;
#255 = VECTOR ( 'NONE', #188, 1000.000000000000000 ) ;
#256 =( NAMED_UNIT ( * ) SI_UNIT ( $, .STERADIAN. ) SOLID_ANGLE_UNIT ( ) );
#257 = DIRECTION ( 'NONE',  ( 0.000000000000000000, -0.000000000000000000, 1.000000000000000000 ) ) ;
#258 = DIRECTION ( 'NONE',  ( -0.000000000000000000, -1.000000000000000000, -0.000000000000000000 ) ) ;
#259 = FILL_AREA_STYLE ('',( #154 ) ) ;
#260 = EDGE_CURVE ( 'NONE', #252, #90, #96, .T. ) ;
#261 = AXIS2_PLACEMENT_3D ( 'NONE', #15, #362, #47 ) ;
#262 = AXIS2_PLACEMENT_3D ( 'NONE', #314, #209, #319 ) ;
#263 = SURFACE_SIDE_STYLE ('',( #123 ) ) ;
#264 = EDGE_CURVE ( 'NONE', #370, #280, #186, .T. ) ;
#265 =( NAMED_UNIT ( * ) PLANE_ANGLE_UNIT ( ) SI_UNIT ( $, .RADIAN. ) );
#266 = CARTESIAN_POINT ( 'NONE',  ( 6.735557395310443009E-16, 0.000000000000000000, 5.000000000000000000 ) ) ;
#267 = CIRCLE ( 'NONE', #115, 6.000000000000001776 ) ;
#268 = CIRCLE ( 'NONE', #87, 5.999999999999996447 ) ;
#269 = LINE ( 'NONE', #238, #101 ) ;
#270 = CARTESIAN_POINT ( 'NONE',  ( 6.000000000000000000, 24.00000000000000000, 7.347880794884120722E-16 ) ) ;
#271 = CARTESIAN_POINT ( 'NONE',  ( 6.000000000000000000, 75.00000000000000000, 0.000000000000000000 ) ) ;
#272 = PLANE ( 'NONE',  #110 ) ;
#273 = ORIENTED_EDGE ( 'NONE', *, *, #278, .T. ) ;
#274 =( GEOMETRIC_REPRESENTATION_CONTEXT ( 3 ) GLOBAL_UNCERTAINTY_ASSIGNED_CONTEXT ( ( #175 ) ) GLOBAL_UNIT_ASSIGNED_CONTEXT ( ( #180, #139, #220 ) ) REPRESENTATION_CONTEXT ( 'NONE', 'WORKASPACE' ) );
#275 = CARTESIAN_POINT ( 'NONE',  ( 4.770489558936219510E-15, 24.00000000000000000, 0.000000000000000000 ) ) ;
#276 = PRODUCT_DEFINITION ( 'UNKNOWN', '', #132, #44 ) ;
#277 = EDGE_LOOP ( 'NONE', ( #143, #344, #330, #359 ) ) ;
#278 = EDGE_CURVE ( 'NONE', #280, #370, #268, .T. ) ;
#279 = PRESENTATION_STYLE_ASSIGNMENT (( #306 ) ) ;
#280 = VERTEX_POINT ( 'NONE', #20 ) ;
#281 = AXIS2_PLACEMENT_3D ( 'NONE', #40, #185, #208 ) ;
#282 = PRODUCT_RELATED_PRODUCT_CATEGORY ( 'part', '', ( #46 ) ) ;
#283 = COLOUR_RGB ( '',1.000000000000000000, 0.000000000000000000, 0.000000000000000000 ) ;
#284 = DIRECTION ( 'NONE',  ( -0.000000000000000000, -1.000000000000000000, -0.000000000000000000 ) ) ;
#285 = ADVANCED_FACE ( 'NONE', ( #141 ), #247, .T. ) ;
#286 = UNCERTAINTY_MEASURE_WITH_UNIT (LENGTH_MEASURE( 1.000000000000000082E-05 ), #63, 'distance_accuracy_value', 'NONE');
#287 =( NAMED_UNIT ( * ) PLANE_ANGLE_UNIT ( ) SI_UNIT ( $, .RADIAN. ) );
#288 = PRESENTATION_LAYER_ASSIGNMENT (  '', '', ( #341 ) ) ;
#289 =( NAMED_UNIT ( * ) PLANE_ANGLE_UNIT ( ) SI_UNIT ( $, .RADIAN. ) );
#290 = DIRECTION ( 'NONE',  ( 0.000000000000000000, 1.000000000000000000, 0.000000000000000000 ) ) ;
#291 =( LENGTH_UNIT ( ) NAMED_UNIT ( * ) SI_UNIT ( .MILLI., .METRE. ) );
#292 = ADVANCED_FACE ( 'NONE', ( #117 ), #28, .T. ) ;
#293 = STYLED_ITEM ( 'NONE', ( #4 ), #292 ) ;
#294 = PLANE ( 'NONE',  #163 ) ;
#295 = DIRECTION ( 'NONE',  ( -1.223542297630008506E-16, 1.000000000000000000, -0.000000000000000000 ) ) ;
#296 = CARTESIAN_POINT ( 'NONE',  ( 0.000000000000000000, 0.000000000000000000, -5.000000000000000000 ) ) ;
#297 = DIRECTION ( 'NONE',  ( 0.000000000000000000, 0.000000000000000000, -1.000000000000000000 ) ) ;
#298 = ORIENTED_EDGE ( 'NONE', *, *, #82, .F. ) ;
#299 = CIRCLE ( 'NONE', #313, 6.000000000000000000 ) ;
#300 =( GEOMETRIC_REPRESENTATION_CONTEXT ( 3 ) GLOBAL_UNCERTAINTY_ASSIGNED_CONTEXT ( ( #348 ) ) GLOBAL_UNIT_ASSIGNED_CONTEXT ( ( #308, #170, #229 ) ) REPRESENTATION_CONTEXT ( 'NONE', 'WORKASPACE' ) );
#301 = DIRECTION ( 'NONE',  ( 1.223542297630008506E-16, -1.000000000000000000, 0.000000000000000000 ) ) ;
#302 = ORIENTED_EDGE ( 'NONE', *, *, #216, .F. ) ;
#303 = LINE ( 'NONE', #134, #138 ) ;
#304 = AXIS2_PLACEMENT_3D ( 'NONE', #81, #118, #226 ) ;
#305 = ORIENTED_EDGE ( 'NONE', *, *, #260, .F. ) ;
#306 = SURFACE_STYLE_USAGE ( .BOTH. , #195 ) ;
#307 = VERTEX_POINT ( 'NONE', #248 ) ;
#308 =( LENGTH_UNIT ( ) NAMED_UNIT ( * ) SI_UNIT ( .MILLI., .METRE. ) );
#309 = COLOUR_RGB ( '',1.000000000000000000, 0.000000000000000000, 0.000000000000000000 ) ;
#310 =( GEOMETRIC_REPRESENTATION_CONTEXT ( 3 ) GLOBAL_UNCERTAINTY_ASSIGNED_CONTEXT ( ( #13 ) ) GLOBAL_UNIT_ASSIGNED_CONTEXT ( ( #363, #137, #240 ) ) REPRESENTATION_CONTEXT ( 'NONE', 'WORKASPACE' ) );
#311 = ADVANCED_FACE ( 'NONE', ( #32 ), #174, .T. ) ;
#312 = SURFACE_SIDE_STYLE ('',( #99 ) ) ;
#313 = AXIS2_PLACEMENT_3D ( 'NONE', #60, #258, #355 ) ;
#314 = CARTESIAN_POINT ( 'NONE',  ( 0.000000000000000000, 0.000000000000000000, 0.000000000000000000 ) ) ;
#315 = DIRECTION ( 'NONE',  ( -1.223542297630008506E-16, 1.000000000000000000, -0.000000000000000000 ) ) ;
#316 = VERTEX_POINT ( 'NONE', #148 ) ;
#317 = DIRECTION ( 'NONE',  ( -1.000000000000000000, 0.000000000000000000, 0.000000000000000000 ) ) ;
#318 = ORIENTED_EDGE ( 'NONE', *, *, #105, .T. ) ;
#319 = DIRECTION ( 'NONE',  ( 0.000000000000000000, 0.000000000000000000, -1.000000000000000000 ) ) ;
#320 = SURFACE_STYLE_FILL_AREA ( #126 ) ;
#321 = CIRCLE ( 'NONE', #261, 6.000000000000000000 ) ;
#322 = COLOUR_RGB ( '',1.000000000000000000, 0.000000000000000000, 0.000000000000000000 ) ;
#323 = SURFACE_SIDE_STYLE ('',( #214 ) ) ;
#324 = SHAPE_DEFINITION_REPRESENTATION ( #361, #207 ) ;
#325 = DIRECTION ( 'NONE',  ( -1.223542297630008506E-16, 1.000000000000000000, -0.000000000000000000 ) ) ;
#326 = EDGE_CURVE ( 'NONE', #30, #316, #140, .T. ) ;
#327 =( LENGTH_UNIT ( ) NAMED_UNIT ( * ) SI_UNIT ( .MILLI., .METRE. ) );
#328 = AXIS2_PLACEMENT_3D ( 'NONE', #113, #75, #168 ) ;
#329 = CARTESIAN_POINT ( 'NONE',  ( -1.469576158976823750E-15, 75.00000000000000000, 0.000000000000000000 ) ) ;
#330 = ORIENTED_EDGE ( 'NONE', *, *, #105, .F. ) ;
#331 = CARTESIAN_POINT ( 'NONE',  ( 6.000000000000000000, 75.00000000000000000, 7.347880794884119736E-16 ) ) ;
#332 = ORIENTED_EDGE ( 'NONE', *, *, #225, .F. ) ;
#333 = DIRECTION ( 'NONE',  ( -1.224646799147352468E-16, 0.000000000000000000, -1.000000000000000000 ) ) ;
#334 = ADVANCED_FACE ( 'NONE', ( #340 ), #66, .T. ) ;
#335 = PRESENTATION_LAYER_ASSIGNMENT (  '', '', ( #34 ) ) ;
#336 = STYLED_ITEM ( 'NONE', ( #9 ), #338 ) ;
#337 = PRESENTATION_LAYER_ASSIGNMENT (  '', '', ( #6 ) ) ;
#338 = ADVANCED_FACE ( 'NONE', ( #84 ), #294, .T. ) ;
#339 = EDGE_LOOP ( 'NONE', ( #221, #149 ) ) ;
#340 = FACE_OUTER_BOUND ( 'NONE', #136, .T. ) ;
#341 = STYLED_ITEM ( 'NONE', ( #279 ), #334 ) ;
#342 = ADVANCED_FACE ( 'NONE', ( #59 ), #7, .T. ) ;
#343 = FILL_AREA_STYLE_COLOUR ( '', #192 ) ;
#344 = ORIENTED_EDGE ( 'NONE', *, *, #231, .T. ) ;
#345 = EDGE_CURVE ( 'NONE', #316, #252, #55, .T. ) ;
#346 = CARTESIAN_POINT ( 'NONE',  ( 7.347880794884118750E-16, 1.000000000000000000, 6.000000000000000000 ) ) ;
#347 = EDGE_LOOP ( 'NONE', ( #111, #233 ) ) ;
#348 = UNCERTAINTY_MEASURE_WITH_UNIT (LENGTH_MEASURE( 1.000000000000000082E-05 ), #308, 'distance_accuracy_value', 'NONE');
#349 = FILL_AREA_STYLE_COLOUR ( '', #251 ) ;
#350 = AXIS2_PLACEMENT_3D ( 'NONE', #366, #325, #72 ) ;
#351 = CARTESIAN_POINT ( 'NONE',  ( -1.469576158976823750E-15, 75.00000000000000000, 0.000000000000000000 ) ) ;
#352 = MECHANICAL_DESIGN_GEOMETRIC_PRESENTATION_REPRESENTATION (  '', ( #6 ), #212 ) ;
#353 = ORIENTED_EDGE ( 'NONE', *, *, #345, .F. ) ;
#354 = CARTESIAN_POINT ( 'NONE',  ( 0.000000000000000000, 24.00000000000000000, 0.000000000000000000 ) ) ;
#355 = DIRECTION ( 'NONE',  ( 0.000000000000000000, 0.000000000000000000, -1.000000000000000000 ) ) ;
#356 = MANIFOLD_SOLID_BREP ( 'Revolve - Cutting Edge', #54 ) ;
#357 = SURFACE_STYLE_USAGE ( .BOTH. , #206 ) ;
#358 = APPLICATION_PROTOCOL_DEFINITION ( 'draft international standard', 'automotive_design', 1998, #11 ) ;
#359 = ORIENTED_EDGE ( 'NONE', *, *, #152, .F. ) ;
#360 = CLOSED_SHELL ( 'NONE', ( #33, #246, #311, #219 ) ) ;
#361 = PRODUCT_DEFINITION_SHAPE ( 'NONE', 'NONE',  #276 ) ;
#362 = DIRECTION ( 'NONE',  ( -0.000000000000000000, -1.000000000000000000, -0.000000000000000000 ) ) ;
#363 =( LENGTH_UNIT ( ) NAMED_UNIT ( * ) SI_UNIT ( .MILLI., .METRE. ) );
#364 = SURFACE_STYLE_FILL_AREA ( #241 ) ;
#365 = APPLICATION_PROTOCOL_DEFINITION ( 'draft international standard', 'automotive_design', 1998, #85 ) ;
#366 = CARTESIAN_POINT ( 'NONE',  ( 4.770489558936219510E-15, 24.00000000000000000, 0.000000000000000000 ) ) ;
#367 = PRESENTATION_LAYER_ASSIGNMENT (  '', '', ( #25 ) ) ;
#368 = DIRECTION ( 'NONE',  ( -1.223542297630008506E-16, 1.000000000000000000, 0.000000000000000000 ) ) ;
#369 = FILL_AREA_STYLE_COLOUR ( '', #309 ) ;
#370 = VERTEX_POINT ( 'NONE', #270 ) ;
ENDSEC;
END-ISO-10303-21;
