ISO-10303-21;
HEADER;
FILE_DESCRIPTION (( 'STEP AP214' ),
    '1' );
FILE_NAME ('81404.STEP',
    '2023-06-23T01:12:36',
    ( '' ),
    ( '' ),
    'SwSTEP 2.0',
    'SolidWorks 2023',
    '' );
FILE_SCHEMA (( 'AUTOMOTIVE_DESIGN' ));
ENDSEC;

DATA;
#1 = ORIENTED_EDGE ( 'NONE', *, *, #213, .T. ) ;
#2 =( CONVERSION_BASED_UNIT ( 'INCH', #128 ) LENGTH_UNIT ( ) NAMED_UNIT ( #42 ) );
#3 = EDGE_CURVE ( 'NONE', #4, #247, #60, .T. ) ;
#4 = VERTEX_POINT ( 'NONE', #135 ) ;
#5 =( NAMED_UNIT ( * ) SI_UNIT ( $, .STERADIAN. ) SOLID_ANGLE_UNIT ( ) );
#6 = PRESENTATION_LAYER_ASSIGNMENT (  '', '', ( #94 ) ) ;
#7 = DIRECTION ( 'NONE',  ( 0.000000000000000000, 0.000000000000000000, -1.000000000000000000 ) ) ;
#8 = LENGTH_MEASURE_WITH_UNIT ( LENGTH_MEASURE( 0.02539999999999999897 ), #136 );
#9 = SURFACE_STYLE_USAGE ( .BOTH. , #190 ) ;
#10 = ORIENTED_EDGE ( 'NONE', *, *, #141, .T. ) ;
#11 = LINE ( 'NONE', #227, #173 ) ;
#12 = CARTESIAN_POINT ( 'NONE',  ( 0.000000000000000000, 0.000000000000000000, 0.000000000000000000 ) ) ;
#13 =( CONVERSION_BASED_UNIT ( 'INCH', #8 ) LENGTH_UNIT ( ) NAMED_UNIT ( #208 ) );
#14 = AXIS2_PLACEMENT_3D ( 'NONE', #261, #48, #144 ) ;
#15 = LENGTH_MEASURE_WITH_UNIT ( LENGTH_MEASURE( 0.02539999999999999897 ), #153 );
#16 = UNCERTAINTY_MEASURE_WITH_UNIT (LENGTH_MEASURE( 1.000000000000000082E-05 ), #64, 'distance_accuracy_value', 'NONE');
#17 = ORIENTED_EDGE ( 'NONE', *, *, #167, .T. ) ;
#18 =( CONVERSION_BASED_UNIT ( 'INCH', #85 ) LENGTH_UNIT ( ) NAMED_UNIT ( #303 ) );
#19 = AXIS2_PLACEMENT_3D ( 'NONE', #62, #36, #80 ) ;
#20 = DIRECTION ( 'NONE',  ( -1.000000000000000000, 0.000000000000000000, 0.000000000000000000 ) ) ;
#21 = DIRECTION ( 'NONE',  ( 1.000000000000000000, 8.164311994315692567E-17, 0.000000000000000000 ) ) ;
#22 = AXIS2_PLACEMENT_3D ( 'NONE', #207, #299, #201 ) ;
#23 = CARTESIAN_POINT ( 'NONE',  ( -0.1250000000000001943, 3.000000000000000444, 0.000000000000000000 ) ) ;
#24 = AXIS2_PLACEMENT_3D ( 'NONE', #181, #210, #255 ) ;
#25 = COLOUR_RGB ( '',0.7921568627450980005, 0.8196078431372548767, 0.9333333333333333481 ) ;
#26 = ORIENTED_EDGE ( 'NONE', *, *, #213, .F. ) ;
#27 = ORIENTED_EDGE ( 'NONE', *, *, #3, .T. ) ;
#28 = FACE_OUTER_BOUND ( 'NONE', #225, .T. ) ;
#29 = CARTESIAN_POINT ( 'NONE',  ( 0.000000000000000000, 1.500000000000000222, 0.000000000000000000 ) ) ;
#30 = COLOUR_RGB ( '',1.000000000000000000, 0.000000000000000000, 0.000000000000000000 ) ;
#31 = ORIENTED_EDGE ( 'NONE', *, *, #141, .F. ) ;
#32 = FILL_AREA_STYLE_COLOUR ( '', #220 ) ;
#33 = PRODUCT_DEFINITION ( 'UNKNOWN', '', #177, #112 ) ;
#34 = FILL_AREA_STYLE_COLOUR ( '', #203 ) ;
#35 = ORIENTED_EDGE ( 'NONE', *, *, #167, .F. ) ;
#36 = DIRECTION ( 'NONE',  ( -8.164311994315692567E-17, 1.000000000000000000, 0.000000000000000000 ) ) ;
#37 = AXIS2_PLACEMENT_3D ( 'NONE', #63, #106, #158 ) ;
#38 = SURFACE_STYLE_USAGE ( .BOTH. , #230 ) ;
#39 = APPLICATION_PROTOCOL_DEFINITION ( 'draft international standard', 'automotive_design', 1998, #130 ) ;
#40 = DIRECTION ( 'NONE',  ( -8.164311994315692567E-17, 1.000000000000000000, -0.000000000000000000 ) ) ;
#41 = PRESENTATION_LAYER_ASSIGNMENT (  '', '', ( #111 ) ) ;
#42 = DIMENSIONAL_EXPONENTS ( 1.000000000000000000, 0.000000000000000000, 0.000000000000000000, 0.000000000000000000, 0.000000000000000000, 0.000000000000000000, 0.000000000000000000 ) ;
#43 = DIRECTION ( 'NONE',  ( -0.000000000000000000, -1.000000000000000000, -0.000000000000000000 ) ) ;
#44 = AXIS2_PLACEMENT_3D ( 'NONE', #193, #122, #289 ) ;
#45 =( GEOMETRIC_REPRESENTATION_CONTEXT ( 3 ) GLOBAL_UNCERTAINTY_ASSIGNED_CONTEXT ( ( #16 ) ) GLOBAL_UNIT_ASSIGNED_CONTEXT ( ( #64, #254, #90 ) ) REPRESENTATION_CONTEXT ( 'NONE', 'WORKASPACE' ) );
#46 = ADVANCED_FACE ( 'NONE', ( #250 ), #179, .F. ) ;
#47 = CARTESIAN_POINT ( 'NONE',  ( -1.224646799147353700E-16, 3.000000000000000444, 0.000000000000000000 ) ) ;
#48 = DIRECTION ( 'NONE',  ( 0.000000000000000000, -1.000000000000000000, -0.000000000000000000 ) ) ;
#49 = CYLINDRICAL_SURFACE ( 'NONE', #44, 0.1250000000000000000 ) ;
#50 = EDGE_CURVE ( 'NONE', #242, #226, #180, .T. ) ;
#51 = EDGE_LOOP ( 'NONE', ( #26, #302, #105, #269 ) ) ;
#52 = DIRECTION ( 'NONE',  ( -8.164311994315692567E-17, 1.000000000000000000, -0.000000000000000000 ) ) ;
#53 = SURFACE_STYLE_FILL_AREA ( #285 ) ;
#54 = COLOUR_RGB ( '',0.7921568627450980005, 0.8196078431372548767, 0.9333333333333333481 ) ;
#55 = FILL_AREA_STYLE ('',( #82 ) ) ;
#56 = VERTEX_POINT ( 'NONE', #183 ) ;
#57 =( NAMED_UNIT ( * ) SI_UNIT ( $, .STERADIAN. ) SOLID_ANGLE_UNIT ( ) );
#58 = ADVANCED_FACE ( 'NONE', ( #231 ), #283, .T. ) ;
#59 = CYLINDRICAL_SURFACE ( 'NONE', #37, 0.1250000000000000000 ) ;
#60 = CIRCLE ( 'NONE', #140, 0.1250000000000000000 ) ;
#61 =( NAMED_UNIT ( * ) SI_UNIT ( $, .STERADIAN. ) SOLID_ANGLE_UNIT ( ) );
#62 = CARTESIAN_POINT ( 'NONE',  ( 4.165999396282942646E-34, 1.500000000000000222, 0.000000000000000000 ) ) ;
#63 = CARTESIAN_POINT ( 'NONE',  ( 0.000000000000000000, 0.000000000000000000, 0.000000000000000000 ) ) ;
#64 =( CONVERSION_BASED_UNIT ( 'INCH', #246 ) LENGTH_UNIT ( ) NAMED_UNIT ( #160 ) );
#65 = CARTESIAN_POINT ( 'NONE',  ( 0.000000000000000000, 0.000000000000000000, 0.000000000000000000 ) ) ;
#66 = CARTESIAN_POINT ( 'NONE',  ( 0.1250000000000000000, 1.500000000000000222, 1.530808498934192742E-17 ) ) ;
#67 = DIMENSIONAL_EXPONENTS ( 1.000000000000000000, 0.000000000000000000, 0.000000000000000000, 0.000000000000000000, 0.000000000000000000, 0.000000000000000000, 0.000000000000000000 ) ;
#68 =( GEOMETRIC_REPRESENTATION_CONTEXT ( 3 ) GLOBAL_UNCERTAINTY_ASSIGNED_CONTEXT ( ( #237 ) ) GLOBAL_UNIT_ASSIGNED_CONTEXT ( ( #2, #73, #5 ) ) REPRESENTATION_CONTEXT ( 'NONE', 'WORKASPACE' ) );
#69 = CARTESIAN_POINT ( 'NONE',  ( -1.224646799147353700E-16, 3.000000000000000444, 0.000000000000000000 ) ) ;
#70 = MECHANICAL_DESIGN_GEOMETRIC_PRESENTATION_REPRESENTATION (  '', ( #274 ), #307 ) ;
#71 = DIRECTION ( 'NONE',  ( -8.164311994315692567E-17, 1.000000000000000000, -0.000000000000000000 ) ) ;
#72 = DIRECTION ( 'NONE',  ( -1.000000000000000000, 0.000000000000000000, 0.000000000000000000 ) ) ;
#73 =( NAMED_UNIT ( * ) PLANE_ANGLE_UNIT ( ) SI_UNIT ( $, .RADIAN. ) );
#74 = CARTESIAN_POINT ( 'NONE',  ( 0.000000000000000000, 0.000000000000000000, -0.1250000000000000000 ) ) ;
#75 =( LENGTH_UNIT ( ) NAMED_UNIT ( * ) SI_UNIT ( $, .METRE. ) );
#76 = VECTOR ( 'NONE', #121, 39.37007874015748143 ) ;
#77 =( GEOMETRIC_REPRESENTATION_CONTEXT ( 3 ) GLOBAL_UNCERTAINTY_ASSIGNED_CONTEXT ( ( #102 ) ) GLOBAL_UNIT_ASSIGNED_CONTEXT ( ( #18, #84, #192 ) ) REPRESENTATION_CONTEXT ( 'NONE', 'WORKASPACE' ) );
#78 = FACE_OUTER_BOUND ( 'NONE', #118, .T. ) ;
#79 = CIRCLE ( 'NONE', #22, 0.1250000000000000000 ) ;
#80 = DIRECTION ( 'NONE',  ( -1.000000000000000000, -8.164311994315692567E-17, 0.000000000000000000 ) ) ;
#81 = FILL_AREA_STYLE_COLOUR ( '', #30 ) ;
#82 = FILL_AREA_STYLE_COLOUR ( '', #187 ) ;
#83 = FILL_AREA_STYLE ('',( #34 ) ) ;
#84 =( NAMED_UNIT ( * ) PLANE_ANGLE_UNIT ( ) SI_UNIT ( $, .RADIAN. ) );
#85 = LENGTH_MEASURE_WITH_UNIT ( LENGTH_MEASURE( 0.02539999999999999897 ), #232 );
#86 = ORIENTED_EDGE ( 'NONE', *, *, #292, .T. ) ;
#87 = DIRECTION ( 'NONE',  ( 0.000000000000000000, 0.000000000000000000, -1.000000000000000000 ) ) ;
#88 = AXIS2_PLACEMENT_3D ( 'NONE', #266, #219, #295 ) ;
#89 = DIRECTION ( 'NONE',  ( -1.000000000000000000, 0.000000000000000000, 0.000000000000000000 ) ) ;
#90 =( NAMED_UNIT ( * ) SI_UNIT ( $, .STERADIAN. ) SOLID_ANGLE_UNIT ( ) );
#91 = CARTESIAN_POINT ( 'NONE',  ( -1.224646799147353700E-16, 3.000000000000000444, 0.000000000000000000 ) ) ;
#92 = PRODUCT_CONTEXT ( 'NONE', #175, 'mechanical' ) ;
#93 = AXIS2_PLACEMENT_3D ( 'NONE', #91, #71, #89 ) ;
#94 = STYLED_ITEM ( 'NONE', ( #157 ), #275 ) ;
#95 = PRESENTATION_STYLE_ASSIGNMENT (( #199 ) ) ;
#96 = PLANE ( 'NONE',  #154 ) ;
#97 = EDGE_LOOP ( 'NONE', ( #272, #204 ) ) ;
#98 = FACE_OUTER_BOUND ( 'NONE', #51, .T. ) ;
#99 = ADVANCED_BREP_SHAPE_REPRESENTATION ( '81404', ( #249, #148, #241 ), #45 ) ;
#100 = ADVANCED_FACE ( 'NONE', ( #78 ), #49, .T. ) ;
#101 = VERTEX_POINT ( 'NONE', #309 ) ;
#102 = UNCERTAINTY_MEASURE_WITH_UNIT (LENGTH_MEASURE( 1.000000000000000082E-05 ), #18, 'distance_accuracy_value', 'NONE');
#103 = SURFACE_SIDE_STYLE ('',( #224 ) ) ;
#104 =( NAMED_UNIT ( * ) PLANE_ANGLE_UNIT ( ) SI_UNIT ( $, .RADIAN. ) );
#105 = ORIENTED_EDGE ( 'NONE', *, *, #267, .T. ) ;
#106 = DIRECTION ( 'NONE',  ( -0.000000000000000000, -1.000000000000000000, -0.000000000000000000 ) ) ;
#107 = ADVANCED_FACE ( 'NONE', ( #28 ), #124, .T. ) ;
#108 = ORIENTED_EDGE ( 'NONE', *, *, #292, .F. ) ;
#109 = SURFACE_SIDE_STYLE ('',( #273 ) ) ;
#110 = DIRECTION ( 'NONE',  ( 0.000000000000000000, 0.000000000000000000, 1.000000000000000000 ) ) ;
#111 = STYLED_ITEM ( 'NONE', ( #95 ), #107 ) ;
#112 = PRODUCT_DEFINITION_CONTEXT ( 'detailed design', #130, 'design' ) ;
#113 = CYLINDRICAL_SURFACE ( 'NONE', #93, 0.1250000000000000555 ) ;
#114 = EDGE_CURVE ( 'NONE', #101, #171, #202, .T. ) ;
#115 = MECHANICAL_DESIGN_GEOMETRIC_PRESENTATION_REPRESENTATION (  '', ( #252 ), #194 ) ;
#116 = FACE_OUTER_BOUND ( 'NONE', #264, .T. ) ;
#117 = PRODUCT_RELATED_PRODUCT_CATEGORY ( 'part', '', ( #151 ) ) ;
#118 = EDGE_LOOP ( 'NONE', ( #270, #1, #132, #206 ) ) ;
#119 = CARTESIAN_POINT ( 'NONE',  ( 1.516480271171051896E-32, 1.500000000000000222, 0.000000000000000000 ) ) ;
#120 = AXIS2_PLACEMENT_3D ( 'NONE', #29, #127, #7 ) ;
#121 = DIRECTION ( 'NONE',  ( -8.164311994315692567E-17, 1.000000000000000000, -0.000000000000000000 ) ) ;
#122 = DIRECTION ( 'NONE',  ( -0.000000000000000000, -1.000000000000000000, -0.000000000000000000 ) ) ;
#123 = UNCERTAINTY_MEASURE_WITH_UNIT (LENGTH_MEASURE( 1.000000000000000082E-05 ), #217, 'distance_accuracy_value', 'NONE');
#124 = PLANE ( 'NONE',  #88 ) ;
#125 = ADVANCED_FACE ( 'NONE', ( #188 ), #297, .T. ) ;
#126 = PRODUCT_DEFINITION_SHAPE ( 'NONE', 'NONE',  #33 ) ;
#127 = DIRECTION ( 'NONE',  ( -0.000000000000000000, -1.000000000000000000, -0.000000000000000000 ) ) ;
#128 = LENGTH_MEASURE_WITH_UNIT ( LENGTH_MEASURE( 0.02539999999999999897 ), #75 );
#129 = PRESENTATION_LAYER_ASSIGNMENT (  '', '', ( #260 ) ) ;
#130 = APPLICATION_CONTEXT ( 'automotive_design' ) ;
#131 = PRESENTATION_STYLE_ASSIGNMENT (( #178 ) ) ;
#132 = ORIENTED_EDGE ( 'NONE', *, *, #197, .F. ) ;
#133 = CARTESIAN_POINT ( 'NONE',  ( 0.000000000000000000, 0.000000000000000000, -0.1250000000000000000 ) ) ;
#134 = CIRCLE ( 'NONE', #163, 0.1250000000000000000 ) ;
#135 = CARTESIAN_POINT ( 'NONE',  ( 1.530808498934191509E-17, 0.000000000000000000, 0.1250000000000000000 ) ) ;
#136 =( LENGTH_UNIT ( ) NAMED_UNIT ( * ) SI_UNIT ( $, .METRE. ) );
#137 = LINE ( 'NONE', #259, #263 ) ;
#138 = AXIS2_PLACEMENT_3D ( 'NONE', #47, #287, #143 ) ;
#139 = CARTESIAN_POINT ( 'NONE',  ( 1.516480271171051896E-32, 1.500000000000000222, 0.000000000000000000 ) ) ;
#140 = AXIS2_PLACEMENT_3D ( 'NONE', #12, #200, #87 ) ;
#141 = EDGE_CURVE ( 'NONE', #56, #101, #239, .T. ) ;
#142 = ORIENTED_EDGE ( 'NONE', *, *, #197, .T. ) ;
#143 = DIRECTION ( 'NONE',  ( -1.000000000000000000, 0.000000000000000000, 0.000000000000000000 ) ) ;
#144 = DIRECTION ( 'NONE',  ( 0.000000000000000000, 0.000000000000000000, -1.000000000000000000 ) ) ;
#145 =( LENGTH_UNIT ( ) NAMED_UNIT ( * ) SI_UNIT ( $, .METRE. ) );
#146 = FILL_AREA_STYLE ('',( #168 ) ) ;
#147 = CLOSED_SHELL ( 'NONE', ( #100, #107, #275, #125 ) ) ;
#148 = MANIFOLD_SOLID_BREP ( 'Revolve - Tool Body (Straight Shanked)', #290 ) ;
#149 = SURFACE_STYLE_FILL_AREA ( #55 ) ;
#150 = ORIENTED_EDGE ( 'NONE', *, *, #248, .T. ) ;
#151 = PRODUCT ( '81404', '81404', '', ( #92 ) ) ;
#152 = EDGE_LOOP ( 'NONE', ( #245, #86, #218, #31 ) ) ;
#153 =( LENGTH_UNIT ( ) NAMED_UNIT ( * ) SI_UNIT ( $, .METRE. ) );
#154 = AXIS2_PLACEMENT_3D ( 'NONE', #282, #233, #21 ) ;
#155 = VECTOR ( 'NONE', #229, 39.37007874015748143 ) ;
#156 = VERTEX_POINT ( 'NONE', #66 ) ;
#157 = PRESENTATION_STYLE_ASSIGNMENT (( #205 ) ) ;
#158 = DIRECTION ( 'NONE',  ( 0.000000000000000000, 0.000000000000000000, -1.000000000000000000 ) ) ;
#159 = ADVANCED_FACE ( 'NONE', ( #305 ), #96, .F. ) ;
#160 = DIMENSIONAL_EXPONENTS ( 1.000000000000000000, 0.000000000000000000, 0.000000000000000000, 0.000000000000000000, 0.000000000000000000, 0.000000000000000000, 0.000000000000000000 ) ;
#161 = CARTESIAN_POINT ( 'NONE',  ( 0.1250000000000000000, 3.000000000000000444, 1.530808498934192742E-17 ) ) ;
#162 =( LENGTH_UNIT ( ) NAMED_UNIT ( * ) SI_UNIT ( $, .METRE. ) );
#163 = AXIS2_PLACEMENT_3D ( 'NONE', #139, #40, #182 ) ;
#164 = DIRECTION ( 'NONE',  ( -8.164311994315692567E-17, 1.000000000000000000, -0.000000000000000000 ) ) ;
#165 = DIRECTION ( 'NONE',  ( -0.000000000000000000, -1.000000000000000000, -0.000000000000000000 ) ) ;
#166 = CARTESIAN_POINT ( 'NONE',  ( 0.000000000000000000, 1.500000000000000222, -0.1250000000000000000 ) ) ;
#167 = EDGE_CURVE ( 'NONE', #171, #101, #176, .T. ) ;
#168 = FILL_AREA_STYLE_COLOUR ( '', #25 ) ;
#169 = SURFACE_STYLE_USAGE ( .BOTH. , #244 ) ;
#170 = ADVANCED_FACE ( 'NONE', ( #116 ), #113, .T. ) ;
#171 = VERTEX_POINT ( 'NONE', #161 ) ;
#172 = STYLED_ITEM ( 'NONE', ( #268 ), #100 ) ;
#173 = VECTOR ( 'NONE', #251, 39.37007874015748143 ) ;
#174 =( NAMED_UNIT ( * ) SI_UNIT ( $, .STERADIAN. ) SOLID_ANGLE_UNIT ( ) );
#175 = APPLICATION_CONTEXT ( 'automotive_design' ) ;
#176 = CIRCLE ( 'NONE', #209, 0.1250000000000001110 ) ;
#177 = PRODUCT_DEFINITION_FORMATION_WITH_SPECIFIED_SOURCE ( 'ANY', '', #151, .NOT_KNOWN. ) ;
#178 = SURFACE_STYLE_USAGE ( .BOTH. , #286 ) ;
#179 = PLANE ( 'NONE',  #19 ) ;
#180 = CIRCLE ( 'NONE', #120, 0.1250000000000000000 ) ;
#181 = CARTESIAN_POINT ( 'NONE',  ( -1.224646799147353700E-16, 3.000000000000000444, 0.000000000000000000 ) ) ;
#182 = DIRECTION ( 'NONE',  ( -1.000000000000000000, 0.000000000000000000, 0.000000000000000000 ) ) ;
#183 = CARTESIAN_POINT ( 'NONE',  ( -0.1250000000000000000, 1.500000000000000222, 0.000000000000000000 ) ) ;
#184 = DIMENSIONAL_EXPONENTS ( 1.000000000000000000, 0.000000000000000000, 0.000000000000000000, 0.000000000000000000, 0.000000000000000000, 0.000000000000000000, 0.000000000000000000 ) ;
#185 = AXIS2_PLACEMENT_3D ( 'NONE', #119, #52, #72 ) ;
#186 = DIRECTION ( 'NONE',  ( 0.000000000000000000, 0.000000000000000000, -1.000000000000000000 ) ) ;
#187 = COLOUR_RGB ( '',1.000000000000000000, 0.000000000000000000, 0.000000000000000000 ) ;
#188 = FACE_OUTER_BOUND ( 'NONE', #293, .T. ) ;
#189 = FILL_AREA_STYLE_COLOUR ( '', #54 ) ;
#190 = SURFACE_SIDE_STYLE ('',( #149 ) ) ;
#191 = SURFACE_STYLE_FILL_AREA ( #146 ) ;
#192 =( NAMED_UNIT ( * ) SI_UNIT ( $, .STERADIAN. ) SOLID_ANGLE_UNIT ( ) );
#193 = CARTESIAN_POINT ( 'NONE',  ( 0.000000000000000000, 0.000000000000000000, 0.000000000000000000 ) ) ;
#194 =( GEOMETRIC_REPRESENTATION_CONTEXT ( 3 ) GLOBAL_UNCERTAINTY_ASSIGNED_CONTEXT ( ( #235 ) ) GLOBAL_UNIT_ASSIGNED_CONTEXT ( ( #277, #280, #214 ) ) REPRESENTATION_CONTEXT ( 'NONE', 'WORKASPACE' ) );
#195 = ORIENTED_EDGE ( 'NONE', *, *, #50, .F. ) ;
#196 = LINE ( 'NONE', #133, #155 ) ;
#197 = EDGE_CURVE ( 'NONE', #247, #4, #238, .T. ) ;
#198 = SURFACE_STYLE_FILL_AREA ( #265 ) ;
#199 = SURFACE_STYLE_USAGE ( .BOTH. , #103 ) ;
#200 = DIRECTION ( 'NONE',  ( -0.000000000000000000, -1.000000000000000000, -0.000000000000000000 ) ) ;
#201 = DIRECTION ( 'NONE',  ( 0.000000000000000000, 0.000000000000000000, -1.000000000000000000 ) ) ;
#202 = CIRCLE ( 'NONE', #138, 0.1250000000000001110 ) ;
#203 = COLOUR_RGB ( '',1.000000000000000000, 0.000000000000000000, 0.000000000000000000 ) ;
#204 = ORIENTED_EDGE ( 'NONE', *, *, #248, .F. ) ;
#205 = SURFACE_STYLE_USAGE ( .BOTH. , #109 ) ;
#206 = ORIENTED_EDGE ( 'NONE', *, *, #267, .F. ) ;
#207 = CARTESIAN_POINT ( 'NONE',  ( 0.000000000000000000, 1.500000000000000222, 0.000000000000000000 ) ) ;
#208 = DIMENSIONAL_EXPONENTS ( 1.000000000000000000, 0.000000000000000000, 0.000000000000000000, 0.000000000000000000, 0.000000000000000000, 0.000000000000000000, 0.000000000000000000 ) ;
#209 = AXIS2_PLACEMENT_3D ( 'NONE', #69, #164, #20 ) ;
#210 = DIRECTION ( 'NONE',  ( -8.164311994315692567E-17, 1.000000000000000000, -0.000000000000000000 ) ) ;
#211 = MECHANICAL_DESIGN_GEOMETRIC_PRESENTATION_REPRESENTATION (  '', ( #260 ), #68 ) ;
#212 = CARTESIAN_POINT ( 'NONE',  ( 0.000000000000000000, 0.000000000000000000, 0.000000000000000000 ) ) ;
#213 = EDGE_CURVE ( 'NONE', #242, #4, #137, .T. ) ;
#214 =( NAMED_UNIT ( * ) SI_UNIT ( $, .STERADIAN. ) SOLID_ANGLE_UNIT ( ) );
#215 = FILL_AREA_STYLE ('',( #32 ) ) ;
#216 = MECHANICAL_DESIGN_GEOMETRIC_PRESENTATION_REPRESENTATION (  '', ( #94 ), #253 ) ;
#217 =( CONVERSION_BASED_UNIT ( 'INCH', #262 ) LENGTH_UNIT ( ) NAMED_UNIT ( #278 ) );
#218 = ORIENTED_EDGE ( 'NONE', *, *, #114, .F. ) ;
#219 = DIRECTION ( 'NONE',  ( 0.000000000000000000, 1.000000000000000000, 0.000000000000000000 ) ) ;
#220 = COLOUR_RGB ( '',1.000000000000000000, 0.000000000000000000, 0.000000000000000000 ) ;
#221 = ORIENTED_EDGE ( 'NONE', *, *, #114, .T. ) ;
#222 =( NAMED_UNIT ( * ) PLANE_ANGLE_UNIT ( ) SI_UNIT ( $, .RADIAN. ) );
#223 = CIRCLE ( 'NONE', #185, 0.1250000000000000000 ) ;
#224 = SURFACE_STYLE_FILL_AREA ( #215 ) ;
#225 = EDGE_LOOP ( 'NONE', ( #298, #195 ) ) ;
#226 = VERTEX_POINT ( 'NONE', #166 ) ;
#227 = CARTESIAN_POINT ( 'NONE',  ( 0.1249999999999999445, 3.000000000000000444, 1.530808498934192125E-17 ) ) ;
#228 = EDGE_CURVE ( 'NONE', #56, #156, #134, .T. ) ;
#229 = DIRECTION ( 'NONE',  ( -0.000000000000000000, -1.000000000000000000, -0.000000000000000000 ) ) ;
#230 = SURFACE_SIDE_STYLE ('',( #53 ) ) ;
#231 = FACE_OUTER_BOUND ( 'NONE', #152, .T. ) ;
#232 =( LENGTH_UNIT ( ) NAMED_UNIT ( * ) SI_UNIT ( $, .METRE. ) );
#233 = DIRECTION ( 'NONE',  ( 8.164311994315692567E-17, -1.000000000000000000, 0.000000000000000000 ) ) ;
#234 = AXIS2_PLACEMENT_3D ( 'NONE', #212, #165, #186 ) ;
#235 = UNCERTAINTY_MEASURE_WITH_UNIT (LENGTH_MEASURE( 1.000000000000000082E-05 ), #277, 'distance_accuracy_value', 'NONE');
#236 = LENGTH_MEASURE_WITH_UNIT ( LENGTH_MEASURE( 0.02539999999999999897 ), #162 );
#237 = UNCERTAINTY_MEASURE_WITH_UNIT (LENGTH_MEASURE( 1.000000000000000082E-05 ), #2, 'distance_accuracy_value', 'NONE');
#238 = CIRCLE ( 'NONE', #234, 0.1250000000000000000 ) ;
#239 = LINE ( 'NONE', #23, #76 ) ;
#240 = MECHANICAL_DESIGN_GEOMETRIC_PRESENTATION_REPRESENTATION (  '', ( #111 ), #77 ) ;
#241 = AXIS2_PLACEMENT_3D ( 'NONE', #65, #110, #279 ) ;
#242 = VERTEX_POINT ( 'NONE', #294 ) ;
#243 =( NAMED_UNIT ( * ) PLANE_ANGLE_UNIT ( ) SI_UNIT ( $, .RADIAN. ) );
#244 = SURFACE_SIDE_STYLE ('',( #198 ) ) ;
#245 = ORIENTED_EDGE ( 'NONE', *, *, #228, .T. ) ;
#246 = LENGTH_MEASURE_WITH_UNIT ( LENGTH_MEASURE( 0.02539999999999999897 ), #301 );
#247 = VERTEX_POINT ( 'NONE', #74 ) ;
#248 = EDGE_CURVE ( 'NONE', #156, #56, #223, .T. ) ;
#249 = MANIFOLD_SOLID_BREP ( 'Revolve - Cutting Edge', #147 ) ;
#250 = FACE_OUTER_BOUND ( 'NONE', #97, .T. ) ;
#251 = DIRECTION ( 'NONE',  ( -8.164311994315692567E-17, 1.000000000000000000, -0.000000000000000000 ) ) ;
#252 = STYLED_ITEM ( 'NONE', ( #271 ), #148 ) ;
#253 =( GEOMETRIC_REPRESENTATION_CONTEXT ( 3 ) GLOBAL_UNCERTAINTY_ASSIGNED_CONTEXT ( ( #276 ) ) GLOBAL_UNIT_ASSIGNED_CONTEXT ( ( #13, #222, #174 ) ) REPRESENTATION_CONTEXT ( 'NONE', 'WORKASPACE' ) );
#254 =( NAMED_UNIT ( * ) PLANE_ANGLE_UNIT ( ) SI_UNIT ( $, .RADIAN. ) );
#255 = DIRECTION ( 'NONE',  ( -1.000000000000000000, 0.000000000000000000, 0.000000000000000000 ) ) ;
#256 = APPLICATION_PROTOCOL_DEFINITION ( 'draft international standard', 'automotive_design', 1998, #175 ) ;
#257 =( GEOMETRIC_REPRESENTATION_CONTEXT ( 3 ) GLOBAL_UNCERTAINTY_ASSIGNED_CONTEXT ( ( #123 ) ) GLOBAL_UNIT_ASSIGNED_CONTEXT ( ( #217, #243, #57 ) ) REPRESENTATION_CONTEXT ( 'NONE', 'WORKASPACE' ) );
#258 = SHAPE_DEFINITION_REPRESENTATION ( #126, #99 ) ;
#259 = CARTESIAN_POINT ( 'NONE',  ( 1.530808498934191509E-17, 0.000000000000000000, 0.1250000000000000000 ) ) ;
#260 = STYLED_ITEM ( 'NONE', ( #284 ), #125 ) ;
#261 = CARTESIAN_POINT ( 'NONE',  ( 0.000000000000000000, 0.000000000000000000, 0.000000000000000000 ) ) ;
#262 = LENGTH_MEASURE_WITH_UNIT ( LENGTH_MEASURE( 0.02539999999999999897 ), #145 );
#263 = VECTOR ( 'NONE', #43, 39.37007874015748143 ) ;
#264 = EDGE_LOOP ( 'NONE', ( #108, #150, #10, #35 ) ) ;
#265 = FILL_AREA_STYLE ('',( #81 ) ) ;
#266 = CARTESIAN_POINT ( 'NONE',  ( 0.000000000000000000, 1.500000000000000222, 0.000000000000000000 ) ) ;
#267 = EDGE_CURVE ( 'NONE', #226, #247, #196, .T. ) ;
#268 = PRESENTATION_STYLE_ASSIGNMENT (( #9 ) ) ;
#269 = ORIENTED_EDGE ( 'NONE', *, *, #3, .F. ) ;
#270 = ORIENTED_EDGE ( 'NONE', *, *, #304, .T. ) ;
#271 = PRESENTATION_STYLE_ASSIGNMENT (( #38 ) ) ;
#272 = ORIENTED_EDGE ( 'NONE', *, *, #228, .F. ) ;
#273 = SURFACE_STYLE_FILL_AREA ( #83 ) ;
#274 = STYLED_ITEM ( 'NONE', ( #131 ), #249 ) ;
#275 = ADVANCED_FACE ( 'NONE', ( #98 ), #59, .T. ) ;
#276 = UNCERTAINTY_MEASURE_WITH_UNIT (LENGTH_MEASURE( 1.000000000000000082E-05 ), #13, 'distance_accuracy_value', 'NONE');
#277 =( CONVERSION_BASED_UNIT ( 'INCH', #236 ) LENGTH_UNIT ( ) NAMED_UNIT ( #67 ) );
#278 = DIMENSIONAL_EXPONENTS ( 1.000000000000000000, 0.000000000000000000, 0.000000000000000000, 0.000000000000000000, 0.000000000000000000, 0.000000000000000000, 0.000000000000000000 ) ;
#279 = DIRECTION ( 'NONE',  ( 1.000000000000000000, 0.000000000000000000, 0.000000000000000000 ) ) ;
#280 =( NAMED_UNIT ( * ) PLANE_ANGLE_UNIT ( ) SI_UNIT ( $, .RADIAN. ) );
#281 = PRESENTATION_LAYER_ASSIGNMENT (  '', '', ( #172 ) ) ;
#282 = CARTESIAN_POINT ( 'NONE',  ( 0.1250000000000000000, 3.000000000000000444, 0.000000000000000000 ) ) ;
#283 = CYLINDRICAL_SURFACE ( 'NONE', #24, 0.1250000000000000555 ) ;
#284 = PRESENTATION_STYLE_ASSIGNMENT (( #169 ) ) ;
#285 = FILL_AREA_STYLE ('',( #189 ) ) ;
#286 = SURFACE_SIDE_STYLE ('',( #191 ) ) ;
#287 = DIRECTION ( 'NONE',  ( -8.164311994315692567E-17, 1.000000000000000000, -0.000000000000000000 ) ) ;
#288 = UNCERTAINTY_MEASURE_WITH_UNIT (LENGTH_MEASURE( 1.000000000000000082E-05 ), #296, 'distance_accuracy_value', 'NONE');
#289 = DIRECTION ( 'NONE',  ( 0.000000000000000000, 0.000000000000000000, -1.000000000000000000 ) ) ;
#290 = CLOSED_SHELL ( 'NONE', ( #58, #46, #170, #159 ) ) ;
#291 = PRESENTATION_LAYER_ASSIGNMENT (  '', '', ( #274 ) ) ;
#292 = EDGE_CURVE ( 'NONE', #156, #171, #11, .T. ) ;
#293 = EDGE_LOOP ( 'NONE', ( #142, #27 ) ) ;
#294 = CARTESIAN_POINT ( 'NONE',  ( 1.530808498934191509E-17, 1.500000000000000222, 0.1250000000000000000 ) ) ;
#295 = DIRECTION ( 'NONE',  ( 0.000000000000000000, -0.000000000000000000, 1.000000000000000000 ) ) ;
#296 =( CONVERSION_BASED_UNIT ( 'INCH', #15 ) LENGTH_UNIT ( ) NAMED_UNIT ( #184 ) );
#297 = PLANE ( 'NONE',  #14 ) ;
#298 = ORIENTED_EDGE ( 'NONE', *, *, #304, .F. ) ;
#299 = DIRECTION ( 'NONE',  ( -0.000000000000000000, -1.000000000000000000, -0.000000000000000000 ) ) ;
#300 = EDGE_LOOP ( 'NONE', ( #221, #17 ) ) ;
#301 =( LENGTH_UNIT ( ) NAMED_UNIT ( * ) SI_UNIT ( $, .METRE. ) );
#302 = ORIENTED_EDGE ( 'NONE', *, *, #50, .T. ) ;
#303 = DIMENSIONAL_EXPONENTS ( 1.000000000000000000, 0.000000000000000000, 0.000000000000000000, 0.000000000000000000, 0.000000000000000000, 0.000000000000000000, 0.000000000000000000 ) ;
#304 = EDGE_CURVE ( 'NONE', #226, #242, #79, .T. ) ;
#305 = FACE_OUTER_BOUND ( 'NONE', #300, .T. ) ;
#306 = MECHANICAL_DESIGN_GEOMETRIC_PRESENTATION_REPRESENTATION (  '', ( #172 ), #257 ) ;
#307 =( GEOMETRIC_REPRESENTATION_CONTEXT ( 3 ) GLOBAL_UNCERTAINTY_ASSIGNED_CONTEXT ( ( #288 ) ) GLOBAL_UNIT_ASSIGNED_CONTEXT ( ( #296, #104, #61 ) ) REPRESENTATION_CONTEXT ( 'NONE', 'WORKASPACE' ) );
#308 = PRESENTATION_LAYER_ASSIGNMENT (  '', '', ( #252 ) ) ;
#309 = CARTESIAN_POINT ( 'NONE',  ( -0.1250000000000002498, 3.000000000000000444, 0.000000000000000000 ) ) ;
ENDSEC;
END-ISO-10303-21;
