ISO-10303-21;
HEADER;
FILE_DESCRIPTION (( 'STEP AP214' ),
    '1' );
FILE_NAME ('59663.STEP',
    '2023-07-24T15:21:08',
    ( '' ),
    ( '' ),
    'SwSTEP 2.0',
    'SolidWorks 2023',
    '' );
FILE_SCHEMA (( 'AUTOMOTIVE_DESIGN' ));
ENDSEC;

DATA;
#1 = ADVANCED_FACE ( 'NONE', ( #61 ), #366, .T. ) ;
#2 = EDGE_LOOP ( 'NONE', ( #273, #209, #316, #156 ) ) ;
#3 = FACE_OUTER_BOUND ( 'NONE', #370, .T. ) ;
#4 = CLOSED_SHELL ( 'NONE', ( #118, #1, #25, #203, #186, #159 ) ) ;
#5 = CIRCLE ( 'NONE', #295, 8.000000000000000000 ) ;
#6 = SURFACE_STYLE_USAGE ( .BOTH. , #275 ) ;
#7 = CARTESIAN_POINT ( 'NONE',  ( 0.000000000000000000, 32.00000000000000000, 0.000000000000000000 ) ) ;
#8 = VERTEX_POINT ( 'NONE', #242 ) ;
#9 =( NAMED_UNIT ( * ) SI_UNIT ( $, .STERADIAN. ) SOLID_ANGLE_UNIT ( ) );
#10 = ORIENTED_EDGE ( 'NONE', *, *, #195, .T. ) ;
#11 = AXIS2_PLACEMENT_3D ( 'NONE', #184, #298, #272 ) ;
#12 = VERTEX_POINT ( 'NONE', #79 ) ;
#13 = MECHANICAL_DESIGN_GEOMETRIC_PRESENTATION_REPRESENTATION (  '', ( #36 ), #244 ) ;
#14 = DIRECTION ( 'NONE',  ( 0.000000000000000000, -0.000000000000000000, 1.000000000000000000 ) ) ;
#15 = CARTESIAN_POINT ( 'NONE',  ( 9.797174393178825657E-16, 32.00000000000000000, 8.000000000000000000 ) ) ;
#16 = DIRECTION ( 'NONE',  ( -0.000000000000000000, -1.000000000000000000, -0.000000000000000000 ) ) ;
#17 = STYLED_ITEM ( 'NONE', ( #215 ), #1 ) ;
#18 = DIRECTION ( 'NONE',  ( -1.213802797673107944E-16, 1.000000000000000000, -0.000000000000000000 ) ) ;
#19 = COLOUR_RGB ( '',0.7921568627450980005, 0.8196078431372548767, 0.9333333333333333481 ) ;
#20 = VECTOR ( 'NONE', #16, 1000.000000000000000 ) ;
#21 = APPLICATION_PROTOCOL_DEFINITION ( 'draft international standard', 'automotive_design', 1998, #286 ) ;
#22 = DIRECTION ( 'NONE',  ( 0.000000000000000000, -1.000000000000000000, -0.000000000000000000 ) ) ;
#23 = DIRECTION ( 'NONE',  ( 1.000000000000000000, 1.213802797673107944E-16, 0.000000000000000000 ) ) ;
#24 = CARTESIAN_POINT ( 'NONE',  ( -1.714505518806293849E-15, 89.00000000000000000, 0.000000000000000000 ) ) ;
#25 = ADVANCED_FACE ( 'NONE', ( #43 ), #308, .T. ) ;
#26 =( LENGTH_UNIT ( ) NAMED_UNIT ( * ) SI_UNIT ( .MILLI., .METRE. ) );
#27 = MANIFOLD_SOLID_BREP ( 'Revolve - Cutting Edge', #4 ) ;
#28 = ORIENTED_EDGE ( 'NONE', *, *, #220, .F. ) ;
#29 = EDGE_CURVE ( 'NONE', #39, #123, #72, .T. ) ;
#30 = AXIS2_PLACEMENT_3D ( 'NONE', #304, #125, #68 ) ;
#31 = UNCERTAINTY_MEASURE_WITH_UNIT (LENGTH_MEASURE( 1.000000000000000082E-05 ), #103, 'distance_accuracy_value', 'NONE');
#32 = VERTEX_POINT ( 'NONE', #303 ) ;
#33 = SURFACE_STYLE_USAGE ( .BOTH. , #360 ) ;
#34 = FILL_AREA_STYLE_COLOUR ( '', #294 ) ;
#35 = FACE_OUTER_BOUND ( 'NONE', #233, .T. ) ;
#36 = STYLED_ITEM ( 'NONE', ( #64 ), #203 ) ;
#37 = ORIENTED_EDGE ( 'NONE', *, *, #107, .T. ) ;
#38 = DIRECTION ( 'NONE',  ( 0.000000000000000000, 0.000000000000000000, -1.000000000000000000 ) ) ;
#39 = VERTEX_POINT ( 'NONE', #44 ) ;
#40 = PRESENTATION_STYLE_ASSIGNMENT (( #74 ) ) ;
#41 = EDGE_CURVE ( 'NONE', #120, #123, #320, .T. ) ;
#42 = PRESENTATION_LAYER_ASSIGNMENT (  '', '', ( #17 ) ) ;
#43 = FACE_OUTER_BOUND ( 'NONE', #87, .T. ) ;
#44 = CARTESIAN_POINT ( 'NONE',  ( 8.000000000000000000, 32.00000000000000000, 9.797174393178825657E-16 ) ) ;
#45 = LINE ( 'NONE', #139, #81 ) ;
#46 =( NAMED_UNIT ( * ) PLANE_ANGLE_UNIT ( ) SI_UNIT ( $, .RADIAN. ) );
#47 =( LENGTH_UNIT ( ) NAMED_UNIT ( * ) SI_UNIT ( .MILLI., .METRE. ) );
#48 = AXIS2_PLACEMENT_3D ( 'NONE', #292, #101, #219 ) ;
#49 = CARTESIAN_POINT ( 'NONE',  ( 5.204170427930421283E-15, 32.00000000000000000, 0.000000000000000000 ) ) ;
#50 = TOROIDAL_SURFACE ( 'NONE', #223, 7.500000000000000000, 0.5000000000000002220 ) ;
#51 = DIRECTION ( 'NONE',  ( -0.000000000000000000, -1.000000000000000000, -0.000000000000000000 ) ) ;
#52 = SURFACE_STYLE_USAGE ( .BOTH. , #168 ) ;
#53 = SHAPE_DEFINITION_REPRESENTATION ( #257, #154 ) ;
#54 = STYLED_ITEM ( 'NONE', ( #332 ), #27 ) ;
#55 = COLOUR_RGB ( '',0.7921568627450980005, 0.8196078431372548767, 0.9333333333333333481 ) ;
#56 = SURFACE_STYLE_FILL_AREA ( #86 ) ;
#57 = EDGE_LOOP ( 'NONE', ( #145, #341, #346, #347 ) ) ;
#58 = EDGE_LOOP ( 'NONE', ( #263, #321 ) ) ;
#59 = PRESENTATION_LAYER_ASSIGNMENT (  '', '', ( #302 ) ) ;
#60 = VERTEX_POINT ( 'NONE', #15 ) ;
#61 = FACE_OUTER_BOUND ( 'NONE', #238, .T. ) ;
#62 = DIRECTION ( 'NONE',  ( 0.000000000000000000, 0.000000000000000000, -1.000000000000000000 ) ) ;
#63 = EDGE_CURVE ( 'NONE', #8, #277, #5, .T. ) ;
#64 = PRESENTATION_STYLE_ASSIGNMENT (( #96 ) ) ;
#65 = AXIS2_PLACEMENT_3D ( 'NONE', #75, #134, #253 ) ;
#66 =( NAMED_UNIT ( * ) SI_UNIT ( $, .STERADIAN. ) SOLID_ANGLE_UNIT ( ) );
#67 = ORIENTED_EDGE ( 'NONE', *, *, #173, .T. ) ;
#68 = DIRECTION ( 'NONE',  ( 0.000000000000000000, 0.000000000000000000, -1.000000000000000000 ) ) ;
#69 =( NAMED_UNIT ( * ) PLANE_ANGLE_UNIT ( ) SI_UNIT ( $, .RADIAN. ) );
#70 =( LENGTH_UNIT ( ) NAMED_UNIT ( * ) SI_UNIT ( .MILLI., .METRE. ) );
#71 =( GEOMETRIC_REPRESENTATION_CONTEXT ( 3 ) GLOBAL_UNCERTAINTY_ASSIGNED_CONTEXT ( ( #177 ) ) GLOBAL_UNIT_ASSIGNED_CONTEXT ( ( #70, #301, #9 ) ) REPRESENTATION_CONTEXT ( 'NONE', 'WORKASPACE' ) );
#72 = LINE ( 'NONE', #191, #258 ) ;
#73 = COLOUR_RGB ( '',1.000000000000000000, 0.000000000000000000, 0.000000000000000000 ) ;
#74 = SURFACE_STYLE_USAGE ( .BOTH. , #248 ) ;
#75 = CARTESIAN_POINT ( 'NONE',  ( 0.000000000000000000, 0.000000000000000000, 0.000000000000000000 ) ) ;
#76 = FILL_AREA_STYLE ('',( #351 ) ) ;
#77 =( NAMED_UNIT ( * ) PLANE_ANGLE_UNIT ( ) SI_UNIT ( $, .RADIAN. ) );
#78 = UNCERTAINTY_MEASURE_WITH_UNIT (LENGTH_MEASURE( 1.000000000000000082E-05 ), #197, 'distance_accuracy_value', 'NONE');
#79 = CARTESIAN_POINT ( 'NONE',  ( 0.000000000000000000, 32.00000000000000000, -8.000000000000000000 ) ) ;
#80 = MECHANICAL_DESIGN_GEOMETRIC_PRESENTATION_REPRESENTATION (  '', ( #204 ), #289 ) ;
#81 = VECTOR ( 'NONE', #256, 1000.000000000000000 ) ;
#82 = FILL_AREA_STYLE ('',( #213 ) ) ;
#83 = EDGE_CURVE ( 'NONE', #32, #323, #164, .T. ) ;
#84 = DIRECTION ( 'NONE',  ( 1.000000000000000000, 0.000000000000000000, 0.000000000000000000 ) ) ;
#85 = UNCERTAINTY_MEASURE_WITH_UNIT (LENGTH_MEASURE( 1.000000000000000082E-05 ), #324, 'distance_accuracy_value', 'NONE');
#86 = FILL_AREA_STYLE ('',( #311 ) ) ;
#87 = EDGE_LOOP ( 'NONE', ( #237, #185 ) ) ;
#88 =( GEOMETRIC_REPRESENTATION_CONTEXT ( 3 ) GLOBAL_UNCERTAINTY_ASSIGNED_CONTEXT ( ( #31 ) ) GLOBAL_UNIT_ASSIGNED_CONTEXT ( ( #103, #69, #108 ) ) REPRESENTATION_CONTEXT ( 'NONE', 'WORKASPACE' ) );
#89 = ADVANCED_FACE ( 'NONE', ( #356 ), #331, .F. ) ;
#90 = PRODUCT ( '59663', '59663', '', ( #357 ) ) ;
#91 = ORIENTED_EDGE ( 'NONE', *, *, #343, .F. ) ;
#92 = AXIS2_PLACEMENT_3D ( 'NONE', #158, #274, #127 ) ;
#93 = DIRECTION ( 'NONE',  ( -1.000000000000000000, 0.000000000000000000, 0.000000000000000000 ) ) ;
#94 = ORIENTED_EDGE ( 'NONE', *, *, #195, .F. ) ;
#95 = ORIENTED_EDGE ( 'NONE', *, *, #152, .T. ) ;
#96 = SURFACE_STYLE_USAGE ( .BOTH. , #149 ) ;
#97 = COLOUR_RGB ( '',1.000000000000000000, 0.000000000000000000, 0.000000000000000000 ) ;
#98 =( NAMED_UNIT ( * ) SI_UNIT ( $, .STERADIAN. ) SOLID_ANGLE_UNIT ( ) );
#99 = AXIS2_PLACEMENT_3D ( 'NONE', #49, #166, #283 ) ;
#100 = ADVANCED_FACE ( 'NONE', ( #205 ), #179, .T. ) ;
#101 = DIRECTION ( 'NONE',  ( -0.000000000000000000, -1.000000000000000000, -0.000000000000000000 ) ) ;
#102 = SURFACE_STYLE_FILL_AREA ( #350 ) ;
#103 =( LENGTH_UNIT ( ) NAMED_UNIT ( * ) SI_UNIT ( .MILLI., .METRE. ) );
#104 = CARTESIAN_POINT ( 'NONE',  ( 5.204170427930421283E-15, 32.00000000000000000, 0.000000000000000000 ) ) ;
#105 = COLOUR_RGB ( '',1.000000000000000000, 0.000000000000000000, 0.000000000000000000 ) ;
#106 = FILL_AREA_STYLE ('',( #114 ) ) ;
#107 = EDGE_CURVE ( 'NONE', #12, #60, #278, .T. ) ;
#108 =( NAMED_UNIT ( * ) SI_UNIT ( $, .STERADIAN. ) SOLID_ANGLE_UNIT ( ) );
#109 =( NAMED_UNIT ( * ) PLANE_ANGLE_UNIT ( ) SI_UNIT ( $, .RADIAN. ) );
#110 = FILL_AREA_STYLE ('',( #349 ) ) ;
#111 = MECHANICAL_DESIGN_GEOMETRIC_PRESENTATION_REPRESENTATION (  '', ( #17 ), #163 ) ;
#112 = EDGE_CURVE ( 'NONE', #277, #323, #270, .T. ) ;
#113 = CYLINDRICAL_SURFACE ( 'NONE', #352, 7.999999999999998224 ) ;
#114 = FILL_AREA_STYLE_COLOUR ( '', #55 ) ;
#115 = PRODUCT_DEFINITION_CONTEXT ( 'detailed design', #192, 'design' ) ;
#116 =( NAMED_UNIT ( * ) SI_UNIT ( $, .STERADIAN. ) SOLID_ANGLE_UNIT ( ) );
#117 = PRESENTATION_LAYER_ASSIGNMENT (  '', '', ( #54 ) ) ;
#118 = ADVANCED_FACE ( 'NONE', ( #35 ), #229, .T. ) ;
#119 = ORIENTED_EDGE ( 'NONE', *, *, #220, .T. ) ;
#120 = VERTEX_POINT ( 'NONE', #317 ) ;
#121 = ADVANCED_FACE ( 'NONE', ( #3 ), #336, .F. ) ;
#122 = DIRECTION ( 'NONE',  ( -1.000000000000000000, 0.000000000000000000, 0.000000000000000000 ) ) ;
#123 = VERTEX_POINT ( 'NONE', #363 ) ;
#124 = FACE_OUTER_BOUND ( 'NONE', #2, .T. ) ;
#125 = DIRECTION ( 'NONE',  ( -0.000000000000000000, -1.000000000000000000, -0.000000000000000000 ) ) ;
#126 = ADVANCED_FACE ( 'NONE', ( #267 ), #113, .T. ) ;
#127 = DIRECTION ( 'NONE',  ( -1.224646799147353454E-16, 0.000000000000000000, -1.000000000000000000 ) ) ;
#128 = AXIS2_PLACEMENT_3D ( 'NONE', #326, #319, #14 ) ;
#129 = ORIENTED_EDGE ( 'NONE', *, *, #41, .F. ) ;
#130 = FILL_AREA_STYLE ('',( #190 ) ) ;
#131 = CARTESIAN_POINT ( 'NONE',  ( 0.000000000000000000, 0.5000000000000000000, 0.000000000000000000 ) ) ;
#132 = DIRECTION ( 'NONE',  ( 0.000000000000000000, 0.000000000000000000, -1.000000000000000000 ) ) ;
#133 =( GEOMETRIC_REPRESENTATION_CONTEXT ( 3 ) GLOBAL_UNCERTAINTY_ASSIGNED_CONTEXT ( ( #268 ) ) GLOBAL_UNIT_ASSIGNED_CONTEXT ( ( #136, #46, #189 ) ) REPRESENTATION_CONTEXT ( 'NONE', 'WORKASPACE' ) );
#134 = DIRECTION ( 'NONE',  ( -0.000000000000000000, -1.000000000000000000, -0.000000000000000000 ) ) ;
#135 = CARTESIAN_POINT ( 'NONE',  ( 0.000000000000000000, 0.000000000000000000, 0.000000000000000000 ) ) ;
#136 =( LENGTH_UNIT ( ) NAMED_UNIT ( * ) SI_UNIT ( .MILLI., .METRE. ) );
#137 = DIRECTION ( 'NONE',  ( -0.000000000000000000, -1.000000000000000000, -0.000000000000000000 ) ) ;
#138 = MECHANICAL_DESIGN_GEOMETRIC_PRESENTATION_REPRESENTATION (  '', ( #302 ), #71 ) ;
#139 = CARTESIAN_POINT ( 'NONE',  ( -8.000000000000000000, 89.00000000000000000, 0.000000000000000000 ) ) ;
#140 = DIRECTION ( 'NONE',  ( -1.213802797673107944E-16, 1.000000000000000000, -0.000000000000000000 ) ) ;
#141 = PRESENTATION_STYLE_ASSIGNMENT (( #287 ) ) ;
#142 = PRESENTATION_LAYER_ASSIGNMENT (  '', '', ( #306 ) ) ;
#143 = AXIS2_PLACEMENT_3D ( 'NONE', #285, #137, #62 ) ;
#144 = AXIS2_PLACEMENT_3D ( 'NONE', #335, #309, #84 ) ;
#145 = ORIENTED_EDGE ( 'NONE', *, *, #167, .F. ) ;
#146 = DIRECTION ( 'NONE',  ( -1.213802797673107944E-16, 1.000000000000000000, -0.000000000000000000 ) ) ;
#147 = FILL_AREA_STYLE ('',( #34 ) ) ;
#148 = AXIS2_PLACEMENT_3D ( 'NONE', #259, #264, #170 ) ;
#149 = SURFACE_SIDE_STYLE ('',( #102 ) ) ;
#150 = PRESENTATION_LAYER_ASSIGNMENT (  '', '', ( #271 ) ) ;
#151 = ORIENTED_EDGE ( 'NONE', *, *, #41, .T. ) ;
#152 = EDGE_CURVE ( 'NONE', #39, #344, #367, .T. ) ;
#153 =( NAMED_UNIT ( * ) PLANE_ANGLE_UNIT ( ) SI_UNIT ( $, .RADIAN. ) );
#154 = ADVANCED_BREP_SHAPE_REPRESENTATION ( '59663', ( #27, #276, #144 ), #165 ) ;
#155 = FACE_OUTER_BOUND ( 'NONE', #57, .T. ) ;
#156 = ORIENTED_EDGE ( 'NONE', *, *, #63, .F. ) ;
#157 = FILL_AREA_STYLE_COLOUR ( '', #73 ) ;
#158 = CARTESIAN_POINT ( 'NONE',  ( 9.184850993605147944E-16, 0.5000000000000000000, 7.500000000000000000 ) ) ;
#159 = ADVANCED_FACE ( 'NONE', ( #291 ), #340, .T. ) ;
#160 = CARTESIAN_POINT ( 'NONE',  ( -1.714505518806293652E-15, 89.00000000000000000, 0.000000000000000000 ) ) ;
#161 =( NAMED_UNIT ( * ) SI_UNIT ( $, .STERADIAN. ) SOLID_ANGLE_UNIT ( ) );
#162 = DIRECTION ( 'NONE',  ( -1.213802797673107944E-16, 1.000000000000000000, -0.000000000000000000 ) ) ;
#163 =( GEOMETRIC_REPRESENTATION_CONTEXT ( 3 ) GLOBAL_UNCERTAINTY_ASSIGNED_CONTEXT ( ( #174 ) ) GLOBAL_UNIT_ASSIGNED_CONTEXT ( ( #180, #240, #66 ) ) REPRESENTATION_CONTEXT ( 'NONE', 'WORKASPACE' ) );
#164 = CIRCLE ( 'NONE', #65, 7.500000000000000000 ) ;
#165 =( GEOMETRIC_REPRESENTATION_CONTEXT ( 3 ) GLOBAL_UNCERTAINTY_ASSIGNED_CONTEXT ( ( #198 ) ) GLOBAL_UNIT_ASSIGNED_CONTEXT ( ( #47, #109, #359 ) ) REPRESENTATION_CONTEXT ( 'NONE', 'WORKASPACE' ) );
#166 = DIRECTION ( 'NONE',  ( -1.213802797673107944E-16, 1.000000000000000000, 0.000000000000000000 ) ) ;
#167 = EDGE_CURVE ( 'NONE', #8, #32, #334, .T. ) ;
#168 = SURFACE_SIDE_STYLE ('',( #194 ) ) ;
#169 = DIRECTION ( 'NONE',  ( 0.000000000000000000, 0.000000000000000000, -1.000000000000000000 ) ) ;
#170 = DIRECTION ( 'NONE',  ( 0.000000000000000000, 0.000000000000000000, -1.000000000000000000 ) ) ;
#171 = CIRCLE ( 'NONE', #228, 8.000000000000000000 ) ;
#172 = SURFACE_SIDE_STYLE ('',( #56 ) ) ;
#173 = EDGE_CURVE ( 'NONE', #123, #120, #175, .T. ) ;
#174 = UNCERTAINTY_MEASURE_WITH_UNIT (LENGTH_MEASURE( 1.000000000000000082E-05 ), #180, 'distance_accuracy_value', 'NONE');
#175 = CIRCLE ( 'NONE', #11, 8.000000000000001776 ) ;
#176 = ORIENTED_EDGE ( 'NONE', *, *, #299, .F. ) ;
#177 = UNCERTAINTY_MEASURE_WITH_UNIT (LENGTH_MEASURE( 1.000000000000000082E-05 ), #70, 'distance_accuracy_value', 'NONE');
#178 = ORIENTED_EDGE ( 'NONE', *, *, #152, .F. ) ;
#179 = CYLINDRICAL_SURFACE ( 'NONE', #222, 7.999999999999998224 ) ;
#180 =( LENGTH_UNIT ( ) NAMED_UNIT ( * ) SI_UNIT ( .MILLI., .METRE. ) );
#181 = CLOSED_SHELL ( 'NONE', ( #126, #89, #100, #121 ) ) ;
#182 = MECHANICAL_DESIGN_GEOMETRIC_PRESENTATION_REPRESENTATION (  '', ( #306 ), #133 ) ;
#183 = AXIS2_PLACEMENT_3D ( 'NONE', #104, #328, #239 ) ;
#184 = CARTESIAN_POINT ( 'NONE',  ( -1.714505518806293652E-15, 89.00000000000000000, 0.000000000000000000 ) ) ;
#185 = ORIENTED_EDGE ( 'NONE', *, *, #83, .T. ) ;
#186 = ADVANCED_FACE ( 'NONE', ( #124 ), #241, .T. ) ;
#187 = DIRECTION ( 'NONE',  ( -0.000000000000000000, -1.000000000000000000, -0.000000000000000000 ) ) ;
#188 = ORIENTED_EDGE ( 'NONE', *, *, #236, .T. ) ;
#189 =( NAMED_UNIT ( * ) SI_UNIT ( $, .STERADIAN. ) SOLID_ANGLE_UNIT ( ) );
#190 = FILL_AREA_STYLE_COLOUR ( '', #227 ) ;
#191 = CARTESIAN_POINT ( 'NONE',  ( 7.999999999999996447, 89.00000000000000000, 9.797174393178823685E-16 ) ) ;
#192 = APPLICATION_CONTEXT ( 'automotive_design' ) ;
#193 = CARTESIAN_POINT ( 'NONE',  ( -7.999999999999989342, 32.00000000000000000, 0.000000000000000000 ) ) ;
#194 = SURFACE_STYLE_FILL_AREA ( #76 ) ;
#195 = EDGE_CURVE ( 'NONE', #344, #39, #297, .T. ) ;
#196 = DIRECTION ( 'NONE',  ( -0.000000000000000000, -1.000000000000000000, -0.000000000000000000 ) ) ;
#197 =( LENGTH_UNIT ( ) NAMED_UNIT ( * ) SI_UNIT ( .MILLI., .METRE. ) );
#198 = UNCERTAINTY_MEASURE_WITH_UNIT (LENGTH_MEASURE( 1.000000000000000082E-05 ), #47, 'distance_accuracy_value', 'NONE');
#199 = SURFACE_STYLE_FILL_AREA ( #82 ) ;
#200 = SURFACE_STYLE_USAGE ( .BOTH. , #202 ) ;
#201 = CARTESIAN_POINT ( 'NONE',  ( 8.000000000000000000, 89.00000000000000000, 0.000000000000000000 ) ) ;
#202 = SURFACE_SIDE_STYLE ('',( #224 ) ) ;
#203 = ADVANCED_FACE ( 'NONE', ( #155 ), #50, .T. ) ;
#204 = STYLED_ITEM ( 'NONE', ( #141 ), #159 ) ;
#205 = FACE_OUTER_BOUND ( 'NONE', #207, .T. ) ;
#206 = AXIS2_PLACEMENT_3D ( 'NONE', #135, #51, #339 ) ;
#207 = EDGE_LOOP ( 'NONE', ( #269, #95, #119, #266 ) ) ;
#208 = EDGE_CURVE ( 'NONE', #60, #12, #313, .T. ) ;
#209 = ORIENTED_EDGE ( 'NONE', *, *, #208, .T. ) ;
#210 = PRESENTATION_LAYER_ASSIGNMENT (  '', '', ( #204 ) ) ;
#211 = PRESENTATION_STYLE_ASSIGNMENT (( #33 ) ) ;
#212 = ORIENTED_EDGE ( 'NONE', *, *, #260, .T. ) ;
#213 = FILL_AREA_STYLE_COLOUR ( '', #105 ) ;
#214 = UNCERTAINTY_MEASURE_WITH_UNIT (LENGTH_MEASURE( 1.000000000000000082E-05 ), #26, 'distance_accuracy_value', 'NONE');
#215 = PRESENTATION_STYLE_ASSIGNMENT (( #6 ) ) ;
#216 = AXIS2_PLACEMENT_3D ( 'NONE', #231, #146, #93 ) ;
#217 = EDGE_LOOP ( 'NONE', ( #10, #245, #129, #28 ) ) ;
#218 = SURFACE_STYLE_FILL_AREA ( #130 ) ;
#219 = DIRECTION ( 'NONE',  ( 0.000000000000000000, 0.000000000000000000, -1.000000000000000000 ) ) ;
#220 = EDGE_CURVE ( 'NONE', #344, #120, #45, .T. ) ;
#221 =( NAMED_UNIT ( * ) SI_UNIT ( $, .STERADIAN. ) SOLID_ANGLE_UNIT ( ) );
#222 = AXIS2_PLACEMENT_3D ( 'NONE', #338, #262, #293 ) ;
#223 = AXIS2_PLACEMENT_3D ( 'NONE', #246, #187, #38 ) ;
#224 = SURFACE_STYLE_FILL_AREA ( #106 ) ;
#225 = DIRECTION ( 'NONE',  ( 0.000000000000000000, 0.000000000000000000, -1.000000000000000000 ) ) ;
#226 = APPLICATION_PROTOCOL_DEFINITION ( 'draft international standard', 'automotive_design', 1998, #192 ) ;
#227 = COLOUR_RGB ( '',1.000000000000000000, 0.000000000000000000, 0.000000000000000000 ) ;
#228 = AXIS2_PLACEMENT_3D ( 'NONE', #230, #330, #169 ) ;
#229 = CYLINDRICAL_SURFACE ( 'NONE', #148, 8.000000000000000000 ) ;
#230 = CARTESIAN_POINT ( 'NONE',  ( 0.000000000000000000, 0.5000000000000000000, 0.000000000000000000 ) ) ;
#231 = CARTESIAN_POINT ( 'NONE',  ( 5.204170427930421283E-15, 32.00000000000000000, 0.000000000000000000 ) ) ;
#232 = DIRECTION ( 'NONE',  ( 1.213802797673107944E-16, -1.000000000000000000, 0.000000000000000000 ) ) ;
#233 = EDGE_LOOP ( 'NONE', ( #37, #212, #318, #176 ) ) ;
#234 = AXIS2_PLACEMENT_3D ( 'NONE', #160, #162, #279 ) ;
#235 = MECHANICAL_DESIGN_GEOMETRIC_PRESENTATION_REPRESENTATION (  '', ( #271 ), #252 ) ;
#236 = EDGE_CURVE ( 'NONE', #277, #8, #171, .T. ) ;
#237 = ORIENTED_EDGE ( 'NONE', *, *, #343, .T. ) ;
#238 = EDGE_LOOP ( 'NONE', ( #188, #290, #91, #288 ) ) ;
#239 = DIRECTION ( 'NONE',  ( -1.000000000000000000, 0.000000000000000000, 0.000000000000000000 ) ) ;
#240 =( NAMED_UNIT ( * ) PLANE_ANGLE_UNIT ( ) SI_UNIT ( $, .RADIAN. ) );
#241 = CYLINDRICAL_SURFACE ( 'NONE', #30, 8.000000000000000000 ) ;
#242 = CARTESIAN_POINT ( 'NONE',  ( 9.797174393178825657E-16, 0.5000000000000000000, 8.000000000000000000 ) ) ;
#243 = COLOUR_RGB ( '',1.000000000000000000, 0.000000000000000000, 0.000000000000000000 ) ;
#244 =( GEOMETRIC_REPRESENTATION_CONTEXT ( 3 ) GLOBAL_UNCERTAINTY_ASSIGNED_CONTEXT ( ( #85 ) ) GLOBAL_UNIT_ASSIGNED_CONTEXT ( ( #324, #153, #98 ) ) REPRESENTATION_CONTEXT ( 'NONE', 'WORKASPACE' ) );
#245 = ORIENTED_EDGE ( 'NONE', *, *, #29, .T. ) ;
#246 = CARTESIAN_POINT ( 'NONE',  ( 0.000000000000000000, 0.5000000000000000000, 0.000000000000000000 ) ) ;
#247 = PRESENTATION_STYLE_ASSIGNMENT (( #52 ) ) ;
#248 = SURFACE_SIDE_STYLE ('',( #218 ) ) ;
#249 = DIRECTION ( 'NONE',  ( 0.000000000000000000, 0.000000000000000000, -1.000000000000000000 ) ) ;
#250 = AXIS2_PLACEMENT_3D ( 'NONE', #345, #310, #255 ) ;
#251 = DIRECTION ( 'NONE',  ( -0.000000000000000000, -1.000000000000000000, -0.000000000000000000 ) ) ;
#252 =( GEOMETRIC_REPRESENTATION_CONTEXT ( 3 ) GLOBAL_UNCERTAINTY_ASSIGNED_CONTEXT ( ( #78 ) ) GLOBAL_UNIT_ASSIGNED_CONTEXT ( ( #197, #77, #161 ) ) REPRESENTATION_CONTEXT ( 'NONE', 'WORKASPACE' ) );
#253 = DIRECTION ( 'NONE',  ( 0.000000000000000000, 0.000000000000000000, -1.000000000000000000 ) ) ;
#254 = CARTESIAN_POINT ( 'NONE',  ( 0.000000000000000000, 0.5000000000000000000, -8.000000000000000000 ) ) ;
#255 = DIRECTION ( 'NONE',  ( 0.000000000000000000, 0.000000000000000000, 1.000000000000000000 ) ) ;
#256 = DIRECTION ( 'NONE',  ( -1.213802797673107944E-16, 1.000000000000000000, -0.000000000000000000 ) ) ;
#257 = PRODUCT_DEFINITION_SHAPE ( 'NONE', 'NONE',  #333 ) ;
#258 = VECTOR ( 'NONE', #18, 1000.000000000000000 ) ;
#259 = CARTESIAN_POINT ( 'NONE',  ( 0.000000000000000000, 0.000000000000000000, 0.000000000000000000 ) ) ;
#260 = EDGE_CURVE ( 'NONE', #60, #8, #355, .T. ) ;
#261 = CARTESIAN_POINT ( 'NONE',  ( 9.797174393178825657E-16, 0.000000000000000000, 8.000000000000000000 ) ) ;
#262 = DIRECTION ( 'NONE',  ( -1.213802797673107944E-16, 1.000000000000000000, -0.000000000000000000 ) ) ;
#263 = ORIENTED_EDGE ( 'NONE', *, *, #107, .F. ) ;
#264 = DIRECTION ( 'NONE',  ( -0.000000000000000000, -1.000000000000000000, -0.000000000000000000 ) ) ;
#265 = MECHANICAL_DESIGN_GEOMETRIC_PRESENTATION_REPRESENTATION (  '', ( #54 ), #88 ) ;
#266 = ORIENTED_EDGE ( 'NONE', *, *, #173, .F. ) ;
#267 = FACE_OUTER_BOUND ( 'NONE', #217, .T. ) ;
#268 = UNCERTAINTY_MEASURE_WITH_UNIT (LENGTH_MEASURE( 1.000000000000000082E-05 ), #136, 'distance_accuracy_value', 'NONE');
#269 = ORIENTED_EDGE ( 'NONE', *, *, #29, .F. ) ;
#270 = CIRCLE ( 'NONE', #250, 0.5000000000000004441 ) ;
#271 = STYLED_ITEM ( 'NONE', ( #362 ), #276 ) ;
#272 = DIRECTION ( 'NONE',  ( -1.000000000000000000, 0.000000000000000000, 0.000000000000000000 ) ) ;
#273 = ORIENTED_EDGE ( 'NONE', *, *, #260, .F. ) ;
#274 = DIRECTION ( 'NONE',  ( 1.000000000000000000, 0.000000000000000000, -1.224646799147353207E-16 ) ) ;
#275 = SURFACE_SIDE_STYLE ('',( #296 ) ) ;
#276 = MANIFOLD_SOLID_BREP ( 'Revolve - Tool Body (Straight Shanked)', #181 ) ;
#277 = VERTEX_POINT ( 'NONE', #254 ) ;
#278 = CIRCLE ( 'NONE', #143, 8.000000000000000000 ) ;
#279 = DIRECTION ( 'NONE',  ( -1.000000000000000000, 0.000000000000000000, 0.000000000000000000 ) ) ;
#280 = CARTESIAN_POINT ( 'NONE',  ( 0.000000000000000000, 0.000000000000000000, -8.000000000000000000 ) ) ;
#281 = SURFACE_STYLE_FILL_AREA ( #110 ) ;
#282 = MECHANICAL_DESIGN_GEOMETRIC_PRESENTATION_REPRESENTATION (  '', ( #327 ), #361 ) ;
#283 = DIRECTION ( 'NONE',  ( -1.000000000000000000, -1.213802797673107944E-16, 0.000000000000000000 ) ) ;
#284 = PRESENTATION_LAYER_ASSIGNMENT (  '', '', ( #36 ) ) ;
#285 = CARTESIAN_POINT ( 'NONE',  ( 0.000000000000000000, 32.00000000000000000, 0.000000000000000000 ) ) ;
#286 = APPLICATION_CONTEXT ( 'automotive_design' ) ;
#287 = SURFACE_STYLE_USAGE ( .BOTH. , #172 ) ;
#288 = ORIENTED_EDGE ( 'NONE', *, *, #112, .F. ) ;
#289 =( GEOMETRIC_REPRESENTATION_CONTEXT ( 3 ) GLOBAL_UNCERTAINTY_ASSIGNED_CONTEXT ( ( #369 ) ) GLOBAL_UNIT_ASSIGNED_CONTEXT ( ( #365, #342, #221 ) ) REPRESENTATION_CONTEXT ( 'NONE', 'WORKASPACE' ) );
#290 = ORIENTED_EDGE ( 'NONE', *, *, #167, .T. ) ;
#291 = FACE_OUTER_BOUND ( 'NONE', #58, .T. ) ;
#292 = CARTESIAN_POINT ( 'NONE',  ( 0.000000000000000000, 0.5000000000000000000, 0.000000000000000000 ) ) ;
#293 = DIRECTION ( 'NONE',  ( -1.000000000000000000, 0.000000000000000000, 0.000000000000000000 ) ) ;
#294 = COLOUR_RGB ( '',1.000000000000000000, 0.000000000000000000, 0.000000000000000000 ) ;
#295 = AXIS2_PLACEMENT_3D ( 'NONE', #131, #358, #249 ) ;
#296 = SURFACE_STYLE_FILL_AREA ( #147 ) ;
#297 = CIRCLE ( 'NONE', #183, 7.999999999999994671 ) ;
#298 = DIRECTION ( 'NONE',  ( -1.213802797673107944E-16, 1.000000000000000000, -0.000000000000000000 ) ) ;
#299 = EDGE_CURVE ( 'NONE', #12, #277, #337, .T. ) ;
#300 = EDGE_LOOP ( 'NONE', ( #94, #178 ) ) ;
#301 =( NAMED_UNIT ( * ) PLANE_ANGLE_UNIT ( ) SI_UNIT ( $, .RADIAN. ) );
#302 = STYLED_ITEM ( 'NONE', ( #40 ), #186 ) ;
#303 = CARTESIAN_POINT ( 'NONE',  ( 9.491012693391985815E-16, 0.000000000000000000, 7.500000000000000000 ) ) ;
#304 = CARTESIAN_POINT ( 'NONE',  ( 0.000000000000000000, 0.000000000000000000, 0.000000000000000000 ) ) ;
#305 = SURFACE_STYLE_USAGE ( .BOTH. , #325 ) ;
#306 = STYLED_ITEM ( 'NONE', ( #247 ), #25 ) ;
#307 = CARTESIAN_POINT ( 'NONE',  ( 0.000000000000000000, 0.000000000000000000, -7.500000000000000000 ) ) ;
#308 = PLANE ( 'NONE',  #348 ) ;
#309 = DIRECTION ( 'NONE',  ( 0.000000000000000000, 0.000000000000000000, 1.000000000000000000 ) ) ;
#310 = DIRECTION ( 'NONE',  ( -1.000000000000000000, 0.000000000000000000, 0.000000000000000000 ) ) ;
#311 = FILL_AREA_STYLE_COLOUR ( '', #243 ) ;
#312 = PRESENTATION_LAYER_ASSIGNMENT (  '', '', ( #327 ) ) ;
#313 = CIRCLE ( 'NONE', #322, 8.000000000000000000 ) ;
#314 =( NAMED_UNIT ( * ) PLANE_ANGLE_UNIT ( ) SI_UNIT ( $, .RADIAN. ) );
#315 = VECTOR ( 'NONE', #196, 1000.000000000000000 ) ;
#316 = ORIENTED_EDGE ( 'NONE', *, *, #299, .T. ) ;
#317 = CARTESIAN_POINT ( 'NONE',  ( -8.000000000000003553, 89.00000000000000000, 0.000000000000000000 ) ) ;
#318 = ORIENTED_EDGE ( 'NONE', *, *, #236, .F. ) ;
#319 = DIRECTION ( 'NONE',  ( 0.000000000000000000, 1.000000000000000000, 0.000000000000000000 ) ) ;
#320 = CIRCLE ( 'NONE', #234, 8.000000000000001776 ) ;
#321 = ORIENTED_EDGE ( 'NONE', *, *, #208, .F. ) ;
#322 = AXIS2_PLACEMENT_3D ( 'NONE', #7, #251, #132 ) ;
#323 = VERTEX_POINT ( 'NONE', #307 ) ;
#324 =( LENGTH_UNIT ( ) NAMED_UNIT ( * ) SI_UNIT ( .MILLI., .METRE. ) );
#325 = SURFACE_SIDE_STYLE ('',( #281 ) ) ;
#326 = CARTESIAN_POINT ( 'NONE',  ( 0.000000000000000000, 32.00000000000000000, 0.000000000000000000 ) ) ;
#327 = STYLED_ITEM ( 'NONE', ( #211 ), #118 ) ;
#328 = DIRECTION ( 'NONE',  ( -1.213802797673107944E-16, 1.000000000000000000, -0.000000000000000000 ) ) ;
#329 = CARTESIAN_POINT ( 'NONE',  ( 0.000000000000000000, 0.000000000000000000, 0.000000000000000000 ) ) ;
#330 = DIRECTION ( 'NONE',  ( -0.000000000000000000, -1.000000000000000000, -0.000000000000000000 ) ) ;
#331 = PLANE ( 'NONE',  #99 ) ;
#332 = PRESENTATION_STYLE_ASSIGNMENT (( #305 ) ) ;
#333 = PRODUCT_DEFINITION ( 'UNKNOWN', '', #368, #115 ) ;
#334 = CIRCLE ( 'NONE', #92, 0.5000000000000004441 ) ;
#335 = CARTESIAN_POINT ( 'NONE',  ( 0.000000000000000000, 0.000000000000000000, 0.000000000000000000 ) ) ;
#336 = PLANE ( 'NONE',  #353 ) ;
#337 = LINE ( 'NONE', #280, #315 ) ;
#338 = CARTESIAN_POINT ( 'NONE',  ( -1.714505518806293849E-15, 89.00000000000000000, 0.000000000000000000 ) ) ;
#339 = DIRECTION ( 'NONE',  ( 0.000000000000000000, 0.000000000000000000, -1.000000000000000000 ) ) ;
#340 = PLANE ( 'NONE',  #128 ) ;
#341 = ORIENTED_EDGE ( 'NONE', *, *, #63, .T. ) ;
#342 =( NAMED_UNIT ( * ) PLANE_ANGLE_UNIT ( ) SI_UNIT ( $, .RADIAN. ) );
#343 = EDGE_CURVE ( 'NONE', #323, #32, #354, .T. ) ;
#344 = VERTEX_POINT ( 'NONE', #193 ) ;
#345 = CARTESIAN_POINT ( 'NONE',  ( 0.000000000000000000, 0.5000000000000000000, -7.500000000000000000 ) ) ;
#346 = ORIENTED_EDGE ( 'NONE', *, *, #112, .T. ) ;
#347 = ORIENTED_EDGE ( 'NONE', *, *, #83, .F. ) ;
#348 = AXIS2_PLACEMENT_3D ( 'NONE', #329, #22, #225 ) ;
#349 = FILL_AREA_STYLE_COLOUR ( '', #19 ) ;
#350 = FILL_AREA_STYLE ('',( #157 ) ) ;
#351 = FILL_AREA_STYLE_COLOUR ( '', #97 ) ;
#352 = AXIS2_PLACEMENT_3D ( 'NONE', #24, #140, #122 ) ;
#353 = AXIS2_PLACEMENT_3D ( 'NONE', #201, #232, #23 ) ;
#354 = CIRCLE ( 'NONE', #206, 7.500000000000000000 ) ;
#355 = LINE ( 'NONE', #261, #20 ) ;
#356 = FACE_OUTER_BOUND ( 'NONE', #300, .T. ) ;
#357 = PRODUCT_CONTEXT ( 'NONE', #286, 'mechanical' ) ;
#358 = DIRECTION ( 'NONE',  ( -0.000000000000000000, -1.000000000000000000, -0.000000000000000000 ) ) ;
#359 =( NAMED_UNIT ( * ) SI_UNIT ( $, .STERADIAN. ) SOLID_ANGLE_UNIT ( ) );
#360 = SURFACE_SIDE_STYLE ('',( #199 ) ) ;
#361 =( GEOMETRIC_REPRESENTATION_CONTEXT ( 3 ) GLOBAL_UNCERTAINTY_ASSIGNED_CONTEXT ( ( #214 ) ) GLOBAL_UNIT_ASSIGNED_CONTEXT ( ( #26, #314, #116 ) ) REPRESENTATION_CONTEXT ( 'NONE', 'WORKASPACE' ) );
#362 = PRESENTATION_STYLE_ASSIGNMENT (( #200 ) ) ;
#363 = CARTESIAN_POINT ( 'NONE',  ( 8.000000000000000000, 89.00000000000000000, 9.797174393178825657E-16 ) ) ;
#364 = PRODUCT_RELATED_PRODUCT_CATEGORY ( 'part', '', ( #90 ) ) ;
#365 =( LENGTH_UNIT ( ) NAMED_UNIT ( * ) SI_UNIT ( .MILLI., .METRE. ) );
#366 = TOROIDAL_SURFACE ( 'NONE', #48, 7.500000000000000000, 0.5000000000000002220 ) ;
#367 = CIRCLE ( 'NONE', #216, 7.999999999999994671 ) ;
#368 = PRODUCT_DEFINITION_FORMATION_WITH_SPECIFIED_SOURCE ( 'ANY', '', #90, .NOT_KNOWN. ) ;
#369 = UNCERTAINTY_MEASURE_WITH_UNIT (LENGTH_MEASURE( 1.000000000000000082E-05 ), #365, 'distance_accuracy_value', 'NONE');
#370 = EDGE_LOOP ( 'NONE', ( #151, #67 ) ) ;
ENDSEC;
END-ISO-10303-21;
