ISO-10303-21;
HEADER;
FILE_DESCRIPTION (( 'STEP AP214' ),
    '1' );
FILE_NAME ('Micro_BEM-250-04.STEP',
    '2021-09-03T13:09:13',
    ( '' ),
    ( '' ),
    'SwSTEP 2.0',
    'SolidWorks 2020',
    '' );
FILE_SCHEMA (( 'AUTOMOTIVE_DESIGN' ));
ENDSEC;

DATA;
#1 = EDGE_CURVE ( 'NONE', #309, #54, #5, .T. ) ;
#2 = DIRECTION ( 'NONE',  ( 1.224646799147353207E-16, 0.0000000000000000000, 1.000000000000000000 ) ) ;
#3 = LINE ( 'NONE', #152, #78 ) ;
#4 = DIRECTION ( 'NONE',  ( 1.000000000000000000, 0.0000000000000000000, 0.0000000000000000000 ) ) ;
#5 = LINE ( 'NONE', #155, #214 ) ;
#6 = PRESENTATION_STYLE_ASSIGNMENT (( #303 ) ) ;
#7 = AXIS2_PLACEMENT_3D ( 'NONE', #105, #304, #56 ) ;
#8 = ORIENTED_EDGE ( 'NONE', *, *, #81, .F. ) ;
#9 = ORIENTED_EDGE ( 'NONE', *, *, #68, .F. ) ;
#10 = ORIENTED_EDGE ( 'NONE', *, *, #19, .T. ) ;
#11 = ORIENTED_EDGE ( 'NONE', *, *, #318, .T. ) ;
#12 = EDGE_CURVE ( 'NONE', #232, #90, #108, .T. ) ;
#13 = EDGE_CURVE ( 'NONE', #309, #66, #208, .T. ) ;
#14 = SPHERICAL_SURFACE ( 'NONE', #173, 0.1248749999999999999 ) ;
#15 = ORIENTED_EDGE ( 'NONE', *, *, #85, .T. ) ;
#16 = CIRCLE ( 'NONE', #234, 0.1250000000000000000 ) ;
#17 = CARTESIAN_POINT ( 'NONE',  ( 1.529277690435257475E-17, 0.0000000000000000000, 0.1248749999999999999 ) ) ;
#18 = EDGE_CURVE ( 'NONE', #66, #309, #251, .T. ) ;
#19 = EDGE_CURVE ( 'NONE', #256, #255, #239, .T. ) ;
#20 = FACE_OUTER_BOUND ( 'NONE', #158, .T. ) ;
#21 = FACE_OUTER_BOUND ( 'NONE', #312, .T. ) ;
#22 = CARTESIAN_POINT ( 'NONE',  ( 0.1100000000000001948, 1.438959988998141146E-17, 2.500000000000000000 ) ) ;
#23 = ORIENTED_EDGE ( 'NONE', *, *, #19, .F. ) ;
#24 = CYLINDRICAL_SURFACE ( 'NONE', #133, 0.1248749999999999999 ) ;
#25 = ORIENTED_EDGE ( 'NONE', *, *, #104, .F. ) ;
#26 =( GEOMETRIC_REPRESENTATION_CONTEXT ( 3 ) GLOBAL_UNCERTAINTY_ASSIGNED_CONTEXT ( ( #115 ) ) GLOBAL_UNIT_ASSIGNED_CONTEXT ( ( #51, #102, #198 ) ) REPRESENTATION_CONTEXT ( 'NONE', 'WORKASPACE' ) );
#27 = VERTEX_POINT ( 'NONE', #275 ) ;
#28 = ORIENTED_EDGE ( 'NONE', *, *, #12, .F. ) ;
#29 = CARTESIAN_POINT ( 'NONE',  ( 9.184850993605150903E-17, 0.0000000000000000000, 0.7500000000000001110 ) ) ;
#30 = ORIENTED_EDGE ( 'NONE', *, *, #18, .F. ) ;
#31 = STYLED_ITEM ( 'NONE', ( #6 ), #142 ) ;
#32 = CARTESIAN_POINT ( 'NONE',  ( -0.1248749999999999860, 0.0000000000000000000, 0.1248750000000000276 ) ) ;
#33 = CARTESIAN_POINT ( 'NONE',  ( 0.0000000000000000000, 0.0000000000000000000, 2.500000000000000000 ) ) ;
#34 = CARTESIAN_POINT ( 'NONE',  ( -0.1249999999999999167, 0.0000000000000000000, 0.7507089102274522308 ) ) ;
#35 = AXIS2_PLACEMENT_3D ( 'NONE', #17, #148, #124 ) ;
#36 = DIRECTION ( 'NONE',  ( 1.000000000000000000, 0.0000000000000000000, 0.0000000000000000000 ) ) ;
#37 = EDGE_CURVE ( 'NONE', #90, #255, #195, .T. ) ;
#38 = DIRECTION ( 'NONE',  ( -1.224646799147353207E-16, -0.0000000000000000000, -1.000000000000000000 ) ) ;
#39 = ORIENTED_EDGE ( 'NONE', *, *, #113, .T. ) ;
#40 = DIRECTION ( 'NONE',  ( 0.0000000000000000000, -1.000000000000000000, 0.0000000000000000000 ) ) ;
#41 = SPHERICAL_SURFACE ( 'NONE', #35, 0.1248749999999999999 ) ;
#42 = VECTOR ( 'NONE', #130, 39.37007874015748143 ) ;
#43 = AXIS2_PLACEMENT_3D ( 'NONE', #248, #126, #220 ) ;
#44 = CARTESIAN_POINT ( 'NONE',  ( 0.0000000000000000000, 0.0000000000000000000, 2.500000000000000000 ) ) ;
#45 = FILL_AREA_STYLE_COLOUR ( '', #168 ) ;
#46 = LENGTH_MEASURE_WITH_UNIT ( LENGTH_MEASURE( 0.02539999999999999897 ), #186 );
#47 = EDGE_CURVE ( 'NONE', #27, #145, #319, .T. ) ;
#48 = AXIS2_PLACEMENT_3D ( 'NONE', #206, #86, #57 ) ;
#49 = CIRCLE ( 'NONE', #306, 0.1248749999999999999 ) ;
#50 = ORIENTED_EDGE ( 'NONE', *, *, #37, .T. ) ;
#51 =( CONVERSION_BASED_UNIT ( 'INCH', #175 ) LENGTH_UNIT ( ) NAMED_UNIT ( #272 ) );
#52 = EDGE_LOOP ( 'NONE', ( #39, #10, #112, #28 ) ) ;
#53 = ADVANCED_FACE ( 'NONE', ( #103 ), #201, .T. ) ;
#54 = VERTEX_POINT ( 'NONE', #217 ) ;
#55 = AXIS2_PLACEMENT_3D ( 'NONE', #207, #215, #94 ) ;
#56 = DIRECTION ( 'NONE',  ( 1.000000000000000000, 0.0000000000000000000, 0.0000000000000000000 ) ) ;
#57 = DIRECTION ( 'NONE',  ( -1.000000000000000000, 0.0000000000000000000, 0.0000000000000000000 ) ) ;
#58 = CARTESIAN_POINT ( 'NONE',  ( -0.1250000000000000000, 0.0000000000000000000, 2.485000000000000320 ) ) ;
#59 = ORIENTED_EDGE ( 'NONE', *, *, #324, .F. ) ;
#60 = ADVANCED_BREP_SHAPE_REPRESENTATION ( 'Micro_BEM-250-04', ( #142, #169 ), #93 ) ;
#61 = DIRECTION ( 'NONE',  ( -1.000000000000000000, 0.0000000000000000000, 0.0000000000000000000 ) ) ;
#62 = DIRECTION ( 'NONE',  ( 0.0000000000000000000, 0.0000000000000000000, -1.000000000000000000 ) ) ;
#63 = FACE_OUTER_BOUND ( 'NONE', #84, .T. ) ;
#64 = DIRECTION ( 'NONE',  ( 1.000000000000000000, 0.0000000000000000000, 0.0000000000000000000 ) ) ;
#65 = ADVANCED_FACE ( 'NONE', ( #323 ), #14, .T. ) ;
#66 = VERTEX_POINT ( 'NONE', #166 ) ;
#67 = CARTESIAN_POINT ( 'NONE',  ( 0.0000000000000000000, 0.0000000000000000000, 2.485000000000000320 ) ) ;
#68 = EDGE_CURVE ( 'NONE', #256, #232, #184, .T. ) ;
#69 = APPLICATION_PROTOCOL_DEFINITION ( 'draft international standard', 'automotive_design', 1998, #205 ) ;
#70 = FILL_AREA_STYLE ('',( #197 ) ) ;
#71 = FACE_OUTER_BOUND ( 'NONE', #209, .T. ) ;
#72 = AXIS2_PLACEMENT_3D ( 'NONE', #88, #181, #290 ) ;
#73 = FACE_OUTER_BOUND ( 'NONE', #233, .T. ) ;
#74 =( NAMED_UNIT ( * ) PLANE_ANGLE_UNIT ( ) SI_UNIT ( $, .RADIAN. ) );
#75 = DIRECTION ( 'NONE',  ( -1.224646799147353207E-16, -0.0000000000000000000, -1.000000000000000000 ) ) ;
#76 = ADVANCED_FACE ( 'NONE', ( #71 ), #96, .T. ) ;
#77 = CLOSED_SHELL ( 'NONE', ( #252, #151, #236, #76, #210, #141, #106, #53, #246, #231, #65 ) ) ;
#78 = VECTOR ( 'NONE', #250, 39.37007874015748143 ) ;
#79 = AXIS2_PLACEMENT_3D ( 'NONE', #194, #224, #203 ) ;
#80 =( LENGTH_UNIT ( ) NAMED_UNIT ( * ) SI_UNIT ( $, .METRE. ) );
#81 = EDGE_CURVE ( 'NONE', #255, #90, #16, .T. ) ;
#82 = ORIENTED_EDGE ( 'NONE', *, *, #47, .T. ) ;
#83 = DIRECTION ( 'NONE',  ( 0.0000000000000000000, 0.0000000000000000000, 1.000000000000000000 ) ) ;
#84 = EDGE_LOOP ( 'NONE', ( #235, #286, #180, #243 ) ) ;
#85 = EDGE_CURVE ( 'NONE', #309, #255, #277, .T. ) ;
#86 = DIRECTION ( 'NONE',  ( -1.224646799147353207E-16, -0.0000000000000000000, -1.000000000000000000 ) ) ;
#87 = AXIS2_PLACEMENT_3D ( 'NONE', #154, #177, #170 ) ;
#88 = CARTESIAN_POINT ( 'NONE',  ( 0.0000000000000000000, 0.0000000000000000000, 0.0000000000000000000 ) ) ;
#89 = APPLICATION_CONTEXT ( 'automotive_design' ) ;
#90 = VERTEX_POINT ( 'NONE', #34 ) ;
#91 = PRESENTATION_STYLE_ASSIGNMENT (( #199 ) ) ;
#92 = AXIS2_PLACEMENT_3D ( 'NONE', #225, #83, #4 ) ;
#93 =( GEOMETRIC_REPRESENTATION_CONTEXT ( 3 ) GLOBAL_UNCERTAINTY_ASSIGNED_CONTEXT ( ( #314 ) ) GLOBAL_UNIT_ASSIGNED_CONTEXT ( ( #117, #189, #213 ) ) REPRESENTATION_CONTEXT ( 'NONE', 'WORKASPACE' ) );
#94 = DIRECTION ( 'NONE',  ( 1.000000000000000000, 0.0000000000000000000, 0.0000000000000000000 ) ) ;
#95 = SHAPE_DEFINITION_REPRESENTATION ( #263, #60 ) ;
#96 = CONICAL_SURFACE ( 'NONE', #281, 0.1100000000000001948, 0.7853981633974517207 ) ;
#97 = MECHANICAL_DESIGN_GEOMETRIC_PRESENTATION_REPRESENTATION (  '', ( #229 ), #121 ) ;
#98 = EDGE_CURVE ( 'NONE', #145, #256, #132, .T. ) ;
#99 = CARTESIAN_POINT ( 'NONE',  ( 9.184850993605150903E-17, 0.0000000000000000000, 0.7500000000000001110 ) ) ;
#100 = AXIS2_PLACEMENT_3D ( 'NONE', #293, #40, #62 ) ;
#101 = DIRECTION ( 'NONE',  ( 1.000000000000000000, 0.0000000000000000000, 0.0000000000000000000 ) ) ;
#102 =( NAMED_UNIT ( * ) PLANE_ANGLE_UNIT ( ) SI_UNIT ( $, .RADIAN. ) );
#103 = FACE_OUTER_BOUND ( 'NONE', #135, .T. ) ;
#104 = EDGE_CURVE ( 'NONE', #145, #27, #223, .T. ) ;
#105 = CARTESIAN_POINT ( 'NONE',  ( 9.193532640014472135E-17, 0.0000000000000000000, 0.7507089102274522308 ) ) ;
#106 = ADVANCED_FACE ( 'NONE', ( #128 ), #129, .T. ) ;
#107 = AXIS2_PLACEMENT_3D ( 'NONE', #44, #156, #253 ) ;
#108 = LINE ( 'NONE', #202, #227 ) ;
#109 = DIRECTION ( 'NONE',  ( -1.000000000000000000, 0.0000000000000000000, 1.367291288120251888E-16 ) ) ;
#110 = ORIENTED_EDGE ( 'NONE', *, *, #1, .T. ) ;
#111 = DIRECTION ( 'NONE',  ( -0.0000000000000000000, -0.0000000000000000000, -1.000000000000000000 ) ) ;
#112 = ORIENTED_EDGE ( 'NONE', *, *, #37, .F. ) ;
#113 = EDGE_CURVE ( 'NONE', #232, #256, #138, .T. ) ;
#114 = ORIENTED_EDGE ( 'NONE', *, *, #182, .T. ) ;
#115 = UNCERTAINTY_MEASURE_WITH_UNIT (LENGTH_MEASURE( 1.000000000000000082E-05 ), #51, 'distance_accuracy_value', 'NONE');
#116 = PRODUCT_DEFINITION ( 'UNKNOWN', '', #147, #127 ) ;
#117 =( CONVERSION_BASED_UNIT ( 'INCH', #216 ) LENGTH_UNIT ( ) NAMED_UNIT ( #212 ) );
#118 = DIMENSIONAL_EXPONENTS ( 1.000000000000000000, 0.0000000000000000000, 0.0000000000000000000, 0.0000000000000000000, 0.0000000000000000000, 0.0000000000000000000, 0.0000000000000000000 ) ;
#119 = DIRECTION ( 'NONE',  ( 0.0000000000000000000, 1.000000000000000000, 0.0000000000000000000 ) ) ;
#120 = DIRECTION ( 'NONE',  ( 0.0000000000000000000, 0.0000000000000000000, 1.000000000000000000 ) ) ;
#121 =( GEOMETRIC_REPRESENTATION_CONTEXT ( 3 ) GLOBAL_UNCERTAINTY_ASSIGNED_CONTEXT ( ( #221 ) ) GLOBAL_UNIT_ASSIGNED_CONTEXT ( ( #254, #74, #271 ) ) REPRESENTATION_CONTEXT ( 'NONE', 'WORKASPACE' ) );
#122 = ORIENTED_EDGE ( 'NONE', *, *, #261, .T. ) ;
#123 = VECTOR ( 'NONE', #219, 39.37007874015748143 ) ;
#124 = DIRECTION ( 'NONE',  ( 1.000000000000000000, 0.0000000000000000000, 0.0000000000000000000 ) ) ;
#125 = DIRECTION ( 'NONE',  ( 1.224646799147353207E-16, 0.0000000000000000000, 1.000000000000000000 ) ) ;
#126 = DIRECTION ( 'NONE',  ( 1.224646799147353207E-16, 1.000000000000000000, -0.0000000000000000000 ) ) ;
#127 = PRODUCT_DEFINITION_CONTEXT ( 'detailed design', #205, 'design' ) ;
#128 = FACE_OUTER_BOUND ( 'NONE', #260, .T. ) ;
#129 = PLANE ( 'NONE',  #79 ) ;
#130 = DIRECTION ( 'NONE',  ( 0.7071067811865499042, 8.659560562354961208E-17, -0.7071067811865451302 ) ) ;
#131 = DIRECTION ( 'NONE',  ( -1.224646799147353207E-16, -0.0000000000000000000, -1.000000000000000000 ) ) ;
#132 = LINE ( 'NONE', #200, #42 ) ;
#133 = AXIS2_PLACEMENT_3D ( 'NONE', #150, #75, #279 ) ;
#134 = ORIENTED_EDGE ( 'NONE', *, *, #18, .T. ) ;
#135 = EDGE_LOOP ( 'NONE', ( #291, #257, #11, #9 ) ) ;
#136 = ORIENTED_EDGE ( 'NONE', *, *, #157, .F. ) ;
#137 = ORIENTED_EDGE ( 'NONE', *, *, #12, .T. ) ;
#138 = CIRCLE ( 'NONE', #87, 0.1250000000000000000 ) ;
#139 = CIRCLE ( 'NONE', #43, 0.1248749999999999999 ) ;
#140 = DIRECTION ( 'NONE',  ( 0.1736481776669314969, 0.0000000000000000000, 0.9848077530122077983 ) ) ;
#141 = ADVANCED_FACE ( 'NONE', ( #20 ), #308, .T. ) ;
#142 = MANIFOLD_SOLID_BREP ( 'Fillet1', #77 ) ;
#143 = CONICAL_SURFACE ( 'NONE', #179, 0.1248749999999999999, 0.1745329251994340025 ) ;
#144 = DIRECTION ( 'NONE',  ( -1.000000000000000000, 0.0000000000000000000, 1.367291288120251888E-16 ) ) ;
#145 = VERTEX_POINT ( 'NONE', #22 ) ;
#146 = DIRECTION ( 'NONE',  ( 1.000000000000000000, 0.0000000000000000000, 0.0000000000000000000 ) ) ;
#147 = PRODUCT_DEFINITION_FORMATION_WITH_SPECIFIED_SOURCE ( 'ANY', '', #317, .NOT_KNOWN. ) ;
#148 = DIRECTION ( 'NONE',  ( 0.0000000000000000000, 1.000000000000000000, 0.0000000000000000000 ) ) ;
#149 = FILL_AREA_STYLE ('',( #45 ) ) ;
#150 = CARTESIAN_POINT ( 'NONE',  ( 0.0000000000000000000, 0.0000000000000000000, 0.0000000000000000000 ) ) ;
#151 = ADVANCED_FACE ( 'NONE', ( #278 ), #24, .T. ) ;
#152 = CARTESIAN_POINT ( 'NONE',  ( -0.1248749999999999166, 1.529277690435257475E-17, 0.7500000000000001110 ) ) ;
#153 = AXIS2_PLACEMENT_3D ( 'NONE', #67, #268, #193 ) ;
#154 = CARTESIAN_POINT ( 'NONE',  ( 0.0000000000000000000, 0.0000000000000000000, 2.485000000000000320 ) ) ;
#155 = CARTESIAN_POINT ( 'NONE',  ( 0.1248749999999999999, 1.529277690435257475E-17, -1.529277690435257475E-17 ) ) ;
#156 = DIRECTION ( 'NONE',  ( -0.0000000000000000000, -0.0000000000000000000, -1.000000000000000000 ) ) ;
#157 = EDGE_CURVE ( 'NONE', #66, #90, #3, .T. ) ;
#158 = EDGE_LOOP ( 'NONE', ( #23, #258, #137, #8 ) ) ;
#159 = AXIS2_PLACEMENT_3D ( 'NONE', #29, #125, #36 ) ;
#160 = VECTOR ( 'NONE', #171, 39.37007874015748143 ) ;
#161 = ORIENTED_EDGE ( 'NONE', *, *, #315, .F. ) ;
#162 = EDGE_LOOP ( 'NONE', ( #134, #110, #122, #226 ) ) ;
#163 = VERTEX_POINT ( 'NONE', #32 ) ;
#164 = CARTESIAN_POINT ( 'NONE',  ( 0.1250000000000000000, 1.530808498934191509E-17, 2.500000000000000000 ) ) ;
#165 = VECTOR ( 'NONE', #299, 39.37007874015748143 ) ;
#166 = CARTESIAN_POINT ( 'NONE',  ( -0.1248749999999999166, 1.530043094684724646E-17, 0.7500000000000001110 ) ) ;
#167 = DIRECTION ( 'NONE',  ( -1.000000000000000000, 0.0000000000000000000, 0.0000000000000000000 ) ) ;
#168 = COLOUR_RGB ( '',0.7921568627450980005, 0.8196078431372548767, 0.9333333333333333481 ) ;
#169 = AXIS2_PLACEMENT_3D ( 'NONE', #192, #120, #146 ) ;
#170 = DIRECTION ( 'NONE',  ( 1.000000000000000000, 0.0000000000000000000, 0.0000000000000000000 ) ) ;
#171 = DIRECTION ( 'NONE',  ( -1.224646799147353207E-16, -0.0000000000000000000, -1.000000000000000000 ) ) ;
#172 = SURFACE_SIDE_STYLE ('',( #305 ) ) ;
#173 = AXIS2_PLACEMENT_3D ( 'NONE', #188, #119, #64 ) ;
#174 = EDGE_LOOP ( 'NONE', ( #30, #274, #50, #218 ) ) ;
#175 = LENGTH_MEASURE_WITH_UNIT ( LENGTH_MEASURE( 0.02539999999999999897 ), #80 );
#176 = DIRECTION ( 'NONE',  ( -1.224646799147353207E-16, -0.0000000000000000000, -1.000000000000000000 ) ) ;
#177 = DIRECTION ( 'NONE',  ( 0.0000000000000000000, 0.0000000000000000000, -1.000000000000000000 ) ) ;
#178 = ORIENTED_EDGE ( 'NONE', *, *, #182, .F. ) ;
#179 = AXIS2_PLACEMENT_3D ( 'NONE', #99, #2, #101 ) ;
#180 = ORIENTED_EDGE ( 'NONE', *, *, #270, .T. ) ;
#181 = DIRECTION ( 'NONE',  ( -1.224646799147353207E-16, -0.0000000000000000000, -1.000000000000000000 ) ) ;
#182 = EDGE_CURVE ( 'NONE', #230, #54, #262, .T. ) ;
#183 = ORIENTED_EDGE ( 'NONE', *, *, #113, .F. ) ;
#184 = CIRCLE ( 'NONE', #153, 0.1250000000000000000 ) ;
#185 = PRESENTATION_LAYER_ASSIGNMENT (  '', '', ( #229 ) ) ;
#186 =( LENGTH_UNIT ( ) NAMED_UNIT ( * ) SI_UNIT ( $, .METRE. ) );
#187 = FACE_OUTER_BOUND ( 'NONE', #52, .T. ) ;
#188 = CARTESIAN_POINT ( 'NONE',  ( 1.529277690435257475E-17, 0.0000000000000000000, 0.1248749999999999999 ) ) ;
#189 =( NAMED_UNIT ( * ) PLANE_ANGLE_UNIT ( ) SI_UNIT ( $, .RADIAN. ) );
#190 = ORIENTED_EDGE ( 'NONE', *, *, #81, .T. ) ;
#191 = CARTESIAN_POINT ( 'NONE',  ( 1.529277690435257475E-17, 0.0000000000000000000, 0.1248749999999999999 ) ) ;
#192 = CARTESIAN_POINT ( 'NONE',  ( 0.0000000000000000000, 0.0000000000000000000, 0.0000000000000000000 ) ) ;
#193 = DIRECTION ( 'NONE',  ( 1.000000000000000000, 0.0000000000000000000, 0.0000000000000000000 ) ) ;
#194 = CARTESIAN_POINT ( 'NONE',  ( 0.0000000000000000000, 0.0000000000000000000, 2.500000000000000000 ) ) ;
#195 = CIRCLE ( 'NONE', #7, 0.1250000000000000000 ) ;
#196 = CARTESIAN_POINT ( 'NONE',  ( 0.1250000000000000833, 1.530808498934192433E-17, 0.7507089102274522308 ) ) ;
#197 = FILL_AREA_STYLE_COLOUR ( '', #282 ) ;
#198 =( NAMED_UNIT ( * ) SI_UNIT ( $, .STERADIAN. ) SOLID_ANGLE_UNIT ( ) );
#199 = SURFACE_STYLE_USAGE ( .BOTH. , #280 ) ;
#200 = CARTESIAN_POINT ( 'NONE',  ( 0.1100000000000001948, 1.347111479062090784E-17, 2.500000000000000000 ) ) ;
#201 = CONICAL_SURFACE ( 'NONE', #295, 0.1100000000000001948, 0.7853981633974517207 ) ;
#202 = CARTESIAN_POINT ( 'NONE',  ( -0.1250000000000000000, 0.0000000000000000000, 2.500000000000000000 ) ) ;
#203 = DIRECTION ( 'NONE',  ( 1.000000000000000000, 0.0000000000000000000, -0.0000000000000000000 ) ) ;
#204 = ORIENTED_EDGE ( 'NONE', *, *, #98, .T. ) ;
#205 = APPLICATION_CONTEXT ( 'automotive_design' ) ;
#206 = CARTESIAN_POINT ( 'NONE',  ( 9.184850993605150903E-17, 0.0000000000000000000, 0.7500000000000001110 ) ) ;
#207 = CARTESIAN_POINT ( 'NONE',  ( 0.0000000000000000000, 0.0000000000000000000, 2.500000000000000000 ) ) ;
#208 = CIRCLE ( 'NONE', #228, 0.1248749999999999999 ) ;
#209 = EDGE_LOOP ( 'NONE', ( #25, #204, #183, #283 ) ) ;
#210 = ADVANCED_FACE ( 'NONE', ( #187 ), #265, .T. ) ;
#211 = ORIENTED_EDGE ( 'NONE', *, *, #315, .T. ) ;
#212 = DIMENSIONAL_EXPONENTS ( 1.000000000000000000, 0.0000000000000000000, 0.0000000000000000000, 0.0000000000000000000, 0.0000000000000000000, 0.0000000000000000000, 0.0000000000000000000 ) ;
#213 =( NAMED_UNIT ( * ) SI_UNIT ( $, .STERADIAN. ) SOLID_ANGLE_UNIT ( ) );
#214 = VECTOR ( 'NONE', #131, 39.37007874015748143 ) ;
#215 = DIRECTION ( 'NONE',  ( 0.0000000000000000000, 0.0000000000000000000, 1.000000000000000000 ) ) ;
#216 = LENGTH_MEASURE_WITH_UNIT ( LENGTH_MEASURE( 0.02539999999999999897 ), #269 );
#217 = CARTESIAN_POINT ( 'NONE',  ( 0.1248750000000000276, 1.529277690435257475E-17, 0.1248749999999999860 ) ) ;
#218 = ORIENTED_EDGE ( 'NONE', *, *, #85, .F. ) ;
#219 = DIRECTION ( 'NONE',  ( -0.7071067811865499042, 0.0000000000000000000, -0.7071067811865451302 ) ) ;
#220 = DIRECTION ( 'NONE',  ( -1.000000000000000000, 1.224646799147353454E-16, 0.0000000000000000000 ) ) ;
#221 = UNCERTAINTY_MEASURE_WITH_UNIT (LENGTH_MEASURE( 1.000000000000000082E-05 ), #254, 'distance_accuracy_value', 'NONE');
#222 = LINE ( 'NONE', #241, #160 ) ;
#223 = CIRCLE ( 'NONE', #92, 0.1100000000000001948 ) ;
#224 = DIRECTION ( 'NONE',  ( 0.0000000000000000000, 0.0000000000000000000, 1.000000000000000000 ) ) ;
#225 = CARTESIAN_POINT ( 'NONE',  ( 0.0000000000000000000, 0.0000000000000000000, 2.500000000000000000 ) ) ;
#226 = ORIENTED_EDGE ( 'NONE', *, *, #270, .F. ) ;
#227 = VECTOR ( 'NONE', #111, 39.37007874015748143 ) ;
#228 = AXIS2_PLACEMENT_3D ( 'NONE', #307, #176, #310 ) ;
#229 = STYLED_ITEM ( 'NONE', ( #91 ), #60 ) ;
#230 = VERTEX_POINT ( 'NONE', #311 ) ;
#231 = ADVANCED_FACE ( 'NONE', ( #63 ), #264, .T. ) ;
#232 = VERTEX_POINT ( 'NONE', #58 ) ;
#233 = EDGE_LOOP ( 'NONE', ( #178, #211, #289 ) ) ;
#234 = AXIS2_PLACEMENT_3D ( 'NONE', #273, #38, #237 ) ;
#235 = ORIENTED_EDGE ( 'NONE', *, *, #1, .F. ) ;
#236 = ADVANCED_FACE ( 'NONE', ( #259 ), #301, .T. ) ;
#237 = DIRECTION ( 'NONE',  ( 1.000000000000000000, 0.0000000000000000000, 0.0000000000000000000 ) ) ;
#238 = PRESENTATION_LAYER_ASSIGNMENT (  '', '', ( #31 ) ) ;
#239 = LINE ( 'NONE', #164, #165 ) ;
#240 = DIRECTION ( 'NONE',  ( 0.0000000000000000000, 0.0000000000000000000, -1.000000000000000000 ) ) ;
#241 = CARTESIAN_POINT ( 'NONE',  ( -0.1248749999999999999, 0.0000000000000000000, 1.529277690435257475E-17 ) ) ;
#242 = CARTESIAN_POINT ( 'NONE',  ( 0.0000000000000000000, 0.0000000000000000000, 2.500000000000000000 ) ) ;
#243 = ORIENTED_EDGE ( 'NONE', *, *, #324, .T. ) ;
#244 = LINE ( 'NONE', #302, #123 ) ;
#245 = MECHANICAL_DESIGN_GEOMETRIC_PRESENTATION_REPRESENTATION (  '', ( #31 ), #26 ) ;
#246 = ADVANCED_FACE ( 'NONE', ( #21 ), #143, .T. ) ;
#247 = DIRECTION ( 'NONE',  ( 1.224646799147353207E-16, 0.0000000000000000000, 1.000000000000000000 ) ) ;
#248 = CARTESIAN_POINT ( 'NONE',  ( 1.529277690435257475E-17, 0.0000000000000000000, 0.1248749999999999999 ) ) ;
#249 = CARTESIAN_POINT ( 'NONE',  ( 0.0000000000000000000, 0.0000000000000000000, 2.500000000000000000 ) ) ;
#250 = DIRECTION ( 'NONE',  ( -0.1736481776669312749, 2.126576849575784241E-17, 0.9848077530122077983 ) ) ;
#251 = CIRCLE ( 'NONE', #48, 0.1248749999999999999 ) ;
#252 = ADVANCED_FACE ( 'NONE', ( #73 ), #41, .T. ) ;
#253 = DIRECTION ( 'NONE',  ( -1.000000000000000000, 0.0000000000000000000, 0.0000000000000000000 ) ) ;
#254 =( CONVERSION_BASED_UNIT ( 'INCH', #46 ) LENGTH_UNIT ( ) NAMED_UNIT ( #118 ) );
#255 = VERTEX_POINT ( 'NONE', #196 ) ;
#256 = VERTEX_POINT ( 'NONE', #294 ) ;
#257 = ORIENTED_EDGE ( 'NONE', *, *, #47, .F. ) ;
#258 = ORIENTED_EDGE ( 'NONE', *, *, #68, .T. ) ;
#259 = FACE_OUTER_BOUND ( 'NONE', #174, .T. ) ;
#260 = EDGE_LOOP ( 'NONE', ( #82, #321 ) ) ;
#261 = EDGE_CURVE ( 'NONE', #54, #163, #288, .T. ) ;
#262 = CIRCLE ( 'NONE', #100, 0.1248749999999999999 ) ;
#263 = PRODUCT_DEFINITION_SHAPE ( 'NONE', 'NONE',  #116 ) ;
#264 = CYLINDRICAL_SURFACE ( 'NONE', #72, 0.1248749999999999999 ) ;
#265 = CYLINDRICAL_SURFACE ( 'NONE', #292, 0.1250000000000000000 ) ;
#266 = CARTESIAN_POINT ( 'NONE',  ( 0.1248750000000000970, 0.0000000000000000000, 0.7500000000000001110 ) ) ;
#267 = AXIS2_PLACEMENT_3D ( 'NONE', #191, #247, #144 ) ;
#268 = DIRECTION ( 'NONE',  ( 0.0000000000000000000, 0.0000000000000000000, -1.000000000000000000 ) ) ;
#269 =( LENGTH_UNIT ( ) NAMED_UNIT ( * ) SI_UNIT ( $, .METRE. ) );
#270 = EDGE_CURVE ( 'NONE', #66, #163, #222, .T. ) ;
#271 =( NAMED_UNIT ( * ) SI_UNIT ( $, .STERADIAN. ) SOLID_ANGLE_UNIT ( ) );
#272 = DIMENSIONAL_EXPONENTS ( 1.000000000000000000, 0.0000000000000000000, 0.0000000000000000000, 0.0000000000000000000, 0.0000000000000000000, 0.0000000000000000000, 0.0000000000000000000 ) ;
#273 = CARTESIAN_POINT ( 'NONE',  ( 9.193532640014472135E-17, 0.0000000000000000000, 0.7507089102274522308 ) ) ;
#274 = ORIENTED_EDGE ( 'NONE', *, *, #157, .T. ) ;
#275 = CARTESIAN_POINT ( 'NONE',  ( -0.1100000000000001948, 0.0000000000000000000, 2.500000000000000000 ) ) ;
#276 = VECTOR ( 'NONE', #140, 39.37007874015748143 ) ;
#277 = LINE ( 'NONE', #266, #276 ) ;
#278 = FACE_OUTER_BOUND ( 'NONE', #162, .T. ) ;
#279 = DIRECTION ( 'NONE',  ( -1.000000000000000000, 0.0000000000000000000, 1.224646799147353454E-16 ) ) ;
#280 = SURFACE_SIDE_STYLE ('',( #325 ) ) ;
#281 = AXIS2_PLACEMENT_3D ( 'NONE', #242, #296, #167 ) ;
#282 = COLOUR_RGB ( '',0.7921568627450980005, 0.8196078431372548767, 0.9333333333333333481 ) ;
#283 = ORIENTED_EDGE ( 'NONE', *, *, #318, .F. ) ;
#284 = ORIENTED_EDGE ( 'NONE', *, *, #13, .F. ) ;
#285 = PRODUCT_RELATED_PRODUCT_CATEGORY ( 'part', '', ( #317 ) ) ;
#286 = ORIENTED_EDGE ( 'NONE', *, *, #13, .T. ) ;
#287 = DIRECTION ( 'NONE',  ( -0.0000000000000000000, -0.0000000000000000000, -1.000000000000000000 ) ) ;
#288 = CIRCLE ( 'NONE', #267, 0.1248749999999999999 ) ;
#289 = ORIENTED_EDGE ( 'NONE', *, *, #261, .F. ) ;
#290 = DIRECTION ( 'NONE',  ( -1.000000000000000000, 0.0000000000000000000, 1.224646799147353454E-16 ) ) ;
#291 = ORIENTED_EDGE ( 'NONE', *, *, #98, .F. ) ;
#292 = AXIS2_PLACEMENT_3D ( 'NONE', #33, #287, #61 ) ;
#293 = CARTESIAN_POINT ( 'NONE',  ( 1.529277690435257475E-17, 0.0000000000000000000, 0.1248749999999999999 ) ) ;
#294 = CARTESIAN_POINT ( 'NONE',  ( 0.1250000000000000000, 1.530808498934191509E-17, 2.485000000000000320 ) ) ;
#295 = AXIS2_PLACEMENT_3D ( 'NONE', #249, #240, #316 ) ;
#296 = DIRECTION ( 'NONE',  ( 0.0000000000000000000, 0.0000000000000000000, -1.000000000000000000 ) ) ;
#297 = CARTESIAN_POINT ( 'NONE',  ( 0.1248750000000000970, 0.0000000000000000000, 0.7500000000000001110 ) ) ;
#298 = DIRECTION ( 'NONE',  ( 1.224646799147353207E-16, 0.0000000000000000000, 1.000000000000000000 ) ) ;
#299 = DIRECTION ( 'NONE',  ( -0.0000000000000000000, -0.0000000000000000000, -1.000000000000000000 ) ) ;
#300 = PRODUCT_CONTEXT ( 'NONE', #89, 'mechanical' ) ;
#301 = CONICAL_SURFACE ( 'NONE', #159, 0.1248749999999999999, 0.1745329251994340025 ) ;
#302 = CARTESIAN_POINT ( 'NONE',  ( -0.1100000000000001948, 0.0000000000000000000, 2.500000000000000000 ) ) ;
#303 = SURFACE_STYLE_USAGE ( .BOTH. , #172 ) ;
#304 = DIRECTION ( 'NONE',  ( -1.224646799147353207E-16, -0.0000000000000000000, -1.000000000000000000 ) ) ;
#305 = SURFACE_STYLE_FILL_AREA ( #149 ) ;
#306 = AXIS2_PLACEMENT_3D ( 'NONE', #322, #298, #109 ) ;
#307 = CARTESIAN_POINT ( 'NONE',  ( 9.184850993605150903E-17, 0.0000000000000000000, 0.7500000000000001110 ) ) ;
#308 = CYLINDRICAL_SURFACE ( 'NONE', #107, 0.1250000000000000000 ) ;
#309 = VERTEX_POINT ( 'NONE', #297 ) ;
#310 = DIRECTION ( 'NONE',  ( -1.000000000000000000, 0.0000000000000000000, 0.0000000000000000000 ) ) ;
#311 = CARTESIAN_POINT ( 'NONE',  ( 2.293916535652885904E-17, 0.0000000000000000000, 0.0000000000000000000 ) ) ;
#312 = EDGE_LOOP ( 'NONE', ( #136, #284, #15, #190 ) ) ;
#313 = EDGE_LOOP ( 'NONE', ( #161, #114, #59 ) ) ;
#314 = UNCERTAINTY_MEASURE_WITH_UNIT (LENGTH_MEASURE( 1.000000000000000082E-05 ), #117, 'distance_accuracy_value', 'NONE');
#315 = EDGE_CURVE ( 'NONE', #230, #163, #139, .T. ) ;
#316 = DIRECTION ( 'NONE',  ( -1.000000000000000000, 0.0000000000000000000, 0.0000000000000000000 ) ) ;
#317 = PRODUCT ( 'Micro_BEM-250-04', 'Micro_BEM-250-04', '', ( #300 ) ) ;
#318 = EDGE_CURVE ( 'NONE', #27, #232, #244, .T. ) ;
#319 = CIRCLE ( 'NONE', #55, 0.1100000000000001948 ) ;
#320 = APPLICATION_PROTOCOL_DEFINITION ( 'draft international standard', 'automotive_design', 1998, #89 ) ;
#321 = ORIENTED_EDGE ( 'NONE', *, *, #104, .T. ) ;
#322 = CARTESIAN_POINT ( 'NONE',  ( 1.529277690435257475E-17, 0.0000000000000000000, 0.1248749999999999999 ) ) ;
#323 = FACE_OUTER_BOUND ( 'NONE', #313, .T. ) ;
#324 = EDGE_CURVE ( 'NONE', #163, #54, #49, .T. ) ;
#325 = SURFACE_STYLE_FILL_AREA ( #70 ) ;
ENDSEC;
END-ISO-10303-21;
