ISO-10303-21;
HEADER;
FILE_DESCRIPTION (( 'STEP AP214' ),
    '1' );
FILE_NAME ('82944.STEP',
    '2023-06-23T07:15:40',
    ( '' ),
    ( '' ),
    'SwSTEP 2.0',
    'SolidWorks 2023',
    '' );
FILE_SCHEMA (( 'AUTOMOTIVE_DESIGN' ));
ENDSEC;

DATA;
#1 = DIRECTION ( 'NONE',  ( -4.898587196589414924E-17, 1.000000000000000000, -0.000000000000000000 ) ) ;
#2 = FACE_OUTER_BOUND ( 'NONE', #241, .T. ) ;
#3 = ORIENTED_EDGE ( 'NONE', *, *, #115, .F. ) ;
#4 =( CONVERSION_BASED_UNIT ( 'INCH', #30 ) LENGTH_UNIT ( ) NAMED_UNIT ( #20 ) );
#5 = EDGE_LOOP ( 'NONE', ( #3, #201, #75, #72 ) ) ;
#6 = CIRCLE ( 'NONE', #24, 0.1875000000000000278 ) ;
#7 =( GEOMETRIC_REPRESENTATION_CONTEXT ( 3 ) GLOBAL_UNCERTAINTY_ASSIGNED_CONTEXT ( ( #29 ) ) GLOBAL_UNIT_ASSIGNED_CONTEXT ( ( #196, #292, #10 ) ) REPRESENTATION_CONTEXT ( 'NONE', 'WORKASPACE' ) );
#8 = APPLICATION_CONTEXT ( 'automotive_design' ) ;
#9 = LENGTH_MEASURE_WITH_UNIT ( LENGTH_MEASURE( 0.02539999999999999897 ), #143 );
#10 =( NAMED_UNIT ( * ) SI_UNIT ( $, .STERADIAN. ) SOLID_ANGLE_UNIT ( ) );
#11 = FACE_OUTER_BOUND ( 'NONE', #112, .T. ) ;
#12 = CARTESIAN_POINT ( 'NONE',  ( -0.1875000000000004996, 6.000000000000000888, 0.000000000000000000 ) ) ;
#13 = STYLED_ITEM ( 'NONE', ( #103 ), #176 ) ;
#14 = ORIENTED_EDGE ( 'NONE', *, *, #115, .T. ) ;
#15 = LENGTH_MEASURE_WITH_UNIT ( LENGTH_MEASURE( 0.02539999999999999897 ), #82 );
#16 = ADVANCED_FACE ( 'NONE', ( #28 ), #91, .T. ) ;
#17 =( NAMED_UNIT ( * ) SI_UNIT ( $, .STERADIAN. ) SOLID_ANGLE_UNIT ( ) );
#18 = CARTESIAN_POINT ( 'NONE',  ( 0.000000000000000000, 1.000000000000000000, -0.1875000000000000278 ) ) ;
#19 = PRESENTATION_STYLE_ASSIGNMENT (( #180 ) ) ;
#20 = DIMENSIONAL_EXPONENTS ( 1.000000000000000000, 0.000000000000000000, 0.000000000000000000, 0.000000000000000000, 0.000000000000000000, 0.000000000000000000, 0.000000000000000000 ) ;
#21 = MECHANICAL_DESIGN_GEOMETRIC_PRESENTATION_REPRESENTATION (  '', ( #78 ), #56 ) ;
#22 = SURFACE_STYLE_FILL_AREA ( #106 ) ;
#23 = ORIENTED_EDGE ( 'NONE', *, *, #27, .F. ) ;
#24 = AXIS2_PLACEMENT_3D ( 'NONE', #51, #217, #53 ) ;
#25 = CARTESIAN_POINT ( 'NONE',  ( -2.449293598294707400E-16, 6.000000000000000888, 0.000000000000000000 ) ) ;
#26 =( NAMED_UNIT ( * ) PLANE_ANGLE_UNIT ( ) SI_UNIT ( $, .RADIAN. ) );
#27 = EDGE_CURVE ( 'NONE', #95, #139, #6, .T. ) ;
#28 = FACE_OUTER_BOUND ( 'NONE', #5, .T. ) ;
#29 = UNCERTAINTY_MEASURE_WITH_UNIT (LENGTH_MEASURE( 1.000000000000000082E-05 ), #196, 'distance_accuracy_value', 'NONE');
#30 = LENGTH_MEASURE_WITH_UNIT ( LENGTH_MEASURE( 0.02539999999999999897 ), #222 );
#31 = ORIENTED_EDGE ( 'NONE', *, *, #162, .F. ) ;
#32 =( NAMED_UNIT ( * ) PLANE_ANGLE_UNIT ( ) SI_UNIT ( $, .RADIAN. ) );
#33 = EDGE_LOOP ( 'NONE', ( #216, #264, #309, #149 ) ) ;
#34 = PRODUCT_DEFINITION_CONTEXT ( 'detailed design', #8, 'design' ) ;
#35 = FILL_AREA_STYLE ('',( #220 ) ) ;
#36 = PLANE ( 'NONE',  #102 ) ;
#37 = PRESENTATION_LAYER_ASSIGNMENT (  '', '', ( #13 ) ) ;
#38 = SURFACE_STYLE_FILL_AREA ( #123 ) ;
#39 = ADVANCED_FACE ( 'NONE', ( #11 ), #36, .F. ) ;
#40 = FILL_AREA_STYLE ('',( #275 ) ) ;
#41 = PRESENTATION_LAYER_ASSIGNMENT (  '', '', ( #262 ) ) ;
#42 = DIRECTION ( 'NONE',  ( 1.000000000000000000, 4.898587196589414924E-17, 0.000000000000000000 ) ) ;
#43 = FACE_OUTER_BOUND ( 'NONE', #225, .T. ) ;
#44 = FILL_AREA_STYLE ('',( #215 ) ) ;
#45 = DIMENSIONAL_EXPONENTS ( 1.000000000000000000, 0.000000000000000000, 0.000000000000000000, 0.000000000000000000, 0.000000000000000000, 0.000000000000000000, 0.000000000000000000 ) ;
#46 = MECHANICAL_DESIGN_GEOMETRIC_PRESENTATION_REPRESENTATION (  '', ( #65 ), #7 ) ;
#47 = DIRECTION ( 'NONE',  ( -0.000000000000000000, -1.000000000000000000, -0.000000000000000000 ) ) ;
#48 = LINE ( 'NONE', #210, #144 ) ;
#49 = CARTESIAN_POINT ( 'NONE',  ( 0.000000000000000000, 1.000000000000000000, 0.000000000000000000 ) ) ;
#50 = CARTESIAN_POINT ( 'NONE',  ( 0.000000000000000000, 1.000000000000000222, 0.000000000000000000 ) ) ;
#51 = CARTESIAN_POINT ( 'NONE',  ( 0.000000000000000000, 1.000000000000000000, 0.000000000000000000 ) ) ;
#52 = CLOSED_SHELL ( 'NONE', ( #129, #83, #125, #176 ) ) ;
#53 = DIRECTION ( 'NONE',  ( 0.000000000000000000, 0.000000000000000000, -1.000000000000000000 ) ) ;
#54 = DIRECTION ( 'NONE',  ( -4.898587196589414924E-17, 1.000000000000000000, -0.000000000000000000 ) ) ;
#55 = VERTEX_POINT ( 'NONE', #12 ) ;
#56 =( GEOMETRIC_REPRESENTATION_CONTEXT ( 3 ) GLOBAL_UNCERTAINTY_ASSIGNED_CONTEXT ( ( #152 ) ) GLOBAL_UNIT_ASSIGNED_CONTEXT ( ( #250, #255, #232 ) ) REPRESENTATION_CONTEXT ( 'NONE', 'WORKASPACE' ) );
#57 =( CONVERSION_BASED_UNIT ( 'INCH', #249 ) LENGTH_UNIT ( ) NAMED_UNIT ( #158 ) );
#58 = CARTESIAN_POINT ( 'NONE',  ( 0.000000000000000000, 0.000000000000000000, -0.1875000000000000278 ) ) ;
#59 = MECHANICAL_DESIGN_GEOMETRIC_PRESENTATION_REPRESENTATION (  '', ( #244 ), #108 ) ;
#60 = CARTESIAN_POINT ( 'NONE',  ( 0.000000000000000000, 1.000000000000000222, 0.000000000000000000 ) ) ;
#61 = EDGE_CURVE ( 'NONE', #104, #114, #71, .T. ) ;
#62 = DIRECTION ( 'NONE',  ( -1.000000000000000000, 0.000000000000000000, 0.000000000000000000 ) ) ;
#63 = VERTEX_POINT ( 'NONE', #297 ) ;
#64 =( CONVERSION_BASED_UNIT ( 'INCH', #211 ) LENGTH_UNIT ( ) NAMED_UNIT ( #45 ) );
#65 = STYLED_ITEM ( 'NONE', ( #157 ), #247 ) ;
#66 = COLOUR_RGB ( '',0.7921568627450980005, 0.8196078431372548767, 0.9333333333333333481 ) ;
#67 = PRODUCT_DEFINITION_SHAPE ( 'NONE', 'NONE',  #277 ) ;
#68 = SURFACE_STYLE_USAGE ( .BOTH. , #170 ) ;
#69 =( CONVERSION_BASED_UNIT ( 'INCH', #74 ) LENGTH_UNIT ( ) NAMED_UNIT ( #107 ) );
#70 = LENGTH_MEASURE_WITH_UNIT ( LENGTH_MEASURE( 0.02539999999999999897 ), #105 );
#71 = CIRCLE ( 'NONE', #307, 0.1875000000000000278 ) ;
#72 = ORIENTED_EDGE ( 'NONE', *, *, #226, .F. ) ;
#73 = UNCERTAINTY_MEASURE_WITH_UNIT (LENGTH_MEASURE( 1.000000000000000082E-05 ), #69, 'distance_accuracy_value', 'NONE');
#74 = LENGTH_MEASURE_WITH_UNIT ( LENGTH_MEASURE( 0.02539999999999999897 ), #267 );
#75 = ORIENTED_EDGE ( 'NONE', *, *, #260, .T. ) ;
#76 = SURFACE_STYLE_FILL_AREA ( #245 ) ;
#77 =( LENGTH_UNIT ( ) NAMED_UNIT ( * ) SI_UNIT ( $, .METRE. ) );
#78 = STYLED_ITEM ( 'NONE', ( #79 ), #125 ) ;
#79 = PRESENTATION_STYLE_ASSIGNMENT (( #179 ) ) ;
#80 = PLANE ( 'NONE',  #281 ) ;
#81 = CYLINDRICAL_SURFACE ( 'NONE', #159, 0.1875000000000000278 ) ;
#82 =( LENGTH_UNIT ( ) NAMED_UNIT ( * ) SI_UNIT ( $, .METRE. ) );
#83 = ADVANCED_FACE ( 'NONE', ( #116 ), #146, .T. ) ;
#84 = SURFACE_STYLE_USAGE ( .BOTH. , #233 ) ;
#85 = UNCERTAINTY_MEASURE_WITH_UNIT (LENGTH_MEASURE( 1.000000000000000082E-05 ), #195, 'distance_accuracy_value', 'NONE');
#86 = DIRECTION ( 'NONE',  ( -0.000000000000000000, -1.000000000000000000, -0.000000000000000000 ) ) ;
#87 = CIRCLE ( 'NONE', #266, 0.1875000000000002498 ) ;
#88 = DIRECTION ( 'NONE',  ( 0.000000000000000000, 0.000000000000000000, -1.000000000000000000 ) ) ;
#89 = ORIENTED_EDGE ( 'NONE', *, *, #251, .T. ) ;
#90 = MECHANICAL_DESIGN_GEOMETRIC_PRESENTATION_REPRESENTATION (  '', ( #262 ), #218 ) ;
#91 = CYLINDRICAL_SURFACE ( 'NONE', #203, 0.1875000000000001110 ) ;
#92 = EDGE_CURVE ( 'NONE', #95, #104, #271, .T. ) ;
#93 = MECHANICAL_DESIGN_GEOMETRIC_PRESENTATION_REPRESENTATION (  '', ( #13 ), #133 ) ;
#94 = CARTESIAN_POINT ( 'NONE',  ( 0.000000000000000000, 1.000000000000000000, 0.000000000000000000 ) ) ;
#95 = VERTEX_POINT ( 'NONE', #18 ) ;
#96 = FACE_OUTER_BOUND ( 'NONE', #33, .T. ) ;
#97 =( NAMED_UNIT ( * ) PLANE_ANGLE_UNIT ( ) SI_UNIT ( $, .RADIAN. ) );
#98 = MECHANICAL_DESIGN_GEOMETRIC_PRESENTATION_REPRESENTATION (  '', ( #127 ), #160 ) ;
#99 = CARTESIAN_POINT ( 'NONE',  ( 0.1874999999999998890, 6.000000000000000888, 2.296212748401288650E-17 ) ) ;
#100 = DIRECTION ( 'NONE',  ( 1.000000000000000000, 0.000000000000000000, 0.000000000000000000 ) ) ;
#101 = DIRECTION ( 'NONE',  ( -4.898587196589414924E-17, 1.000000000000000000, -0.000000000000000000 ) ) ;
#102 = AXIS2_PLACEMENT_3D ( 'NONE', #293, #223, #174 ) ;
#103 = PRESENTATION_STYLE_ASSIGNMENT (( #280 ) ) ;
#104 = VERTEX_POINT ( 'NONE', #58 ) ;
#105 =( LENGTH_UNIT ( ) NAMED_UNIT ( * ) SI_UNIT ( $, .METRE. ) );
#106 = FILL_AREA_STYLE ('',( #164 ) ) ;
#107 = DIMENSIONAL_EXPONENTS ( 1.000000000000000000, 0.000000000000000000, 0.000000000000000000, 0.000000000000000000, 0.000000000000000000, 0.000000000000000000, 0.000000000000000000 ) ;
#108 =( GEOMETRIC_REPRESENTATION_CONTEXT ( 3 ) GLOBAL_UNCERTAINTY_ASSIGNED_CONTEXT ( ( #85 ) ) GLOBAL_UNIT_ASSIGNED_CONTEXT ( ( #195, #265, #118 ) ) REPRESENTATION_CONTEXT ( 'NONE', 'WORKASPACE' ) );
#109 = ADVANCED_FACE ( 'NONE', ( #228 ), #80, .F. ) ;
#110 = DIRECTION ( 'NONE',  ( 0.000000000000000000, 0.000000000000000000, -1.000000000000000000 ) ) ;
#111 =( NAMED_UNIT ( * ) SI_UNIT ( $, .STERADIAN. ) SOLID_ANGLE_UNIT ( ) );
#112 = EDGE_LOOP ( 'NONE', ( #194, #161 ) ) ;
#113 = LINE ( 'NONE', #263, #290 ) ;
#114 = VERTEX_POINT ( 'NONE', #206 ) ;
#115 = EDGE_CURVE ( 'NONE', #63, #279, #252, .T. ) ;
#116 = FACE_OUTER_BOUND ( 'NONE', #185, .T. ) ;
#117 = SURFACE_SIDE_STYLE ('',( #173 ) ) ;
#118 =( NAMED_UNIT ( * ) SI_UNIT ( $, .STERADIAN. ) SOLID_ANGLE_UNIT ( ) );
#119 = VERTEX_POINT ( 'NONE', #128 ) ;
#120 = CARTESIAN_POINT ( 'NONE',  ( 0.1875000000000000278, 6.000000000000000888, 2.296212748401289883E-17 ) ) ;
#121 = COLOUR_RGB ( '',1.000000000000000000, 0.000000000000000000, 0.000000000000000000 ) ;
#122 = FILL_AREA_STYLE_COLOUR ( '', #199 ) ;
#123 = FILL_AREA_STYLE ('',( #155 ) ) ;
#124 = DIRECTION ( 'NONE',  ( 0.000000000000000000, -0.000000000000000000, 1.000000000000000000 ) ) ;
#125 = ADVANCED_FACE ( 'NONE', ( #96 ), #81, .T. ) ;
#126 = SURFACE_SIDE_STYLE ('',( #38 ) ) ;
#127 = STYLED_ITEM ( 'NONE', ( #242 ), #253 ) ;
#128 = CARTESIAN_POINT ( 'NONE',  ( -0.1875000000000000278, 1.000000000000000222, 0.000000000000000000 ) ) ;
#129 = ADVANCED_FACE ( 'NONE', ( #43 ), #273, .T. ) ;
#130 = SURFACE_SIDE_STYLE ('',( #205 ) ) ;
#131 = SURFACE_STYLE_FILL_AREA ( #44 ) ;
#132 = ORIENTED_EDGE ( 'NONE', *, *, #148, .T. ) ;
#133 =( GEOMETRIC_REPRESENTATION_CONTEXT ( 3 ) GLOBAL_UNCERTAINTY_ASSIGNED_CONTEXT ( ( #257 ) ) GLOBAL_UNIT_ASSIGNED_CONTEXT ( ( #64, #26, #111 ) ) REPRESENTATION_CONTEXT ( 'NONE', 'WORKASPACE' ) );
#134 = DIRECTION ( 'NONE',  ( -0.000000000000000000, -1.000000000000000000, -0.000000000000000000 ) ) ;
#135 = ORIENTED_EDGE ( 'NONE', *, *, #226, .T. ) ;
#136 = DIRECTION ( 'NONE',  ( -4.898587196589414924E-17, 1.000000000000000000, -0.000000000000000000 ) ) ;
#137 = ORIENTED_EDGE ( 'NONE', *, *, #61, .T. ) ;
#138 = CARTESIAN_POINT ( 'NONE',  ( 0.000000000000000000, 0.000000000000000000, 0.000000000000000000 ) ) ;
#139 = VERTEX_POINT ( 'NONE', #182 ) ;
#140 = DIRECTION ( 'NONE',  ( -1.000000000000000000, 0.000000000000000000, 0.000000000000000000 ) ) ;
#141 = CARTESIAN_POINT ( 'NONE',  ( 0.000000000000000000, 0.000000000000000000, 0.000000000000000000 ) ) ;
#142 = DIRECTION ( 'NONE',  ( -4.898587196589414924E-17, 1.000000000000000000, -0.000000000000000000 ) ) ;
#143 =( LENGTH_UNIT ( ) NAMED_UNIT ( * ) SI_UNIT ( $, .METRE. ) );
#144 = VECTOR ( 'NONE', #134, 39.37007874015748143 ) ;
#145 =( NAMED_UNIT ( * ) SI_UNIT ( $, .STERADIAN. ) SOLID_ANGLE_UNIT ( ) );
#146 = PLANE ( 'NONE',  #192 ) ;
#147 = UNCERTAINTY_MEASURE_WITH_UNIT (LENGTH_MEASURE( 1.000000000000000082E-05 ), #57, 'distance_accuracy_value', 'NONE');
#148 = EDGE_CURVE ( 'NONE', #139, #114, #48, .T. ) ;
#149 = ORIENTED_EDGE ( 'NONE', *, *, #251, .F. ) ;
#150 = SHAPE_DEFINITION_REPRESENTATION ( #67, #278 ) ;
#151 = DIRECTION ( 'NONE',  ( -0.000000000000000000, -1.000000000000000000, -0.000000000000000000 ) ) ;
#152 = UNCERTAINTY_MEASURE_WITH_UNIT (LENGTH_MEASURE( 1.000000000000000082E-05 ), #250, 'distance_accuracy_value', 'NONE');
#153 = CARTESIAN_POINT ( 'NONE',  ( 0.1875000000000000278, 6.000000000000000888, 0.000000000000000000 ) ) ;
#154 = CIRCLE ( 'NONE', #186, 0.1875000000000000278 ) ;
#155 = FILL_AREA_STYLE_COLOUR ( '', #294 ) ;
#156 = DIRECTION ( 'NONE',  ( -1.000000000000000000, 0.000000000000000000, 0.000000000000000000 ) ) ;
#157 = PRESENTATION_STYLE_ASSIGNMENT (( #84 ) ) ;
#158 = DIMENSIONAL_EXPONENTS ( 1.000000000000000000, 0.000000000000000000, 0.000000000000000000, 0.000000000000000000, 0.000000000000000000, 0.000000000000000000, 0.000000000000000000 ) ;
#159 = AXIS2_PLACEMENT_3D ( 'NONE', #231, #304, #298 ) ;
#160 =( GEOMETRIC_REPRESENTATION_CONTEXT ( 3 ) GLOBAL_UNCERTAINTY_ASSIGNED_CONTEXT ( ( #73 ) ) GLOBAL_UNIT_ASSIGNED_CONTEXT ( ( #69, #32, #145 ) ) REPRESENTATION_CONTEXT ( 'NONE', 'WORKASPACE' ) );
#161 = ORIENTED_EDGE ( 'NONE', *, *, #190, .F. ) ;
#162 = EDGE_CURVE ( 'NONE', #139, #95, #154, .T. ) ;
#163 = DIMENSIONAL_EXPONENTS ( 1.000000000000000000, 0.000000000000000000, 0.000000000000000000, 0.000000000000000000, 0.000000000000000000, 0.000000000000000000, 0.000000000000000000 ) ;
#164 = FILL_AREA_STYLE_COLOUR ( '', #121 ) ;
#165 = SURFACE_SIDE_STYLE ('',( #22 ) ) ;
#166 = CLOSED_SHELL ( 'NONE', ( #207, #39, #16, #109 ) ) ;
#167 = PRODUCT ( '82944', '82944', '', ( #274 ) ) ;
#168 = APPLICATION_PROTOCOL_DEFINITION ( 'draft international standard', 'automotive_design', 1998, #224 ) ;
#169 = DIRECTION ( 'NONE',  ( 0.000000000000000000, 0.000000000000000000, -1.000000000000000000 ) ) ;
#170 = SURFACE_SIDE_STYLE ('',( #76 ) ) ;
#171 = VECTOR ( 'NONE', #151, 39.37007874015748143 ) ;
#172 = PRESENTATION_LAYER_ASSIGNMENT (  '', '', ( #127 ) ) ;
#173 = SURFACE_STYLE_FILL_AREA ( #35 ) ;
#174 = DIRECTION ( 'NONE',  ( -1.000000000000000000, -4.898587196589414924E-17, 0.000000000000000000 ) ) ;
#175 = PRESENTATION_STYLE_ASSIGNMENT (( #68 ) ) ;
#176 = ADVANCED_FACE ( 'NONE', ( #2 ), #187, .T. ) ;
#177 = PRESENTATION_LAYER_ASSIGNMENT (  '', '', ( #65 ) ) ;
#178 = CIRCLE ( 'NONE', #193, 0.1875000000000000278 ) ;
#179 = SURFACE_STYLE_USAGE ( .BOTH. , #126 ) ;
#180 = SURFACE_STYLE_USAGE ( .BOTH. , #130 ) ;
#181 = AXIS2_PLACEMENT_3D ( 'NONE', #285, #183, #62 ) ;
#182 = CARTESIAN_POINT ( 'NONE',  ( 2.296212748401287726E-17, 1.000000000000000000, 0.1875000000000000278 ) ) ;
#183 = DIRECTION ( 'NONE',  ( -4.898587196589414924E-17, 1.000000000000000000, -0.000000000000000000 ) ) ;
#184 = CARTESIAN_POINT ( 'NONE',  ( 0.000000000000000000, 0.000000000000000000, 0.000000000000000000 ) ) ;
#185 = EDGE_LOOP ( 'NONE', ( #23, #31 ) ) ;
#186 = AXIS2_PLACEMENT_3D ( 'NONE', #49, #86, #305 ) ;
#187 = PLANE ( 'NONE',  #230 ) ;
#188 = DIRECTION ( 'NONE',  ( -1.000000000000000000, 0.000000000000000000, 0.000000000000000000 ) ) ;
#189 = DIMENSIONAL_EXPONENTS ( 1.000000000000000000, 0.000000000000000000, 0.000000000000000000, 0.000000000000000000, 0.000000000000000000, 0.000000000000000000, 0.000000000000000000 ) ;
#190 = EDGE_CURVE ( 'NONE', #63, #119, #302, .T. ) ;
#191 = DIRECTION ( 'NONE',  ( -0.000000000000000000, -1.000000000000000000, -0.000000000000000000 ) ) ;
#192 = AXIS2_PLACEMENT_3D ( 'NONE', #94, #202, #124 ) ;
#193 = AXIS2_PLACEMENT_3D ( 'NONE', #138, #191, #295 ) ;
#194 = ORIENTED_EDGE ( 'NONE', *, *, #301, .F. ) ;
#195 =( CONVERSION_BASED_UNIT ( 'INCH', #9 ) LENGTH_UNIT ( ) NAMED_UNIT ( #306 ) );
#196 =( CONVERSION_BASED_UNIT ( 'INCH', #70 ) LENGTH_UNIT ( ) NAMED_UNIT ( #189 ) );
#197 = PRODUCT_RELATED_PRODUCT_CATEGORY ( 'part', '', ( #167 ) ) ;
#198 = ORIENTED_EDGE ( 'NONE', *, *, #260, .F. ) ;
#199 = COLOUR_RGB ( '',1.000000000000000000, 0.000000000000000000, 0.000000000000000000 ) ;
#200 =( NAMED_UNIT ( * ) PLANE_ANGLE_UNIT ( ) SI_UNIT ( $, .RADIAN. ) );
#201 = ORIENTED_EDGE ( 'NONE', *, *, #190, .T. ) ;
#202 = DIRECTION ( 'NONE',  ( 0.000000000000000000, 1.000000000000000000, 0.000000000000000000 ) ) ;
#203 = AXIS2_PLACEMENT_3D ( 'NONE', #221, #291, #296 ) ;
#204 = DIRECTION ( 'NONE',  ( 4.898587196589414924E-17, -1.000000000000000000, 0.000000000000000000 ) ) ;
#205 = SURFACE_STYLE_FILL_AREA ( #40 ) ;
#206 = CARTESIAN_POINT ( 'NONE',  ( 2.296212748401287726E-17, 0.000000000000000000, 0.1875000000000000278 ) ) ;
#207 = ADVANCED_FACE ( 'NONE', ( #209 ), #256, .T. ) ;
#208 = COLOUR_RGB ( '',0.7921568627450980005, 0.8196078431372548767, 0.9333333333333333481 ) ;
#209 = FACE_OUTER_BOUND ( 'NONE', #284, .T. ) ;
#210 = CARTESIAN_POINT ( 'NONE',  ( 2.296212748401287726E-17, 0.000000000000000000, 0.1875000000000000278 ) ) ;
#211 = LENGTH_MEASURE_WITH_UNIT ( LENGTH_MEASURE( 0.02539999999999999897 ), #236 );
#212 = AXIS2_PLACEMENT_3D ( 'NONE', #60, #136, #156 ) ;
#213 = DIRECTION ( 'NONE',  ( -4.898587196589414924E-17, 1.000000000000000000, -0.000000000000000000 ) ) ;
#214 = ORIENTED_EDGE ( 'NONE', *, *, #61, .F. ) ;
#215 = FILL_AREA_STYLE_COLOUR ( '', #208 ) ;
#216 = ORIENTED_EDGE ( 'NONE', *, *, #148, .F. ) ;
#217 = DIRECTION ( 'NONE',  ( -0.000000000000000000, -1.000000000000000000, -0.000000000000000000 ) ) ;
#218 =( GEOMETRIC_REPRESENTATION_CONTEXT ( 3 ) GLOBAL_UNCERTAINTY_ASSIGNED_CONTEXT ( ( #147 ) ) GLOBAL_UNIT_ASSIGNED_CONTEXT ( ( #57, #97, #17 ) ) REPRESENTATION_CONTEXT ( 'NONE', 'WORKASPACE' ) );
#219 =( GEOMETRIC_REPRESENTATION_CONTEXT ( 3 ) GLOBAL_UNCERTAINTY_ASSIGNED_CONTEXT ( ( #254 ) ) GLOBAL_UNIT_ASSIGNED_CONTEXT ( ( #4, #200, #287 ) ) REPRESENTATION_CONTEXT ( 'NONE', 'WORKASPACE' ) );
#220 = FILL_AREA_STYLE_COLOUR ( '', #66 ) ;
#221 = CARTESIAN_POINT ( 'NONE',  ( -2.449293598294707400E-16, 6.000000000000000888, 0.000000000000000000 ) ) ;
#222 =( LENGTH_UNIT ( ) NAMED_UNIT ( * ) SI_UNIT ( $, .METRE. ) );
#223 = DIRECTION ( 'NONE',  ( -4.898587196589414924E-17, 1.000000000000000000, 0.000000000000000000 ) ) ;
#224 = APPLICATION_CONTEXT ( 'automotive_design' ) ;
#225 = EDGE_LOOP ( 'NONE', ( #243, #132, #214, #288 ) ) ;
#226 = EDGE_CURVE ( 'NONE', #279, #55, #87, .T. ) ;
#227 = APPLICATION_PROTOCOL_DEFINITION ( 'draft international standard', 'automotive_design', 1998, #8 ) ;
#228 = FACE_OUTER_BOUND ( 'NONE', #282, .T. ) ;
#229 = CIRCLE ( 'NONE', #181, 0.1875000000000002498 ) ;
#230 = AXIS2_PLACEMENT_3D ( 'NONE', #184, #283, #110 ) ;
#231 = CARTESIAN_POINT ( 'NONE',  ( 0.000000000000000000, 0.000000000000000000, 0.000000000000000000 ) ) ;
#232 =( NAMED_UNIT ( * ) SI_UNIT ( $, .STERADIAN. ) SOLID_ANGLE_UNIT ( ) );
#233 = SURFACE_SIDE_STYLE ('',( #131 ) ) ;
#234 = COLOUR_RGB ( '',1.000000000000000000, 0.000000000000000000, 0.000000000000000000 ) ;
#235 = EDGE_CURVE ( 'NONE', #55, #279, #229, .T. ) ;
#236 =( LENGTH_UNIT ( ) NAMED_UNIT ( * ) SI_UNIT ( $, .METRE. ) );
#237 = DIRECTION ( 'NONE',  ( -1.000000000000000000, 0.000000000000000000, 0.000000000000000000 ) ) ;
#238 = PRESENTATION_LAYER_ASSIGNMENT (  '', '', ( #78 ) ) ;
#239 = ORIENTED_EDGE ( 'NONE', *, *, #235, .T. ) ;
#240 = SURFACE_STYLE_USAGE ( .BOTH. , #117 ) ;
#241 = EDGE_LOOP ( 'NONE', ( #137, #89 ) ) ;
#242 = PRESENTATION_STYLE_ASSIGNMENT (( #240 ) ) ;
#243 = ORIENTED_EDGE ( 'NONE', *, *, #27, .T. ) ;
#244 = STYLED_ITEM ( 'NONE', ( #175 ), #83 ) ;
#245 = FILL_AREA_STYLE ('',( #122 ) ) ;
#246 = DIRECTION ( 'NONE',  ( -0.000000000000000000, -1.000000000000000000, -0.000000000000000000 ) ) ;
#247 = MANIFOLD_SOLID_BREP ( 'Revolve - Tool Body (Straight Shanked)', #166 ) ;
#248 = AXIS2_PLACEMENT_3D ( 'NONE', #50, #142, #140 ) ;
#249 = LENGTH_MEASURE_WITH_UNIT ( LENGTH_MEASURE( 0.02539999999999999897 ), #77 );
#250 =( CONVERSION_BASED_UNIT ( 'INCH', #15 ) LENGTH_UNIT ( ) NAMED_UNIT ( #163 ) );
#251 = EDGE_CURVE ( 'NONE', #114, #104, #178, .T. ) ;
#252 = LINE ( 'NONE', #99, #299 ) ;
#253 = MANIFOLD_SOLID_BREP ( 'Revolve - Cutting Edge', #52 ) ;
#254 = UNCERTAINTY_MEASURE_WITH_UNIT (LENGTH_MEASURE( 1.000000000000000082E-05 ), #4, 'distance_accuracy_value', 'NONE');
#255 =( NAMED_UNIT ( * ) PLANE_ANGLE_UNIT ( ) SI_UNIT ( $, .RADIAN. ) );
#256 = CYLINDRICAL_SURFACE ( 'NONE', #276, 0.1875000000000001110 ) ;
#257 = UNCERTAINTY_MEASURE_WITH_UNIT (LENGTH_MEASURE( 1.000000000000000082E-05 ), #64, 'distance_accuracy_value', 'NONE');
#258 = AXIS2_PLACEMENT_3D ( 'NONE', #261, #47, #88 ) ;
#259 = CARTESIAN_POINT ( 'NONE',  ( -2.449293598294707400E-16, 6.000000000000000888, 0.000000000000000000 ) ) ;
#260 = EDGE_CURVE ( 'NONE', #119, #55, #113, .T. ) ;
#261 = CARTESIAN_POINT ( 'NONE',  ( 0.000000000000000000, 0.000000000000000000, 0.000000000000000000 ) ) ;
#262 = STYLED_ITEM ( 'NONE', ( #19 ), #129 ) ;
#263 = CARTESIAN_POINT ( 'NONE',  ( -0.1875000000000003608, 6.000000000000000888, 0.000000000000000000 ) ) ;
#264 = ORIENTED_EDGE ( 'NONE', *, *, #162, .T. ) ;
#265 =( NAMED_UNIT ( * ) PLANE_ANGLE_UNIT ( ) SI_UNIT ( $, .RADIAN. ) );
#266 = AXIS2_PLACEMENT_3D ( 'NONE', #259, #213, #188 ) ;
#267 =( LENGTH_UNIT ( ) NAMED_UNIT ( * ) SI_UNIT ( $, .METRE. ) );
#268 = ORIENTED_EDGE ( 'NONE', *, *, #301, .T. ) ;
#269 = CARTESIAN_POINT ( 'NONE',  ( 0.000000000000000000, 0.000000000000000000, -0.1875000000000000278 ) ) ;
#270 = AXIS2_PLACEMENT_3D ( 'NONE', #272, #300, #100 ) ;
#271 = LINE ( 'NONE', #269, #171 ) ;
#272 = CARTESIAN_POINT ( 'NONE',  ( 0.000000000000000000, 0.000000000000000000, 0.000000000000000000 ) ) ;
#273 = CYLINDRICAL_SURFACE ( 'NONE', #258, 0.1875000000000000278 ) ;
#274 = PRODUCT_CONTEXT ( 'NONE', #224, 'mechanical' ) ;
#275 = FILL_AREA_STYLE_COLOUR ( '', #234 ) ;
#276 = AXIS2_PLACEMENT_3D ( 'NONE', #25, #1, #237 ) ;
#277 = PRODUCT_DEFINITION ( 'UNKNOWN', '', #308, #34 ) ;
#278 = ADVANCED_BREP_SHAPE_REPRESENTATION ( '82944', ( #253, #247, #270 ), #219 ) ;
#279 = VERTEX_POINT ( 'NONE', #120 ) ;
#280 = SURFACE_STYLE_USAGE ( .BOTH. , #165 ) ;
#281 = AXIS2_PLACEMENT_3D ( 'NONE', #153, #204, #42 ) ;
#282 = EDGE_LOOP ( 'NONE', ( #239, #135 ) ) ;
#283 = DIRECTION ( 'NONE',  ( 0.000000000000000000, -1.000000000000000000, -0.000000000000000000 ) ) ;
#284 = EDGE_LOOP ( 'NONE', ( #268, #14, #286, #198 ) ) ;
#285 = CARTESIAN_POINT ( 'NONE',  ( -2.449293598294707400E-16, 6.000000000000000888, 0.000000000000000000 ) ) ;
#286 = ORIENTED_EDGE ( 'NONE', *, *, #235, .F. ) ;
#287 =( NAMED_UNIT ( * ) SI_UNIT ( $, .STERADIAN. ) SOLID_ANGLE_UNIT ( ) );
#288 = ORIENTED_EDGE ( 'NONE', *, *, #92, .F. ) ;
#289 = PRESENTATION_LAYER_ASSIGNMENT (  '', '', ( #244 ) ) ;
#290 = VECTOR ( 'NONE', #54, 39.37007874015748143 ) ;
#291 = DIRECTION ( 'NONE',  ( -4.898587196589414924E-17, 1.000000000000000000, -0.000000000000000000 ) ) ;
#292 =( NAMED_UNIT ( * ) PLANE_ANGLE_UNIT ( ) SI_UNIT ( $, .RADIAN. ) );
#293 = CARTESIAN_POINT ( 'NONE',  ( 2.249639673992788293E-34, 1.000000000000000000, 0.000000000000000000 ) ) ;
#294 = COLOUR_RGB ( '',1.000000000000000000, 0.000000000000000000, 0.000000000000000000 ) ;
#295 = DIRECTION ( 'NONE',  ( 0.000000000000000000, 0.000000000000000000, -1.000000000000000000 ) ) ;
#296 = DIRECTION ( 'NONE',  ( -1.000000000000000000, 0.000000000000000000, 0.000000000000000000 ) ) ;
#297 = CARTESIAN_POINT ( 'NONE',  ( 0.1875000000000000278, 1.000000000000000222, 2.296212748401289883E-17 ) ) ;
#298 = DIRECTION ( 'NONE',  ( 0.000000000000000000, 0.000000000000000000, -1.000000000000000000 ) ) ;
#299 = VECTOR ( 'NONE', #101, 39.37007874015748143 ) ;
#300 = DIRECTION ( 'NONE',  ( 0.000000000000000000, 0.000000000000000000, 1.000000000000000000 ) ) ;
#301 = EDGE_CURVE ( 'NONE', #119, #63, #303, .T. ) ;
#302 = CIRCLE ( 'NONE', #212, 0.1875000000000000278 ) ;
#303 = CIRCLE ( 'NONE', #248, 0.1875000000000000278 ) ;
#304 = DIRECTION ( 'NONE',  ( -0.000000000000000000, -1.000000000000000000, -0.000000000000000000 ) ) ;
#305 = DIRECTION ( 'NONE',  ( 0.000000000000000000, 0.000000000000000000, -1.000000000000000000 ) ) ;
#306 = DIMENSIONAL_EXPONENTS ( 1.000000000000000000, 0.000000000000000000, 0.000000000000000000, 0.000000000000000000, 0.000000000000000000, 0.000000000000000000, 0.000000000000000000 ) ;
#307 = AXIS2_PLACEMENT_3D ( 'NONE', #141, #246, #169 ) ;
#308 = PRODUCT_DEFINITION_FORMATION_WITH_SPECIFIED_SOURCE ( 'ANY', '', #167, .NOT_KNOWN. ) ;
#309 = ORIENTED_EDGE ( 'NONE', *, *, #92, .T. ) ;
ENDSEC;
END-ISO-10303-21;
