ISO-10303-21;
HEADER;
FILE_DESCRIPTION (( 'STEP AP214' ),
    '1' );
FILE_NAME ('23270.STEP',
    '2023-06-22T16:45:37',
    ( '' ),
    ( '' ),
    'SwSTEP 2.0',
    'SolidWorks 2023',
    '' );
FILE_SCHEMA (( 'AUTOMOTIVE_DESIGN' ));
ENDSEC;

DATA;
#1 = SURFACE_STYLE_USAGE ( .BOTH. , #214 ) ;
#2 = FACE_OUTER_BOUND ( 'NONE', #169, .T. ) ;
#3 =( NAMED_UNIT ( * ) PLANE_ANGLE_UNIT ( ) SI_UNIT ( $, .RADIAN. ) );
#4 = EDGE_LOOP ( 'NONE', ( #16, #40, #8, #119 ) ) ;
#5 =( GEOMETRIC_REPRESENTATION_CONTEXT ( 3 ) GLOBAL_UNCERTAINTY_ASSIGNED_CONTEXT ( ( #270 ) ) GLOBAL_UNIT_ASSIGNED_CONTEXT ( ( #68, #118, #283 ) ) REPRESENTATION_CONTEXT ( 'NONE', 'WORKASPACE' ) );
#6 =( GEOMETRIC_REPRESENTATION_CONTEXT ( 3 ) GLOBAL_UNCERTAINTY_ASSIGNED_CONTEXT ( ( #285 ) ) GLOBAL_UNIT_ASSIGNED_CONTEXT ( ( #20, #162, #61 ) ) REPRESENTATION_CONTEXT ( 'NONE', 'WORKASPACE' ) );
#7 =( CONVERSION_BASED_UNIT ( 'INCH', #199 ) LENGTH_UNIT ( ) NAMED_UNIT ( #216 ) );
#8 = ORIENTED_EDGE ( 'NONE', *, *, #124, .T. ) ;
#9 = DIRECTION ( 'NONE',  ( -1.000000000000000000, 0.000000000000000000, 0.000000000000000000 ) ) ;
#10 =( NAMED_UNIT ( * ) SI_UNIT ( $, .STERADIAN. ) SOLID_ANGLE_UNIT ( ) );
#11 = DIRECTION ( 'NONE',  ( 0.000000000000000000, 0.000000000000000000, -1.000000000000000000 ) ) ;
#12 = ADVANCED_FACE ( 'NONE', ( #228 ), #35, .T. ) ;
#13 = AXIS2_PLACEMENT_3D ( 'NONE', #75, #152, #300 ) ;
#14 = CARTESIAN_POINT ( 'NONE',  ( 0.000000000000000000, 0.000000000000000000, -0.3125000000000000000 ) ) ;
#15 = AXIS2_PLACEMENT_3D ( 'NONE', #197, #290, #125 ) ;
#16 = ORIENTED_EDGE ( 'NONE', *, *, #140, .F. ) ;
#17 = FILL_AREA_STYLE ('',( #303 ) ) ;
#18 = LENGTH_MEASURE_WITH_UNIT ( LENGTH_MEASURE( 0.02539999999999999897 ), #159 );
#19 = PRESENTATION_LAYER_ASSIGNMENT (  '', '', ( #160 ) ) ;
#20 =( CONVERSION_BASED_UNIT ( 'INCH', #109 ) LENGTH_UNIT ( ) NAMED_UNIT ( #65 ) );
#21 = FACE_OUTER_BOUND ( 'NONE', #154, .T. ) ;
#22 = ADVANCED_FACE ( 'NONE', ( #2 ), #93, .T. ) ;
#23 = CLOSED_SHELL ( 'NONE', ( #84, #294, #246, #180 ) ) ;
#24 = CARTESIAN_POINT ( 'NONE',  ( 0.000000000000000000, 2.125000000000000000, 0.000000000000000000 ) ) ;
#25 =( GEOMETRIC_REPRESENTATION_CONTEXT ( 3 ) GLOBAL_UNCERTAINTY_ASSIGNED_CONTEXT ( ( #54 ) ) GLOBAL_UNIT_ASSIGNED_CONTEXT ( ( #237, #3, #90 ) ) REPRESENTATION_CONTEXT ( 'NONE', 'WORKASPACE' ) );
#26 = DIRECTION ( 'NONE',  ( -3.265724797726275178E-17, 1.000000000000000000, 0.000000000000000000 ) ) ;
#27 = FILL_AREA_STYLE ('',( #263 ) ) ;
#28 = PRESENTATION_LAYER_ASSIGNMENT (  '', '', ( #44 ) ) ;
#29 = FILL_AREA_STYLE_COLOUR ( '', #203 ) ;
#30 = DIRECTION ( 'NONE',  ( -3.265724797726275178E-17, 1.000000000000000000, -0.000000000000000000 ) ) ;
#31 = CARTESIAN_POINT ( 'NONE',  ( 0.000000000000000000, 0.000000000000000000, 0.000000000000000000 ) ) ;
#32 = ADVANCED_FACE ( 'NONE', ( #248 ), #151, .T. ) ;
#33 =( NAMED_UNIT ( * ) PLANE_ANGLE_UNIT ( ) SI_UNIT ( $, .RADIAN. ) );
#34 = CARTESIAN_POINT ( 'NONE',  ( 3.827021247335478926E-17, 0.000000000000000000, 0.3125000000000000000 ) ) ;
#35 = CYLINDRICAL_SURFACE ( 'NONE', #15, 0.3125000000000000000 ) ;
#36 = CIRCLE ( 'NONE', #135, 0.3125000000000000000 ) ;
#37 = VERTEX_POINT ( 'NONE', #297 ) ;
#38 = EDGE_CURVE ( 'NONE', #37, #280, #41, .T. ) ;
#39 = APPLICATION_PROTOCOL_DEFINITION ( 'draft international standard', 'automotive_design', 1998, #74 ) ;
#40 = ORIENTED_EDGE ( 'NONE', *, *, #56, .T. ) ;
#41 = CIRCLE ( 'NONE', #166, 0.3125000000000000555 ) ;
#42 =( NAMED_UNIT ( * ) SI_UNIT ( $, .STERADIAN. ) SOLID_ANGLE_UNIT ( ) );
#43 = DIRECTION ( 'NONE',  ( 0.000000000000000000, -1.000000000000000000, -0.000000000000000000 ) ) ;
#44 = STYLED_ITEM ( 'NONE', ( #306 ), #213 ) ;
#45 = CARTESIAN_POINT ( 'NONE',  ( -6.123233995736766036E-17, 4.000000000000000000, 0.000000000000000000 ) ) ;
#46 =( LENGTH_UNIT ( ) NAMED_UNIT ( * ) SI_UNIT ( $, .METRE. ) );
#47 = APPLICATION_PROTOCOL_DEFINITION ( 'draft international standard', 'automotive_design', 1998, #51 ) ;
#48 = COLOUR_RGB ( '',0.7921568627450980005, 0.8196078431372548767, 0.9333333333333333481 ) ;
#49 =( CONVERSION_BASED_UNIT ( 'INCH', #192 ) LENGTH_UNIT ( ) NAMED_UNIT ( #148 ) );
#50 = DIMENSIONAL_EXPONENTS ( 1.000000000000000000, 0.000000000000000000, 0.000000000000000000, 0.000000000000000000, 0.000000000000000000, 0.000000000000000000, 0.000000000000000000 ) ;
#51 = APPLICATION_CONTEXT ( 'automotive_design' ) ;
#52 = CARTESIAN_POINT ( 'NONE',  ( 3.827021247335478926E-17, 0.000000000000000000, 0.3125000000000000000 ) ) ;
#53 = VERTEX_POINT ( 'NONE', #14 ) ;
#54 = UNCERTAINTY_MEASURE_WITH_UNIT (LENGTH_MEASURE( 1.000000000000000082E-05 ), #237, 'distance_accuracy_value', 'NONE');
#55 = ORIENTED_EDGE ( 'NONE', *, *, #206, .F. ) ;
#56 = EDGE_CURVE ( 'NONE', #104, #250, #305, .T. ) ;
#57 = SURFACE_SIDE_STYLE ('',( #67 ) ) ;
#58 =( NAMED_UNIT ( * ) PLANE_ANGLE_UNIT ( ) SI_UNIT ( $, .RADIAN. ) );
#59 = SURFACE_STYLE_FILL_AREA ( #77 ) ;
#60 = PRESENTATION_STYLE_ASSIGNMENT (( #273 ) ) ;
#61 =( NAMED_UNIT ( * ) SI_UNIT ( $, .STERADIAN. ) SOLID_ANGLE_UNIT ( ) );
#62 = PRODUCT_DEFINITION_FORMATION_WITH_SPECIFIED_SOURCE ( 'ANY', '', #150, .NOT_KNOWN. ) ;
#63 = FACE_OUTER_BOUND ( 'NONE', #4, .T. ) ;
#64 = AXIS2_PLACEMENT_3D ( 'NONE', #24, #281, #240 ) ;
#65 = DIMENSIONAL_EXPONENTS ( 1.000000000000000000, 0.000000000000000000, 0.000000000000000000, 0.000000000000000000, 0.000000000000000000, 0.000000000000000000, 0.000000000000000000 ) ;
#66 = ORIENTED_EDGE ( 'NONE', *, *, #140, .T. ) ;
#67 = SURFACE_STYLE_FILL_AREA ( #144 ) ;
#68 =( CONVERSION_BASED_UNIT ( 'INCH', #115 ) LENGTH_UNIT ( ) NAMED_UNIT ( #234 ) );
#69 = DIRECTION ( 'NONE',  ( -0.000000000000000000, -1.000000000000000000, -0.000000000000000000 ) ) ;
#70 = DIRECTION ( 'NONE',  ( -1.000000000000000000, 0.000000000000000000, 0.000000000000000000 ) ) ;
#71 = ADVANCED_BREP_SHAPE_REPRESENTATION ( '23270', ( #163, #265, #198 ), #25 ) ;
#72 = CARTESIAN_POINT ( 'NONE',  ( -6.123233995736766036E-17, 4.000000000000000000, 0.000000000000000000 ) ) ;
#73 = DIRECTION ( 'NONE',  ( -0.000000000000000000, -1.000000000000000000, -0.000000000000000000 ) ) ;
#74 = APPLICATION_CONTEXT ( 'automotive_design' ) ;
#75 = CARTESIAN_POINT ( 'NONE',  ( 0.000000000000000000, 2.125000000000000000, 0.000000000000000000 ) ) ;
#76 = CARTESIAN_POINT ( 'NONE',  ( -6.123233995736766036E-17, 4.000000000000000000, 0.000000000000000000 ) ) ;
#77 = FILL_AREA_STYLE ('',( #29 ) ) ;
#78 = AXIS2_PLACEMENT_3D ( 'NONE', #85, #43, #137 ) ;
#79 = EDGE_LOOP ( 'NONE', ( #184, #298 ) ) ;
#80 = ORIENTED_EDGE ( 'NONE', *, *, #274, .F. ) ;
#81 = SURFACE_STYLE_USAGE ( .BOTH. , #106 ) ;
#82 = COLOUR_RGB ( '',1.000000000000000000, 0.000000000000000000, 0.000000000000000000 ) ;
#83 = CIRCLE ( 'NONE', #108, 0.3125000000000000000 ) ;
#84 = ADVANCED_FACE ( 'NONE', ( #196 ), #289, .T. ) ;
#85 = CARTESIAN_POINT ( 'NONE',  ( 0.000000000000000000, 0.000000000000000000, 0.000000000000000000 ) ) ;
#86 = MECHANICAL_DESIGN_GEOMETRIC_PRESENTATION_REPRESENTATION (  '', ( #277 ), #187 ) ;
#87 = CARTESIAN_POINT ( 'NONE',  ( -0.3125000000000000000, 2.125000000000000000, 0.000000000000000000 ) ) ;
#88 = EDGE_CURVE ( 'NONE', #53, #302, #282, .T. ) ;
#89 = MECHANICAL_DESIGN_GEOMETRIC_PRESENTATION_REPRESENTATION (  '', ( #160 ), #254 ) ;
#90 =( NAMED_UNIT ( * ) SI_UNIT ( $, .STERADIAN. ) SOLID_ANGLE_UNIT ( ) );
#91 = UNCERTAINTY_MEASURE_WITH_UNIT (LENGTH_MEASURE( 1.000000000000000082E-05 ), #111, 'distance_accuracy_value', 'NONE');
#92 = EDGE_CURVE ( 'NONE', #242, #103, #83, .T. ) ;
#93 = CYLINDRICAL_SURFACE ( 'NONE', #241, 0.3125000000000000000 ) ;
#94 = SURFACE_STYLE_FILL_AREA ( #27 ) ;
#95 =( NAMED_UNIT ( * ) SI_UNIT ( $, .STERADIAN. ) SOLID_ANGLE_UNIT ( ) );
#96 = PRODUCT_DEFINITION_SHAPE ( 'NONE', 'NONE',  #260 ) ;
#97 = CIRCLE ( 'NONE', #13, 0.3125000000000000000 ) ;
#98 = AXIS2_PLACEMENT_3D ( 'NONE', #45, #139, #70 ) ;
#99 = EDGE_CURVE ( 'NONE', #103, #242, #97, .T. ) ;
#100 = DIRECTION ( 'NONE',  ( -0.000000000000000000, -1.000000000000000000, -0.000000000000000000 ) ) ;
#101 = FILL_AREA_STYLE_COLOUR ( '', #220 ) ;
#102 = DIRECTION ( 'NONE',  ( 0.000000000000000000, 0.000000000000000000, -1.000000000000000000 ) ) ;
#103 = VERTEX_POINT ( 'NONE', #209 ) ;
#104 = VERTEX_POINT ( 'NONE', #255 ) ;
#105 = SURFACE_STYLE_FILL_AREA ( #17 ) ;
#106 = SURFACE_SIDE_STYLE ('',( #105 ) ) ;
#107 = PRESENTATION_LAYER_ASSIGNMENT (  '', '', ( #117 ) ) ;
#108 = AXIS2_PLACEMENT_3D ( 'NONE', #293, #100, #295 ) ;
#109 = LENGTH_MEASURE_WITH_UNIT ( LENGTH_MEASURE( 0.02539999999999999897 ), #46 );
#110 = LINE ( 'NONE', #272, #233 ) ;
#111 =( CONVERSION_BASED_UNIT ( 'INCH', #18 ) LENGTH_UNIT ( ) NAMED_UNIT ( #210 ) );
#112 = MECHANICAL_DESIGN_GEOMETRIC_PRESENTATION_REPRESENTATION (  '', ( #44 ), #258 ) ;
#113 = LINE ( 'NONE', #218, #236 ) ;
#114 = ORIENTED_EDGE ( 'NONE', *, *, #38, .T. ) ;
#115 = LENGTH_MEASURE_WITH_UNIT ( LENGTH_MEASURE( 0.02539999999999999897 ), #238 );
#116 = ORIENTED_EDGE ( 'NONE', *, *, #279, .F. ) ;
#117 = STYLED_ITEM ( 'NONE', ( #168 ), #22 ) ;
#118 =( NAMED_UNIT ( * ) PLANE_ANGLE_UNIT ( ) SI_UNIT ( $, .RADIAN. ) );
#119 = ORIENTED_EDGE ( 'NONE', *, *, #38, .F. ) ;
#120 = LINE ( 'NONE', #243, #179 ) ;
#121 = DIRECTION ( 'NONE',  ( 0.000000000000000000, -0.000000000000000000, 1.000000000000000000 ) ) ;
#122 = PLANE ( 'NONE',  #292 ) ;
#123 = DIRECTION ( 'NONE',  ( -3.265724797726275178E-17, 1.000000000000000000, -0.000000000000000000 ) ) ;
#124 = EDGE_CURVE ( 'NONE', #250, #280, #110, .T. ) ;
#125 = DIRECTION ( 'NONE',  ( 0.000000000000000000, 0.000000000000000000, -1.000000000000000000 ) ) ;
#126 = SHAPE_DEFINITION_REPRESENTATION ( #96, #71 ) ;
#127 = SURFACE_SIDE_STYLE ('',( #245 ) ) ;
#128 = DIRECTION ( 'NONE',  ( -1.000000000000000000, 0.000000000000000000, 0.000000000000000000 ) ) ;
#129 = PRESENTATION_LAYER_ASSIGNMENT (  '', '', ( #226 ) ) ;
#130 = AXIS2_PLACEMENT_3D ( 'NONE', #194, #202, #121 ) ;
#131 = FILL_AREA_STYLE ('',( #101 ) ) ;
#132 = PRESENTATION_STYLE_ASSIGNMENT (( #167 ) ) ;
#133 = DIRECTION ( 'NONE',  ( 0.000000000000000000, 0.000000000000000000, -1.000000000000000000 ) ) ;
#134 = EDGE_LOOP ( 'NONE', ( #284, #66, #80, #190 ) ) ;
#135 = AXIS2_PLACEMENT_3D ( 'NONE', #232, #307, #102 ) ;
#136 = SURFACE_STYLE_USAGE ( .BOTH. , #127 ) ;
#137 = DIRECTION ( 'NONE',  ( 0.000000000000000000, 0.000000000000000000, -1.000000000000000000 ) ) ;
#138 = CIRCLE ( 'NONE', #183, 0.3125000000000000555 ) ;
#139 = DIRECTION ( 'NONE',  ( -3.265724797726275178E-17, 1.000000000000000000, -0.000000000000000000 ) ) ;
#140 = EDGE_CURVE ( 'NONE', #104, #37, #120, .T. ) ;
#141 = AXIS2_PLACEMENT_3D ( 'NONE', #177, #123, #128 ) ;
#142 = LENGTH_MEASURE_WITH_UNIT ( LENGTH_MEASURE( 0.02539999999999999897 ), #308 );
#143 = DIRECTION ( 'NONE',  ( -3.265724797726275178E-17, 1.000000000000000000, -0.000000000000000000 ) ) ;
#144 = FILL_AREA_STYLE ('',( #178 ) ) ;
#145 = CARTESIAN_POINT ( 'NONE',  ( -6.123233995736766036E-17, 4.000000000000000000, 0.000000000000000000 ) ) ;
#146 = PRESENTATION_LAYER_ASSIGNMENT (  '', '', ( #277 ) ) ;
#147 = AXIS2_PLACEMENT_3D ( 'NONE', #31, #224, #11 ) ;
#148 = DIMENSIONAL_EXPONENTS ( 1.000000000000000000, 0.000000000000000000, 0.000000000000000000, 0.000000000000000000, 0.000000000000000000, 0.000000000000000000, 0.000000000000000000 ) ;
#149 = DIRECTION ( 'NONE',  ( -3.265724797726275178E-17, 1.000000000000000000, -0.000000000000000000 ) ) ;
#150 = PRODUCT ( '23270', '23270', '', ( #229 ) ) ;
#151 = PLANE ( 'NONE',  #130 ) ;
#152 = DIRECTION ( 'NONE',  ( -0.000000000000000000, -1.000000000000000000, -0.000000000000000000 ) ) ;
#153 = STYLED_ITEM ( 'NONE', ( #205 ), #163 ) ;
#154 = EDGE_LOOP ( 'NONE', ( #286, #271 ) ) ;
#155 = UNCERTAINTY_MEASURE_WITH_UNIT (LENGTH_MEASURE( 1.000000000000000082E-05 ), #211, 'distance_accuracy_value', 'NONE');
#156 = EDGE_LOOP ( 'NONE', ( #252, #264, #299, #55 ) ) ;
#157 = EDGE_CURVE ( 'NONE', #242, #302, #253, .T. ) ;
#158 = DIMENSIONAL_EXPONENTS ( 1.000000000000000000, 0.000000000000000000, 0.000000000000000000, 0.000000000000000000, 0.000000000000000000, 0.000000000000000000, 0.000000000000000000 ) ;
#159 =( LENGTH_UNIT ( ) NAMED_UNIT ( * ) SI_UNIT ( $, .METRE. ) );
#160 = STYLED_ITEM ( 'NONE', ( #171 ), #265 ) ;
#161 =( NAMED_UNIT ( * ) PLANE_ANGLE_UNIT ( ) SI_UNIT ( $, .RADIAN. ) );
#162 =( NAMED_UNIT ( * ) PLANE_ANGLE_UNIT ( ) SI_UNIT ( $, .RADIAN. ) );
#163 = MANIFOLD_SOLID_BREP ( 'Revolve - Cutting Edge', #176 ) ;
#164 = CYLINDRICAL_SURFACE ( 'NONE', #98, 0.3125000000000000000 ) ;
#165 = MECHANICAL_DESIGN_GEOMETRIC_PRESENTATION_REPRESENTATION (  '', ( #117 ), #5 ) ;
#166 = AXIS2_PLACEMENT_3D ( 'NONE', #76, #223, #9 ) ;
#167 = SURFACE_STYLE_USAGE ( .BOTH. , #261 ) ;
#168 = PRESENTATION_STYLE_ASSIGNMENT (( #222 ) ) ;
#169 = EDGE_LOOP ( 'NONE', ( #225, #247, #217, #116 ) ) ;
#170 = CARTESIAN_POINT ( 'NONE',  ( 0.000000000000000000, 0.000000000000000000, 0.000000000000000000 ) ) ;
#171 = PRESENTATION_STYLE_ASSIGNMENT (( #1 ) ) ;
#172 = EDGE_LOOP ( 'NONE', ( #201, #114 ) ) ;
#173 = UNCERTAINTY_MEASURE_WITH_UNIT (LENGTH_MEASURE( 1.000000000000000082E-05 ), #49, 'distance_accuracy_value', 'NONE');
#174 = PLANE ( 'NONE',  #221 ) ;
#175 = DIRECTION ( 'NONE',  ( -3.265724797726275178E-17, 1.000000000000000000, -0.000000000000000000 ) ) ;
#176 = CLOSED_SHELL ( 'NONE', ( #22, #32, #12, #213 ) ) ;
#177 = CARTESIAN_POINT ( 'NONE',  ( 0.000000000000000000, 2.125000000000000000, 0.000000000000000000 ) ) ;
#178 = FILL_AREA_STYLE_COLOUR ( '', #82 ) ;
#179 = VECTOR ( 'NONE', #30, 39.37007874015748143 ) ;
#180 = ADVANCED_FACE ( 'NONE', ( #256 ), #122, .F. ) ;
#181 =( LENGTH_UNIT ( ) NAMED_UNIT ( * ) SI_UNIT ( $, .METRE. ) );
#182 = EDGE_LOOP ( 'NONE', ( #219, #230 ) ) ;
#183 = AXIS2_PLACEMENT_3D ( 'NONE', #145, #143, #189 ) ;
#184 = ORIENTED_EDGE ( 'NONE', *, *, #99, .F. ) ;
#185 = SURFACE_STYLE_FILL_AREA ( #131 ) ;
#186 =( LENGTH_UNIT ( ) NAMED_UNIT ( * ) SI_UNIT ( $, .METRE. ) );
#187 =( GEOMETRIC_REPRESENTATION_CONTEXT ( 3 ) GLOBAL_UNCERTAINTY_ASSIGNED_CONTEXT ( ( #262 ) ) GLOBAL_UNIT_ASSIGNED_CONTEXT ( ( #7, #58, #95 ) ) REPRESENTATION_CONTEXT ( 'NONE', 'WORKASPACE' ) );
#188 = CARTESIAN_POINT ( 'NONE',  ( 0.3125000000000000000, 4.000000000000000000, 0.000000000000000000 ) ) ;
#189 = DIRECTION ( 'NONE',  ( -1.000000000000000000, 0.000000000000000000, 0.000000000000000000 ) ) ;
#190 = ORIENTED_EDGE ( 'NONE', *, *, #124, .F. ) ;
#191 = PRODUCT_RELATED_PRODUCT_CATEGORY ( 'part', '', ( #150 ) ) ;
#192 = LENGTH_MEASURE_WITH_UNIT ( LENGTH_MEASURE( 0.02539999999999999897 ), #212 );
#193 = VECTOR ( 'NONE', #231, 39.37007874015748143 ) ;
#194 = CARTESIAN_POINT ( 'NONE',  ( 0.000000000000000000, 2.125000000000000000, 0.000000000000000000 ) ) ;
#195 =( NAMED_UNIT ( * ) SI_UNIT ( $, .STERADIAN. ) SOLID_ANGLE_UNIT ( ) );
#196 = FACE_OUTER_BOUND ( 'NONE', #134, .T. ) ;
#197 = CARTESIAN_POINT ( 'NONE',  ( 0.000000000000000000, 0.000000000000000000, 0.000000000000000000 ) ) ;
#198 = AXIS2_PLACEMENT_3D ( 'NONE', #170, #251, #268 ) ;
#199 = LENGTH_MEASURE_WITH_UNIT ( LENGTH_MEASURE( 0.02539999999999999897 ), #181 );
#200 = SURFACE_SIDE_STYLE ('',( #185 ) ) ;
#201 = ORIENTED_EDGE ( 'NONE', *, *, #274, .T. ) ;
#202 = DIRECTION ( 'NONE',  ( 0.000000000000000000, 1.000000000000000000, 0.000000000000000000 ) ) ;
#203 = COLOUR_RGB ( '',1.000000000000000000, 0.000000000000000000, 0.000000000000000000 ) ;
#204 = CIRCLE ( 'NONE', #64, 0.3125000000000000000 ) ;
#205 = PRESENTATION_STYLE_ASSIGNMENT (( #136 ) ) ;
#206 = EDGE_CURVE ( 'NONE', #302, #53, #36, .T. ) ;
#207 = DIRECTION ( 'NONE',  ( 1.000000000000000000, 3.265724797726275178E-17, 0.000000000000000000 ) ) ;
#208 = COLOUR_RGB ( '',1.000000000000000000, 0.000000000000000000, 0.000000000000000000 ) ;
#209 = CARTESIAN_POINT ( 'NONE',  ( 0.000000000000000000, 2.125000000000000000, -0.3125000000000000000 ) ) ;
#210 = DIMENSIONAL_EXPONENTS ( 1.000000000000000000, 0.000000000000000000, 0.000000000000000000, 0.000000000000000000, 0.000000000000000000, 0.000000000000000000, 0.000000000000000000 ) ;
#211 =( CONVERSION_BASED_UNIT ( 'INCH', #275 ) LENGTH_UNIT ( ) NAMED_UNIT ( #50 ) );
#212 =( LENGTH_UNIT ( ) NAMED_UNIT ( * ) SI_UNIT ( $, .METRE. ) );
#213 = ADVANCED_FACE ( 'NONE', ( #21 ), #301, .T. ) ;
#214 = SURFACE_SIDE_STYLE ('',( #94 ) ) ;
#215 = DIRECTION ( 'NONE',  ( -1.000000000000000000, -3.265724797726275178E-17, 0.000000000000000000 ) ) ;
#216 = DIMENSIONAL_EXPONENTS ( 1.000000000000000000, 0.000000000000000000, 0.000000000000000000, 0.000000000000000000, 0.000000000000000000, 0.000000000000000000, 0.000000000000000000 ) ;
#217 = ORIENTED_EDGE ( 'NONE', *, *, #88, .F. ) ;
#218 = CARTESIAN_POINT ( 'NONE',  ( 0.000000000000000000, 0.000000000000000000, -0.3125000000000000000 ) ) ;
#219 = ORIENTED_EDGE ( 'NONE', *, *, #304, .F. ) ;
#220 = COLOUR_RGB ( '',1.000000000000000000, 0.000000000000000000, 0.000000000000000000 ) ;
#221 = AXIS2_PLACEMENT_3D ( 'NONE', #259, #26, #215 ) ;
#222 = SURFACE_STYLE_USAGE ( .BOTH. , #57 ) ;
#223 = DIRECTION ( 'NONE',  ( -3.265724797726275178E-17, 1.000000000000000000, -0.000000000000000000 ) ) ;
#224 = DIRECTION ( 'NONE',  ( -0.000000000000000000, -1.000000000000000000, -0.000000000000000000 ) ) ;
#225 = ORIENTED_EDGE ( 'NONE', *, *, #99, .T. ) ;
#226 = STYLED_ITEM ( 'NONE', ( #60 ), #12 ) ;
#227 = MECHANICAL_DESIGN_GEOMETRIC_PRESENTATION_REPRESENTATION (  '', ( #153 ), #6 ) ;
#228 = FACE_OUTER_BOUND ( 'NONE', #156, .T. ) ;
#229 = PRODUCT_CONTEXT ( 'NONE', #51, 'mechanical' ) ;
#230 = ORIENTED_EDGE ( 'NONE', *, *, #56, .F. ) ;
#231 = DIRECTION ( 'NONE',  ( -0.000000000000000000, -1.000000000000000000, -0.000000000000000000 ) ) ;
#232 = CARTESIAN_POINT ( 'NONE',  ( 0.000000000000000000, 0.000000000000000000, 0.000000000000000000 ) ) ;
#233 = VECTOR ( 'NONE', #175, 39.37007874015748143 ) ;
#234 = DIMENSIONAL_EXPONENTS ( 1.000000000000000000, 0.000000000000000000, 0.000000000000000000, 0.000000000000000000, 0.000000000000000000, 0.000000000000000000, 0.000000000000000000 ) ;
#235 =( NAMED_UNIT ( * ) PLANE_ANGLE_UNIT ( ) SI_UNIT ( $, .RADIAN. ) );
#236 = VECTOR ( 'NONE', #69, 39.37007874015748143 ) ;
#237 =( CONVERSION_BASED_UNIT ( 'INCH', #142 ) LENGTH_UNIT ( ) NAMED_UNIT ( #158 ) );
#238 =( LENGTH_UNIT ( ) NAMED_UNIT ( * ) SI_UNIT ( $, .METRE. ) );
#239 = CARTESIAN_POINT ( 'NONE',  ( -0.3125000000000001665, 4.000000000000000000, 0.000000000000000000 ) ) ;
#240 = DIRECTION ( 'NONE',  ( -1.000000000000000000, 0.000000000000000000, 0.000000000000000000 ) ) ;
#241 = AXIS2_PLACEMENT_3D ( 'NONE', #287, #73, #133 ) ;
#242 = VERTEX_POINT ( 'NONE', #276 ) ;
#243 = CARTESIAN_POINT ( 'NONE',  ( 0.3124999999999999445, 4.000000000000000000, 3.827021247335478926E-17 ) ) ;
#244 = DIRECTION ( 'NONE',  ( -1.000000000000000000, 0.000000000000000000, 0.000000000000000000 ) ) ;
#245 = SURFACE_STYLE_FILL_AREA ( #267 ) ;
#246 = ADVANCED_FACE ( 'NONE', ( #63 ), #164, .T. ) ;
#247 = ORIENTED_EDGE ( 'NONE', *, *, #157, .T. ) ;
#248 = FACE_OUTER_BOUND ( 'NONE', #79, .T. ) ;
#249 = COLOUR_RGB ( '',0.7921568627450980005, 0.8196078431372548767, 0.9333333333333333481 ) ;
#250 = VERTEX_POINT ( 'NONE', #87 ) ;
#251 = DIRECTION ( 'NONE',  ( 0.000000000000000000, 0.000000000000000000, 1.000000000000000000 ) ) ;
#252 = ORIENTED_EDGE ( 'NONE', *, *, #157, .F. ) ;
#253 = LINE ( 'NONE', #34, #193 ) ;
#254 =( GEOMETRIC_REPRESENTATION_CONTEXT ( 3 ) GLOBAL_UNCERTAINTY_ASSIGNED_CONTEXT ( ( #173 ) ) GLOBAL_UNIT_ASSIGNED_CONTEXT ( ( #49, #235, #195 ) ) REPRESENTATION_CONTEXT ( 'NONE', 'WORKASPACE' ) );
#255 = CARTESIAN_POINT ( 'NONE',  ( 0.3125000000000000000, 2.125000000000000000, 3.827021247335478926E-17 ) ) ;
#256 = FACE_OUTER_BOUND ( 'NONE', #172, .T. ) ;
#257 = MECHANICAL_DESIGN_GEOMETRIC_PRESENTATION_REPRESENTATION (  '', ( #226 ), #269 ) ;
#258 =( GEOMETRIC_REPRESENTATION_CONTEXT ( 3 ) GLOBAL_UNCERTAINTY_ASSIGNED_CONTEXT ( ( #155 ) ) GLOBAL_UNIT_ASSIGNED_CONTEXT ( ( #211, #161, #42 ) ) REPRESENTATION_CONTEXT ( 'NONE', 'WORKASPACE' ) );
#259 = CARTESIAN_POINT ( 'NONE',  ( 1.666399758513175262E-34, 2.125000000000000000, 0.000000000000000000 ) ) ;
#260 = PRODUCT_DEFINITION ( 'UNKNOWN', '', #62, #296 ) ;
#261 = SURFACE_SIDE_STYLE ('',( #59 ) ) ;
#262 = UNCERTAINTY_MEASURE_WITH_UNIT (LENGTH_MEASURE( 1.000000000000000082E-05 ), #7, 'distance_accuracy_value', 'NONE');
#263 = FILL_AREA_STYLE_COLOUR ( '', #249 ) ;
#264 = ORIENTED_EDGE ( 'NONE', *, *, #92, .T. ) ;
#265 = MANIFOLD_SOLID_BREP ( 'Revolve - Tool Body (Straight Shanked)', #23 ) ;
#266 = AXIS2_PLACEMENT_3D ( 'NONE', #72, #149, #244 ) ;
#267 = FILL_AREA_STYLE ('',( #291 ) ) ;
#268 = DIRECTION ( 'NONE',  ( 1.000000000000000000, 0.000000000000000000, 0.000000000000000000 ) ) ;
#269 =( GEOMETRIC_REPRESENTATION_CONTEXT ( 3 ) GLOBAL_UNCERTAINTY_ASSIGNED_CONTEXT ( ( #91 ) ) GLOBAL_UNIT_ASSIGNED_CONTEXT ( ( #111, #33, #10 ) ) REPRESENTATION_CONTEXT ( 'NONE', 'WORKASPACE' ) );
#270 = UNCERTAINTY_MEASURE_WITH_UNIT (LENGTH_MEASURE( 1.000000000000000082E-05 ), #68, 'distance_accuracy_value', 'NONE');
#271 = ORIENTED_EDGE ( 'NONE', *, *, #206, .T. ) ;
#272 = CARTESIAN_POINT ( 'NONE',  ( -0.3125000000000000555, 4.000000000000000000, 0.000000000000000000 ) ) ;
#273 = SURFACE_STYLE_USAGE ( .BOTH. , #200 ) ;
#274 = EDGE_CURVE ( 'NONE', #280, #37, #138, .T. ) ;
#275 = LENGTH_MEASURE_WITH_UNIT ( LENGTH_MEASURE( 0.02539999999999999897 ), #186 );
#276 = CARTESIAN_POINT ( 'NONE',  ( 3.827021247335478926E-17, 2.125000000000000000, 0.3125000000000000000 ) ) ;
#277 = STYLED_ITEM ( 'NONE', ( #132 ), #32 ) ;
#278 = DIRECTION ( 'NONE',  ( 3.265724797726275178E-17, -1.000000000000000000, 0.000000000000000000 ) ) ;
#279 = EDGE_CURVE ( 'NONE', #103, #53, #113, .T. ) ;
#280 = VERTEX_POINT ( 'NONE', #239 ) ;
#281 = DIRECTION ( 'NONE',  ( -3.265724797726275178E-17, 1.000000000000000000, -0.000000000000000000 ) ) ;
#282 = CIRCLE ( 'NONE', #147, 0.3125000000000000000 ) ;
#283 =( NAMED_UNIT ( * ) SI_UNIT ( $, .STERADIAN. ) SOLID_ANGLE_UNIT ( ) );
#284 = ORIENTED_EDGE ( 'NONE', *, *, #304, .T. ) ;
#285 = UNCERTAINTY_MEASURE_WITH_UNIT (LENGTH_MEASURE( 1.000000000000000082E-05 ), #20, 'distance_accuracy_value', 'NONE');
#286 = ORIENTED_EDGE ( 'NONE', *, *, #88, .T. ) ;
#287 = CARTESIAN_POINT ( 'NONE',  ( 0.000000000000000000, 0.000000000000000000, 0.000000000000000000 ) ) ;
#288 = FACE_OUTER_BOUND ( 'NONE', #182, .T. ) ;
#289 = CYLINDRICAL_SURFACE ( 'NONE', #266, 0.3125000000000000000 ) ;
#290 = DIRECTION ( 'NONE',  ( -0.000000000000000000, -1.000000000000000000, -0.000000000000000000 ) ) ;
#291 = FILL_AREA_STYLE_COLOUR ( '', #48 ) ;
#292 = AXIS2_PLACEMENT_3D ( 'NONE', #188, #278, #207 ) ;
#293 = CARTESIAN_POINT ( 'NONE',  ( 0.000000000000000000, 2.125000000000000000, 0.000000000000000000 ) ) ;
#294 = ADVANCED_FACE ( 'NONE', ( #288 ), #174, .F. ) ;
#295 = DIRECTION ( 'NONE',  ( 0.000000000000000000, 0.000000000000000000, -1.000000000000000000 ) ) ;
#296 = PRODUCT_DEFINITION_CONTEXT ( 'detailed design', #74, 'design' ) ;
#297 = CARTESIAN_POINT ( 'NONE',  ( 0.3125000000000000000, 4.000000000000000000, 3.827021247335478926E-17 ) ) ;
#298 = ORIENTED_EDGE ( 'NONE', *, *, #92, .F. ) ;
#299 = ORIENTED_EDGE ( 'NONE', *, *, #279, .T. ) ;
#300 = DIRECTION ( 'NONE',  ( 0.000000000000000000, 0.000000000000000000, -1.000000000000000000 ) ) ;
#301 = PLANE ( 'NONE',  #78 ) ;
#302 = VERTEX_POINT ( 'NONE', #52 ) ;
#303 = FILL_AREA_STYLE_COLOUR ( '', #208 ) ;
#304 = EDGE_CURVE ( 'NONE', #250, #104, #204, .T. ) ;
#305 = CIRCLE ( 'NONE', #141, 0.3125000000000000000 ) ;
#306 = PRESENTATION_STYLE_ASSIGNMENT (( #81 ) ) ;
#307 = DIRECTION ( 'NONE',  ( -0.000000000000000000, -1.000000000000000000, -0.000000000000000000 ) ) ;
#308 =( LENGTH_UNIT ( ) NAMED_UNIT ( * ) SI_UNIT ( $, .METRE. ) );
#309 = PRESENTATION_LAYER_ASSIGNMENT (  '', '', ( #153 ) ) ;
ENDSEC;
END-ISO-10303-21;
