ISO-10303-21;
HEADER;
FILE_DESCRIPTION (( 'STEP AP214' ),
    '1' );
FILE_NAME ('Micro_AMRM-025-2X.STEP',
    '2021-09-01T17:18:40',
    ( '' ),
    ( '' ),
    'SwSTEP 2.0',
    'SolidWorks 2020',
    '' );
FILE_SCHEMA (( 'AUTOMOTIVE_DESIGN' ));
ENDSEC;

DATA;
#1 = ORIENTED_EDGE ( 'NONE', *, *, #5, .T. ) ;
#2 = AXIS2_PLACEMENT_3D ( 'NONE', #283, #213, #71 ) ;
#3 =( CONVERSION_BASED_UNIT ( 'INCH', #208 ) LENGTH_UNIT ( ) NAMED_UNIT ( #221 ) );
#4 = CARTESIAN_POINT ( 'NONE',  ( 3.857159805062494824E-17, 0.0000000000000000000, 0.3149609999999999910 ) ) ;
#5 = EDGE_CURVE ( 'NONE', #79, #163, #260, .T. ) ;
#6 = PRESENTATION_LAYER_ASSIGNMENT (  '', '', ( #22 ) ) ;
#7 = CYLINDRICAL_SURFACE ( 'NONE', #171, 0.07874000000000001831 ) ;
#8 = ORIENTED_EDGE ( 'NONE', *, *, #77, .F. ) ;
#9 = FACE_OUTER_BOUND ( 'NONE', #231, .T. ) ;
#10 = ORIENTED_EDGE ( 'NONE', *, *, #37, .F. ) ;
#11 = CARTESIAN_POINT ( 'NONE',  ( 0.04916328750000004827, 0.0000000000000000000, 0.3149609999999999910 ) ) ;
#12 = DIRECTION ( 'NONE',  ( -1.000000000000000000, 0.0000000000000000000, 0.0000000000000000000 ) ) ;
#13 = CONICAL_SURFACE ( 'NONE', #224, 0.04916328750000000664, 0.1745329251994339470 ) ;
#14 = DIRECTION ( 'NONE',  ( 0.0000000000000000000, 0.0000000000000000000, -1.000000000000000000 ) ) ;
#15 = PLANE ( 'NONE',  #45 ) ;
#16 = ORIENTED_EDGE ( 'NONE', *, *, #138, .F. ) ;
#17 = DIRECTION ( 'NONE',  ( -1.224646799147353207E-16, -0.0000000000000000000, -1.000000000000000000 ) ) ;
#18 = ADVANCED_FACE ( 'NONE', ( #102 ), #13, .T. ) ;
#19 = CARTESIAN_POINT ( 'NONE',  ( 0.0000000000000000000, 0.0000000000000000000, 0.0000000000000000000 ) ) ;
#20 = AXIS2_PLACEMENT_3D ( 'NONE', #54, #31, #144 ) ;
#21 = PRESENTATION_LAYER_ASSIGNMENT (  '', '', ( #134 ) ) ;
#22 = STYLED_ITEM ( 'NONE', ( #93 ), #207 ) ;
#23 = EDGE_CURVE ( 'NONE', #163, #79, #111, .T. ) ;
#24 = CARTESIAN_POINT ( 'NONE',  ( 0.0000000000000000000, 0.0000000000000000000, 1.968503999999999809 ) ) ;
#25 = DIRECTION ( 'NONE',  ( -1.224646799147353207E-16, -0.0000000000000000000, -1.000000000000000000 ) ) ;
#26 = EDGE_LOOP ( 'NONE', ( #8, #69, #108, #278 ) ) ;
#27 = CARTESIAN_POINT ( 'NONE',  ( -0.06374000000000018540, 0.0000000000000000000, 1.968503999999999809 ) ) ;
#28 = CARTESIAN_POINT ( 'NONE',  ( 0.0000000000000000000, 0.0000000000000000000, 1.968503999999999809 ) ) ;
#29 = ADVANCED_FACE ( 'NONE', ( #9 ), #15, .T. ) ;
#30 = VERTEX_POINT ( 'NONE', #210 ) ;
#31 = DIRECTION ( 'NONE',  ( 0.0000000000000000000, 0.0000000000000000000, 1.000000000000000000 ) ) ;
#32 = DIRECTION ( 'NONE',  ( 0.0000000000000000000, 0.0000000000000000000, -1.000000000000000000 ) ) ;
#33 = DIMENSIONAL_EXPONENTS ( 1.000000000000000000, 0.0000000000000000000, 0.0000000000000000000, 0.0000000000000000000, 0.0000000000000000000, 0.0000000000000000000, 0.0000000000000000000 ) ;
#34 = PRODUCT_RELATED_PRODUCT_CATEGORY ( 'part', '', ( #100 ) ) ;
#35 = CONICAL_SURFACE ( 'NONE', #183, 0.04916328750000000664, 0.1745329251994339470 ) ;
#36 = CARTESIAN_POINT ( 'NONE',  ( 5.911356284063818783E-17, 0.0000000000000000000, 0.4826988718853089111 ) ) ;
#37 = EDGE_CURVE ( 'NONE', #163, #142, #236, .T. ) ;
#38 = APPLICATION_PROTOCOL_DEFINITION ( 'draft international standard', 'automotive_design', 1998, #89 ) ;
#39 = VERTEX_POINT ( 'NONE', #47 ) ;
#40 = AXIS2_PLACEMENT_3D ( 'NONE', #19, #214, #66 ) ;
#41 = EDGE_CURVE ( 'NONE', #79, #248, #162, .T. ) ;
#42 = FACE_OUTER_BOUND ( 'NONE', #267, .T. ) ;
#43 = ORIENTED_EDGE ( 'NONE', *, *, #279, .F. ) ;
#44 = EDGE_CURVE ( 'NONE', #105, #285, #287, .T. ) ;
#45 = AXIS2_PLACEMENT_3D ( 'NONE', #28, #140, #186 ) ;
#46 =( LENGTH_UNIT ( ) NAMED_UNIT ( * ) SI_UNIT ( $, .METRE. ) );
#47 = CARTESIAN_POINT ( 'NONE',  ( 0.04916328750000004827, 0.0000000000000000000, 0.3149609999999999910 ) ) ;
#48 = UNCERTAINTY_MEASURE_WITH_UNIT (LENGTH_MEASURE( 1.000000000000000082E-05 ), #62, 'distance_accuracy_value', 'NONE');
#49 = VECTOR ( 'NONE', #73, 39.37007874015748143 ) ;
#50 = DIRECTION ( 'NONE',  ( 0.0000000000000000000, 0.0000000000000000000, -1.000000000000000000 ) ) ;
#51 = FACE_OUTER_BOUND ( 'NONE', #26, .T. ) ;
#52 = ORIENTED_EDGE ( 'NONE', *, *, #83, .F. ) ;
#53 = ORIENTED_EDGE ( 'NONE', *, *, #249, .F. ) ;
#54 = CARTESIAN_POINT ( 'NONE',  ( 0.0000000000000000000, 0.0000000000000000000, 1.968503999999999809 ) ) ;
#55 = ADVANCED_FACE ( 'NONE', ( #118 ), #7, .T. ) ;
#56 = ORIENTED_EDGE ( 'NONE', *, *, #160, .F. ) ;
#57 = DIRECTION ( 'NONE',  ( -1.000000000000000000, 0.0000000000000000000, 1.224646799147353207E-16 ) ) ;
#58 = ORIENTED_EDGE ( 'NONE', *, *, #41, .T. ) ;
#59 = FACE_OUTER_BOUND ( 'NONE', #270, .T. ) ;
#60 = EDGE_LOOP ( 'NONE', ( #228, #106, #176, #139 ) ) ;
#61 = ORIENTED_EDGE ( 'NONE', *, *, #41, .F. ) ;
#62 =( CONVERSION_BASED_UNIT ( 'INCH', #76 ) LENGTH_UNIT ( ) NAMED_UNIT ( #33 ) );
#63 = ORIENTED_EDGE ( 'NONE', *, *, #257, .F. ) ;
#64 = CIRCLE ( 'NONE', #81, 0.07874000000000001831 ) ;
#65 = ORIENTED_EDGE ( 'NONE', *, *, #290, .T. ) ;
#66 = DIRECTION ( 'NONE',  ( 1.000000000000000000, 0.0000000000000000000, -0.0000000000000000000 ) ) ;
#67 = AXIS2_PLACEMENT_3D ( 'NONE', #286, #32, #72 ) ;
#68 = ADVANCED_FACE ( 'NONE', ( #51 ), #35, .T. ) ;
#69 = ORIENTED_EDGE ( 'NONE', *, *, #290, .F. ) ;
#70 = AXIS2_PLACEMENT_3D ( 'NONE', #184, #112, #12 ) ;
#71 = DIRECTION ( 'NONE',  ( -1.000000000000000000, 0.0000000000000000000, 1.224646799147353207E-16 ) ) ;
#72 = DIRECTION ( 'NONE',  ( 1.000000000000000000, 0.0000000000000000000, 0.0000000000000000000 ) ) ;
#73 = DIRECTION ( 'NONE',  ( -1.224646799147353207E-16, -0.0000000000000000000, -1.000000000000000000 ) ) ;
#74 = AXIS2_PLACEMENT_3D ( 'NONE', #292, #80, #167 ) ;
#75 = DIRECTION ( 'NONE',  ( 0.0000000000000000000, 0.0000000000000000000, 1.000000000000000000 ) ) ;
#76 = LENGTH_MEASURE_WITH_UNIT ( LENGTH_MEASURE( 0.02539999999999999897 ), #46 );
#77 = EDGE_CURVE ( 'NONE', #105, #30, #133, .T. ) ;
#78 = LINE ( 'NONE', #11, #252 ) ;
#79 = VERTEX_POINT ( 'NONE', #27 ) ;
#80 = DIRECTION ( 'NONE',  ( -1.224646799147353207E-16, -0.0000000000000000000, -1.000000000000000000 ) ) ;
#81 = AXIS2_PLACEMENT_3D ( 'NONE', #95, #50, #120 ) ;
#82 = ORIENTED_EDGE ( 'NONE', *, *, #187, .T. ) ;
#83 = EDGE_CURVE ( 'NONE', #142, #248, #64, .T. ) ;
#84 = DIRECTION ( 'NONE',  ( 1.000000000000000000, 0.0000000000000000000, 0.0000000000000000000 ) ) ;
#85 = CIRCLE ( 'NONE', #74, 0.04916328750000000664 ) ;
#86 = SURFACE_STYLE_FILL_AREA ( #170 ) ;
#87 = PRODUCT_DEFINITION ( 'UNKNOWN', '', #173, #271 ) ;
#88 = FILL_AREA_STYLE_COLOUR ( '', #277 ) ;
#89 = APPLICATION_CONTEXT ( 'automotive_design' ) ;
#90 = CONICAL_SURFACE ( 'NONE', #218, 0.06374000000000018540, 0.7853981633974528309 ) ;
#91 =( GEOMETRIC_REPRESENTATION_CONTEXT ( 3 ) GLOBAL_UNCERTAINTY_ASSIGNED_CONTEXT ( ( #48 ) ) GLOBAL_UNIT_ASSIGNED_CONTEXT ( ( #62, #295, #199 ) ) REPRESENTATION_CONTEXT ( 'NONE', 'WORKASPACE' ) );
#92 = DIRECTION ( 'NONE',  ( -1.000000000000000000, 0.0000000000000000000, 1.224646799147353207E-16 ) ) ;
#93 = PRESENTATION_STYLE_ASSIGNMENT (( #276 ) ) ;
#94 = ADVANCED_FACE ( 'NONE', ( #185 ), #90, .T. ) ;
#95 = CARTESIAN_POINT ( 'NONE',  ( 0.0000000000000000000, 0.0000000000000000000, 1.953504000000000129 ) ) ;
#96 = CARTESIAN_POINT ( 'NONE',  ( 0.06374000000000018540, 7.805898697765251255E-18, 1.968503999999999809 ) ) ;
#97 = ORIENTED_EDGE ( 'NONE', *, *, #5, .F. ) ;
#98 = DIRECTION ( 'NONE',  ( 0.1736481776669314414, 0.0000000000000000000, 0.9848077530122077983 ) ) ;
#99 = AXIS2_PLACEMENT_3D ( 'NONE', #261, #204, #251 ) ;
#100 = PRODUCT ( 'Micro_AMRM-025-2X', 'Micro_AMRM-025-2X', '', ( #202 ) ) ;
#101 = DIRECTION ( 'NONE',  ( 1.000000000000000000, 0.0000000000000000000, 0.0000000000000000000 ) ) ;
#102 = FACE_OUTER_BOUND ( 'NONE', #230, .T. ) ;
#103 = CARTESIAN_POINT ( 'NONE',  ( 0.04916328749999999276, 6.020766267243607560E-18, -9.478001694819074349E-34 ) ) ;
#104 = CARTESIAN_POINT ( 'NONE',  ( 0.0000000000000000000, 0.0000000000000000000, 0.0000000000000000000 ) ) ;
#105 = VERTEX_POINT ( 'NONE', #237 ) ;
#106 = ORIENTED_EDGE ( 'NONE', *, *, #131, .T. ) ;
#107 = AXIS2_PLACEMENT_3D ( 'NONE', #298, #274, #84 ) ;
#108 = ORIENTED_EDGE ( 'NONE', *, *, #138, .T. ) ;
#109 = EDGE_CURVE ( 'NONE', #248, #142, #205, .T. ) ;
#110 = DIRECTION ( 'NONE',  ( -1.000000000000000000, 0.0000000000000000000, 0.0000000000000000000 ) ) ;
#111 = CIRCLE ( 'NONE', #158, 0.06374000000000018540 ) ;
#112 = DIRECTION ( 'NONE',  ( -0.0000000000000000000, -0.0000000000000000000, -1.000000000000000000 ) ) ;
#113 = VECTOR ( 'NONE', #238, 39.37007874015748143 ) ;
#114 = DIMENSIONAL_EXPONENTS ( 1.000000000000000000, 0.0000000000000000000, 0.0000000000000000000, 0.0000000000000000000, 0.0000000000000000000, 0.0000000000000000000, 0.0000000000000000000 ) ;
#115 = DIRECTION ( 'NONE',  ( -1.000000000000000000, 0.0000000000000000000, 0.0000000000000000000 ) ) ;
#116 = CARTESIAN_POINT ( 'NONE',  ( -0.07874000000000001831, 0.0000000000000000000, 1.968503999999999809 ) ) ;
#117 = ORIENTED_EDGE ( 'NONE', *, *, #254, .T. ) ;
#118 = FACE_OUTER_BOUND ( 'NONE', #181, .T. ) ;
#119 = CYLINDRICAL_SURFACE ( 'NONE', #70, 0.07874000000000001831 ) ;
#120 = DIRECTION ( 'NONE',  ( 1.000000000000000000, 0.0000000000000000000, 0.0000000000000000000 ) ) ;
#121 = VECTOR ( 'NONE', #239, 39.37007874015748143 ) ;
#122 =( NAMED_UNIT ( * ) SI_UNIT ( $, .STERADIAN. ) SOLID_ANGLE_UNIT ( ) );
#123 = CARTESIAN_POINT ( 'NONE',  ( 3.857159805062494824E-17, 0.0000000000000000000, 0.3149609999999999910 ) ) ;
#124 = EDGE_LOOP ( 'NONE', ( #272, #169, #223, #61 ) ) ;
#125 = CARTESIAN_POINT ( 'NONE',  ( 0.0000000000000000000, 0.0000000000000000000, 0.0000000000000000000 ) ) ;
#126 = CARTESIAN_POINT ( 'NONE',  ( 0.06374000000000018540, 8.724383797125754882E-18, 1.968503999999999809 ) ) ;
#127 = ORIENTED_EDGE ( 'NONE', *, *, #249, .T. ) ;
#128 = VECTOR ( 'NONE', #154, 39.37007874015748143 ) ;
#129 = PRESENTATION_STYLE_ASSIGNMENT (( #152 ) ) ;
#130 = ORIENTED_EDGE ( 'NONE', *, *, #187, .F. ) ;
#131 = EDGE_CURVE ( 'NONE', #39, #165, #188, .T. ) ;
#132 = FACE_OUTER_BOUND ( 'NONE', #153, .T. ) ;
#133 = LINE ( 'NONE', #196, #121 ) ;
#134 = STYLED_ITEM ( 'NONE', ( #129 ), #234 ) ;
#135 = AXIS2_PLACEMENT_3D ( 'NONE', #206, #25, #92 ) ;
#136 = DIRECTION ( 'NONE',  ( 0.7071067811865507924, 8.659560562354973534E-17, -0.7071067811865443531 ) ) ;
#137 = CARTESIAN_POINT ( 'NONE',  ( 3.857159805062494824E-17, 0.0000000000000000000, 0.3149609999999999910 ) ) ;
#138 = EDGE_CURVE ( 'NONE', #39, #281, #78, .T. ) ;
#139 = ORIENTED_EDGE ( 'NONE', *, *, #44, .F. ) ;
#140 = DIRECTION ( 'NONE',  ( 0.0000000000000000000, 0.0000000000000000000, 1.000000000000000000 ) ) ;
#141 = CIRCLE ( 'NONE', #203, 0.07874000000000001831 ) ;
#142 = VERTEX_POINT ( 'NONE', #193 ) ;
#143 = LINE ( 'NONE', #244, #128 ) ;
#144 = DIRECTION ( 'NONE',  ( 1.000000000000000000, 0.0000000000000000000, 0.0000000000000000000 ) ) ;
#145 = CARTESIAN_POINT ( 'NONE',  ( -0.04916328749999999276, 0.0000000000000000000, 1.204153253448721512E-17 ) ) ;
#146 = EDGE_CURVE ( 'NONE', #105, #39, #85, .T. ) ;
#147 = ORIENTED_EDGE ( 'NONE', *, *, #131, .F. ) ;
#148 = VECTOR ( 'NONE', #216, 39.37007874015748143 ) ;
#149 = MECHANICAL_DESIGN_GEOMETRIC_PRESENTATION_REPRESENTATION (  '', ( #22 ), #159 ) ;
#150 = ADVANCED_FACE ( 'NONE', ( #59 ), #235, .T. ) ;
#151 = CLOSED_SHELL ( 'NONE', ( #201, #18, #94, #55, #273, #29, #150, #68, #219, #212 ) ) ;
#152 = SURFACE_STYLE_USAGE ( .BOTH. , #175 ) ;
#153 = EDGE_LOOP ( 'NONE', ( #53, #161, #168, #56 ) ) ;
#154 = DIRECTION ( 'NONE',  ( -0.0000000000000000000, -0.0000000000000000000, -1.000000000000000000 ) ) ;
#155 = DIRECTION ( 'NONE',  ( 1.224646799147353207E-16, 0.0000000000000000000, 1.000000000000000000 ) ) ;
#156 = PLANE ( 'NONE',  #40 ) ;
#157 = DIRECTION ( 'NONE',  ( -1.000000000000000000, 0.0000000000000000000, 0.0000000000000000000 ) ) ;
#158 = AXIS2_PLACEMENT_3D ( 'NONE', #164, #75, #211 ) ;
#159 =( GEOMETRIC_REPRESENTATION_CONTEXT ( 3 ) GLOBAL_UNCERTAINTY_ASSIGNED_CONTEXT ( ( #200 ) ) GLOBAL_UNIT_ASSIGNED_CONTEXT ( ( #3, #177, #296 ) ) REPRESENTATION_CONTEXT ( 'NONE', 'WORKASPACE' ) );
#160 = EDGE_CURVE ( 'NONE', #281, #30, #141, .T. ) ;
#161 = ORIENTED_EDGE ( 'NONE', *, *, #83, .T. ) ;
#162 = LINE ( 'NONE', #288, #246 ) ;
#163 = VERTEX_POINT ( 'NONE', #126 ) ;
#164 = CARTESIAN_POINT ( 'NONE',  ( 0.0000000000000000000, 0.0000000000000000000, 1.968503999999999809 ) ) ;
#165 = VERTEX_POINT ( 'NONE', #103 ) ;
#166 = ORIENTED_EDGE ( 'NONE', *, *, #146, .F. ) ;
#167 = DIRECTION ( 'NONE',  ( -1.000000000000000000, 0.0000000000000000000, 0.0000000000000000000 ) ) ;
#168 = ORIENTED_EDGE ( 'NONE', *, *, #257, .T. ) ;
#169 = ORIENTED_EDGE ( 'NONE', *, *, #37, .T. ) ;
#170 = FILL_AREA_STYLE ('',( #192 ) ) ;
#171 = AXIS2_PLACEMENT_3D ( 'NONE', #266, #265, #157 ) ;
#172 = FACE_OUTER_BOUND ( 'NONE', #60, .T. ) ;
#173 = PRODUCT_DEFINITION_FORMATION_WITH_SPECIFIED_SOURCE ( 'ANY', '', #100, .NOT_KNOWN. ) ;
#174 = DIRECTION ( 'NONE',  ( -1.224646799147353207E-16, -0.0000000000000000000, -1.000000000000000000 ) ) ;
#175 = SURFACE_SIDE_STYLE ('',( #178 ) ) ;
#176 = ORIENTED_EDGE ( 'NONE', *, *, #254, .F. ) ;
#177 =( NAMED_UNIT ( * ) PLANE_ANGLE_UNIT ( ) SI_UNIT ( $, .RADIAN. ) );
#178 = SURFACE_STYLE_FILL_AREA ( #227 ) ;
#179 = CIRCLE ( 'NONE', #2, 0.04916328749999999276 ) ;
#180 = CYLINDRICAL_SURFACE ( 'NONE', #209, 0.04916328750000000664 ) ;
#181 = EDGE_LOOP ( 'NONE', ( #293, #127, #130, #63 ) ) ;
#182 = DIRECTION ( 'NONE',  ( -1.224646799147353207E-16, -0.0000000000000000000, -1.000000000000000000 ) ) ;
#183 = AXIS2_PLACEMENT_3D ( 'NONE', #137, #241, #217 ) ;
#184 = CARTESIAN_POINT ( 'NONE',  ( 0.0000000000000000000, 0.0000000000000000000, 1.968503999999999809 ) ) ;
#185 = FACE_OUTER_BOUND ( 'NONE', #124, .T. ) ;
#186 = DIRECTION ( 'NONE',  ( 1.000000000000000000, 0.0000000000000000000, -0.0000000000000000000 ) ) ;
#187 = EDGE_CURVE ( 'NONE', #30, #281, #299, .T. ) ;
#188 = LINE ( 'NONE', #294, #148 ) ;
#189 = MECHANICAL_DESIGN_GEOMETRIC_PRESENTATION_REPRESENTATION (  '', ( #134 ), #269 ) ;
#190 = COLOUR_RGB ( '',0.7921568627450980005, 0.8196078431372548767, 0.9333333333333333481 ) ;
#191 =( NAMED_UNIT ( * ) PLANE_ANGLE_UNIT ( ) SI_UNIT ( $, .RADIAN. ) );
#192 = FILL_AREA_STYLE_COLOUR ( '', #190 ) ;
#193 = CARTESIAN_POINT ( 'NONE',  ( 0.07874000000000001831, 9.642868896486260050E-18, 1.953504000000000129 ) ) ;
#194 = DIRECTION ( 'NONE',  ( -1.224646799147353207E-16, -0.0000000000000000000, -1.000000000000000000 ) ) ;
#195 = ORIENTED_EDGE ( 'NONE', *, *, #77, .T. ) ;
#196 = CARTESIAN_POINT ( 'NONE',  ( -0.04916328749999996500, 6.020766267243608331E-18, 0.3149609999999999910 ) ) ;
#197 =( LENGTH_UNIT ( ) NAMED_UNIT ( * ) SI_UNIT ( $, .METRE. ) );
#198 = FACE_OUTER_BOUND ( 'NONE', #263, .T. ) ;
#199 =( NAMED_UNIT ( * ) SI_UNIT ( $, .STERADIAN. ) SOLID_ANGLE_UNIT ( ) );
#200 = UNCERTAINTY_MEASURE_WITH_UNIT (LENGTH_MEASURE( 1.000000000000000082E-05 ), #3, 'distance_accuracy_value', 'NONE');
#201 = ADVANCED_FACE ( 'NONE', ( #172 ), #247, .T. ) ;
#202 = PRODUCT_CONTEXT ( 'NONE', #275, 'mechanical' ) ;
#203 = AXIS2_PLACEMENT_3D ( 'NONE', #36, #174, #226 ) ;
#204 = DIRECTION ( 'NONE',  ( 0.0000000000000000000, 0.0000000000000000000, 1.000000000000000000 ) ) ;
#205 = CIRCLE ( 'NONE', #67, 0.07874000000000001831 ) ;
#206 = CARTESIAN_POINT ( 'NONE',  ( 7.373312137594241536E-34, 0.0000000000000000000, 6.020766267243607560E-18 ) ) ;
#207 = ADVANCED_BREP_SHAPE_REPRESENTATION ( 'Micro_AMRM-025-2X', ( #234, #99 ), #91 ) ;
#208 = LENGTH_MEASURE_WITH_UNIT ( LENGTH_MEASURE( 0.02539999999999999897 ), #197 );
#209 = AXIS2_PLACEMENT_3D ( 'NONE', #125, #17, #264 ) ;
#210 = CARTESIAN_POINT ( 'NONE',  ( -0.07873999999999996280, 0.0000000000000000000, 0.4826988718853089111 ) ) ;
#211 = DIRECTION ( 'NONE',  ( 1.000000000000000000, 0.0000000000000000000, 0.0000000000000000000 ) ) ;
#212 = ADVANCED_FACE ( 'NONE', ( #198 ), #156, .F. ) ;
#213 = DIRECTION ( 'NONE',  ( -1.224646799147353207E-16, -0.0000000000000000000, -1.000000000000000000 ) ) ;
#214 = DIRECTION ( 'NONE',  ( 0.0000000000000000000, 0.0000000000000000000, 1.000000000000000000 ) ) ;
#215 =( CONVERSION_BASED_UNIT ( 'INCH', #233 ) LENGTH_UNIT ( ) NAMED_UNIT ( #114 ) );
#216 = DIRECTION ( 'NONE',  ( -1.224646799147353207E-16, -0.0000000000000000000, -1.000000000000000000 ) ) ;
#217 = DIRECTION ( 'NONE',  ( 1.000000000000000000, 0.0000000000000000000, 0.0000000000000000000 ) ) ;
#218 = AXIS2_PLACEMENT_3D ( 'NONE', #268, #14, #110 ) ;
#219 = ADVANCED_FACE ( 'NONE', ( #42 ), #180, .T. ) ;
#220 = PRODUCT_DEFINITION_SHAPE ( 'NONE', 'NONE',  #87 ) ;
#221 = DIMENSIONAL_EXPONENTS ( 1.000000000000000000, 0.0000000000000000000, 0.0000000000000000000, 0.0000000000000000000, 0.0000000000000000000, 0.0000000000000000000, 0.0000000000000000000 ) ;
#222 = CARTESIAN_POINT ( 'NONE',  ( -0.04916328750000000664, 0.0000000000000000000, 6.020766267243608331E-18 ) ) ;
#223 = ORIENTED_EDGE ( 'NONE', *, *, #109, .F. ) ;
#224 = AXIS2_PLACEMENT_3D ( 'NONE', #123, #155, #101 ) ;
#225 = AXIS2_PLACEMENT_3D ( 'NONE', #4, #182, #284 ) ;
#226 = DIRECTION ( 'NONE',  ( 1.000000000000000000, 0.0000000000000000000, 0.0000000000000000000 ) ) ;
#227 = FILL_AREA_STYLE ('',( #88 ) ) ;
#228 = ORIENTED_EDGE ( 'NONE', *, *, #146, .T. ) ;
#229 = ORIENTED_EDGE ( 'NONE', *, *, #44, .T. ) ;
#230 = EDGE_LOOP ( 'NONE', ( #166, #195, #82, #16 ) ) ;
#231 = EDGE_LOOP ( 'NONE', ( #1, #243 ) ) ;
#232 =( LENGTH_UNIT ( ) NAMED_UNIT ( * ) SI_UNIT ( $, .METRE. ) );
#233 = LENGTH_MEASURE_WITH_UNIT ( LENGTH_MEASURE( 0.02539999999999999897 ), #232 );
#234 = MANIFOLD_SOLID_BREP ( 'Cut-Revolve1', #151 ) ;
#235 = CONICAL_SURFACE ( 'NONE', #255, 0.06374000000000018540, 0.7853981633974528309 ) ;
#236 = LINE ( 'NONE', #96, #242 ) ;
#237 = CARTESIAN_POINT ( 'NONE',  ( -0.04916328749999996500, 7.831817581864934190E-18, 0.3149609999999999910 ) ) ;
#238 = DIRECTION ( 'NONE',  ( -0.0000000000000000000, -0.0000000000000000000, -1.000000000000000000 ) ) ;
#239 = DIRECTION ( 'NONE',  ( -0.1736481776669312194, 2.126576849575783625E-17, 0.9848077530122077983 ) ) ;
#240 = UNCERTAINTY_MEASURE_WITH_UNIT (LENGTH_MEASURE( 1.000000000000000082E-05 ), #215, 'distance_accuracy_value', 'NONE');
#241 = DIRECTION ( 'NONE',  ( 1.224646799147353207E-16, 0.0000000000000000000, 1.000000000000000000 ) ) ;
#242 = VECTOR ( 'NONE', #136, 39.37007874015748143 ) ;
#243 = ORIENTED_EDGE ( 'NONE', *, *, #23, .T. ) ;
#244 = CARTESIAN_POINT ( 'NONE',  ( 0.07874000000000001831, 9.642868896486260050E-18, 1.968503999999999809 ) ) ;
#245 = ORIENTED_EDGE ( 'NONE', *, *, #279, .T. ) ;
#246 = VECTOR ( 'NONE', #262, 39.37007874015748143 ) ;
#247 = CYLINDRICAL_SURFACE ( 'NONE', #282, 0.04916328750000000664 ) ;
#248 = VERTEX_POINT ( 'NONE', #291 ) ;
#249 = EDGE_CURVE ( 'NONE', #142, #281, #143, .T. ) ;
#250 = SHAPE_DEFINITION_REPRESENTATION ( #220, #207 ) ;
#251 = DIRECTION ( 'NONE',  ( 1.000000000000000000, 0.0000000000000000000, 0.0000000000000000000 ) ) ;
#252 = VECTOR ( 'NONE', #98, 39.37007874015748143 ) ;
#253 = CIRCLE ( 'NONE', #225, 0.04916328750000000664 ) ;
#254 = EDGE_CURVE ( 'NONE', #285, #165, #256, .T. ) ;
#255 = AXIS2_PLACEMENT_3D ( 'NONE', #24, #258, #115 ) ;
#256 = CIRCLE ( 'NONE', #135, 0.04916328749999999276 ) ;
#257 = EDGE_CURVE ( 'NONE', #248, #30, #289, .T. ) ;
#258 = DIRECTION ( 'NONE',  ( 0.0000000000000000000, 0.0000000000000000000, -1.000000000000000000 ) ) ;
#259 = CARTESIAN_POINT ( 'NONE',  ( 0.07874000000000007382, 9.642868896486266213E-18, 0.4826988718853089111 ) ) ;
#260 = CIRCLE ( 'NONE', #20, 0.06374000000000018540 ) ;
#261 = CARTESIAN_POINT ( 'NONE',  ( 0.0000000000000000000, 0.0000000000000000000, 0.0000000000000000000 ) ) ;
#262 = DIRECTION ( 'NONE',  ( -0.7071067811865507924, 0.0000000000000000000, -0.7071067811865443531 ) ) ;
#263 = EDGE_LOOP ( 'NONE', ( #117, #245 ) ) ;
#264 = DIRECTION ( 'NONE',  ( -1.000000000000000000, 0.0000000000000000000, 1.224646799147353207E-16 ) ) ;
#265 = DIRECTION ( 'NONE',  ( -0.0000000000000000000, -0.0000000000000000000, -1.000000000000000000 ) ) ;
#266 = CARTESIAN_POINT ( 'NONE',  ( 0.0000000000000000000, 0.0000000000000000000, 1.968503999999999809 ) ) ;
#267 = EDGE_LOOP ( 'NONE', ( #147, #65, #229, #43 ) ) ;
#268 = CARTESIAN_POINT ( 'NONE',  ( 0.0000000000000000000, 0.0000000000000000000, 1.968503999999999809 ) ) ;
#269 =( GEOMETRIC_REPRESENTATION_CONTEXT ( 3 ) GLOBAL_UNCERTAINTY_ASSIGNED_CONTEXT ( ( #240 ) ) GLOBAL_UNIT_ASSIGNED_CONTEXT ( ( #215, #191, #122 ) ) REPRESENTATION_CONTEXT ( 'NONE', 'WORKASPACE' ) );
#270 = EDGE_LOOP ( 'NONE', ( #10, #97, #58, #52 ) ) ;
#271 = PRODUCT_DEFINITION_CONTEXT ( 'detailed design', #89, 'design' ) ;
#272 = ORIENTED_EDGE ( 'NONE', *, *, #23, .F. ) ;
#273 = ADVANCED_FACE ( 'NONE', ( #132 ), #119, .T. ) ;
#274 = DIRECTION ( 'NONE',  ( -1.224646799147353207E-16, -0.0000000000000000000, -1.000000000000000000 ) ) ;
#275 = APPLICATION_CONTEXT ( 'automotive_design' ) ;
#276 = SURFACE_STYLE_USAGE ( .BOTH. , #297 ) ;
#277 = COLOUR_RGB ( '',0.7921568627450980005, 0.8196078431372548767, 0.9333333333333333481 ) ;
#278 = ORIENTED_EDGE ( 'NONE', *, *, #160, .T. ) ;
#279 = EDGE_CURVE ( 'NONE', #165, #285, #179, .T. ) ;
#280 = APPLICATION_PROTOCOL_DEFINITION ( 'draft international standard', 'automotive_design', 1998, #275 ) ;
#281 = VERTEX_POINT ( 'NONE', #259 ) ;
#282 = AXIS2_PLACEMENT_3D ( 'NONE', #104, #194, #57 ) ;
#283 = CARTESIAN_POINT ( 'NONE',  ( 7.373312137594241536E-34, 0.0000000000000000000, 6.020766267243607560E-18 ) ) ;
#284 = DIRECTION ( 'NONE',  ( -1.000000000000000000, 0.0000000000000000000, 0.0000000000000000000 ) ) ;
#285 = VERTEX_POINT ( 'NONE', #145 ) ;
#286 = CARTESIAN_POINT ( 'NONE',  ( 0.0000000000000000000, 0.0000000000000000000, 1.953504000000000129 ) ) ;
#287 = LINE ( 'NONE', #222, #49 ) ;
#288 = CARTESIAN_POINT ( 'NONE',  ( -0.06374000000000018540, 0.0000000000000000000, 1.968503999999999809 ) ) ;
#289 = LINE ( 'NONE', #116, #113 ) ;
#290 = EDGE_CURVE ( 'NONE', #39, #105, #253, .T. ) ;
#291 = CARTESIAN_POINT ( 'NONE',  ( -0.07874000000000001831, 0.0000000000000000000, 1.953504000000000129 ) ) ;
#292 = CARTESIAN_POINT ( 'NONE',  ( 3.857159805062494824E-17, 0.0000000000000000000, 0.3149609999999999910 ) ) ;
#293 = ORIENTED_EDGE ( 'NONE', *, *, #109, .T. ) ;
#294 = CARTESIAN_POINT ( 'NONE',  ( 0.04916328750000000664, 6.020766267243608331E-18, -6.020766267243608331E-18 ) ) ;
#295 =( NAMED_UNIT ( * ) PLANE_ANGLE_UNIT ( ) SI_UNIT ( $, .RADIAN. ) );
#296 =( NAMED_UNIT ( * ) SI_UNIT ( $, .STERADIAN. ) SOLID_ANGLE_UNIT ( ) );
#297 = SURFACE_SIDE_STYLE ('',( #86 ) ) ;
#298 = CARTESIAN_POINT ( 'NONE',  ( 5.911356284063818783E-17, 0.0000000000000000000, 0.4826988718853089111 ) ) ;
#299 = CIRCLE ( 'NONE', #107, 0.07874000000000001831 ) ;
ENDSEC;
END-ISO-10303-21;
