ISO-10303-21;
HEADER;
FILE_DESCRIPTION (( 'STEP AP214' ),
    '1' );
FILE_NAME ('56437.STEP',
    '2023-06-30T22:09:03',
    ( '' ),
    ( '' ),
    'SwSTEP 2.0',
    'SolidWorks 2023',
    '' );
FILE_SCHEMA (( 'AUTOMOTIVE_DESIGN' ));
ENDSEC;

DATA;
#1 = UNCERTAINTY_MEASURE_WITH_UNIT (LENGTH_MEASURE( 1.000000000000000082E-05 ), #209, 'distance_accuracy_value', 'NONE');
#2 = CYLINDRICAL_SURFACE ( 'NONE', #67, 0.2187499999999998057 ) ;
#3 = FACE_OUTER_BOUND ( 'NONE', #35, .T. ) ;
#4 = COLOUR_RGB ( '',1.000000000000000000, 0.000000000000000000, 0.000000000000000000 ) ;
#5 =( NAMED_UNIT ( * ) SI_UNIT ( $, .STERADIAN. ) SOLID_ANGLE_UNIT ( ) );
#6 = ORIENTED_EDGE ( 'NONE', *, *, #87, .T. ) ;
#7 = STYLED_ITEM ( 'NONE', ( #335 ), #176 ) ;
#8 = DIRECTION ( 'NONE',  ( 0.000000000000000000, 0.000000000000000000, -1.000000000000000000 ) ) ;
#9 = ORIENTED_EDGE ( 'NONE', *, *, #192, .F. ) ;
#10 = PRESENTATION_LAYER_ASSIGNMENT (  '', '', ( #7 ) ) ;
#11 = ORIENTED_EDGE ( 'NONE', *, *, #59, .F. ) ;
#12 = LENGTH_MEASURE_WITH_UNIT ( LENGTH_MEASURE( 0.02539999999999999897 ), #101 );
#13 = EDGE_CURVE ( 'NONE', #170, #210, #90, .T. ) ;
#14 = VERTEX_POINT ( 'NONE', #62 ) ;
#15 =( NAMED_UNIT ( * ) SI_UNIT ( $, .STERADIAN. ) SOLID_ANGLE_UNIT ( ) );
#16 = APPLICATION_PROTOCOL_DEFINITION ( 'draft international standard', 'automotive_design', 1998, #202 ) ;
#17 = DIRECTION ( 'NONE',  ( -1.224646799147353454E-16, 1.000000000000000000, -0.000000000000000000 ) ) ;
#18 = DIRECTION ( 'NONE',  ( 0.000000000000000000, 1.000000000000000000, 0.000000000000000000 ) ) ;
#19 =( LENGTH_UNIT ( ) NAMED_UNIT ( * ) SI_UNIT ( $, .METRE. ) );
#20 = EDGE_CURVE ( 'NONE', #72, #238, #121, .T. ) ;
#21 = PRODUCT_DEFINITION_FORMATION_WITH_SPECIFIED_SOURCE ( 'ANY', '', #127, .NOT_KNOWN. ) ;
#22 = LENGTH_MEASURE_WITH_UNIT ( LENGTH_MEASURE( 0.02539999999999999897 ), #258 );
#23 = CARTESIAN_POINT ( 'NONE',  ( -0.2187499999999994449, 1.125000000000000222, 0.000000000000000000 ) ) ;
#24 =( NAMED_UNIT ( * ) PLANE_ANGLE_UNIT ( ) SI_UNIT ( $, .RADIAN. ) );
#25 = FILL_AREA_STYLE ('',( #200 ) ) ;
#26 =( GEOMETRIC_REPRESENTATION_CONTEXT ( 3 ) GLOBAL_UNCERTAINTY_ASSIGNED_CONTEXT ( ( #349 ) ) GLOBAL_UNIT_ASSIGNED_CONTEXT ( ( #313, #222, #340 ) ) REPRESENTATION_CONTEXT ( 'NONE', 'WORKASPACE' ) );
#27 = DIRECTION ( 'NONE',  ( 0.000000000000000000, 0.000000000000000000, -1.000000000000000000 ) ) ;
#28 = UNCERTAINTY_MEASURE_WITH_UNIT (LENGTH_MEASURE( 1.000000000000000082E-05 ), #155, 'distance_accuracy_value', 'NONE');
#29 = VERTEX_POINT ( 'NONE', #94 ) ;
#30 = EDGE_LOOP ( 'NONE', ( #359, #171, #298, #351 ) ) ;
#31 = AXIS2_PLACEMENT_3D ( 'NONE', #84, #55, #194 ) ;
#32 = LENGTH_MEASURE_WITH_UNIT ( LENGTH_MEASURE( 0.02539999999999999897 ), #19 );
#33 = DIMENSIONAL_EXPONENTS ( 1.000000000000000000, 0.000000000000000000, 0.000000000000000000, 0.000000000000000000, 0.000000000000000000, 0.000000000000000000, 0.000000000000000000 ) ;
#34 = VERTEX_POINT ( 'NONE', #206 ) ;
#35 = EDGE_LOOP ( 'NONE', ( #253, #124, #96, #37 ) ) ;
#36 = FACE_OUTER_BOUND ( 'NONE', #89, .T. ) ;
#37 = ORIENTED_EDGE ( 'NONE', *, *, #20, .T. ) ;
#38 = CLOSED_SHELL ( 'NONE', ( #227, #152, #218, #172 ) ) ;
#39 = AXIS2_PLACEMENT_3D ( 'NONE', #333, #68, #364 ) ;
#40 = FILL_AREA_STYLE_COLOUR ( '', #356 ) ;
#41 = EDGE_CURVE ( 'NONE', #188, #273, #128, .T. ) ;
#42 = CARTESIAN_POINT ( 'NONE',  ( 0.000000000000000000, 1.125000000000000000, 0.000000000000000000 ) ) ;
#43 = SURFACE_STYLE_USAGE ( .BOTH. , #131 ) ;
#44 = DIMENSIONAL_EXPONENTS ( 1.000000000000000000, 0.000000000000000000, 0.000000000000000000, 0.000000000000000000, 0.000000000000000000, 0.000000000000000000, 0.000000000000000000 ) ;
#45 = PRESENTATION_STYLE_ASSIGNMENT (( #336 ) ) ;
#46 = MECHANICAL_DESIGN_GEOMETRIC_PRESENTATION_REPRESENTATION (  '', ( #7 ), #357 ) ;
#47 =( GEOMETRIC_REPRESENTATION_CONTEXT ( 3 ) GLOBAL_UNCERTAINTY_ASSIGNED_CONTEXT ( ( #1 ) ) GLOBAL_UNIT_ASSIGNED_CONTEXT ( ( #209, #306, #108 ) ) REPRESENTATION_CONTEXT ( 'NONE', 'WORKASPACE' ) );
#48 =( NAMED_UNIT ( * ) SI_UNIT ( $, .STERADIAN. ) SOLID_ANGLE_UNIT ( ) );
#49 = SURFACE_SIDE_STYLE ('',( #315 ) ) ;
#50 = DIRECTION ( 'NONE',  ( 0.000000000000000000, -0.000000000000000000, 1.000000000000000000 ) ) ;
#51 = APPLICATION_PROTOCOL_DEFINITION ( 'draft international standard', 'automotive_design', 1998, #224 ) ;
#52 = DIRECTION ( 'NONE',  ( -0.000000000000000000, -1.000000000000000000, -0.000000000000000000 ) ) ;
#53 = CARTESIAN_POINT ( 'NONE',  ( 0.000000000000000000, 0.000000000000000000, 0.000000000000000000 ) ) ;
#54 = DIRECTION ( 'NONE',  ( -1.000000000000000000, 0.000000000000000000, 0.000000000000000000 ) ) ;
#55 = DIRECTION ( 'NONE',  ( -1.224646799147353454E-16, 1.000000000000000000, 0.000000000000000000 ) ) ;
#56 = DIRECTION ( 'NONE',  ( 1.224646799147353207E-16, -0.000000000000000000, 1.000000000000000000 ) ) ;
#57 = DIRECTION ( 'NONE',  ( 0.000000000000000000, 0.000000000000000000, -1.000000000000000000 ) ) ;
#58 = AXIS2_PLACEMENT_3D ( 'NONE', #114, #52, #322 ) ;
#59 = EDGE_CURVE ( 'NONE', #210, #170, #346, .T. ) ;
#60 = ORIENTED_EDGE ( 'NONE', *, *, #87, .F. ) ;
#61 = ADVANCED_FACE ( 'NONE', ( #248 ), #303, .T. ) ;
#62 = CARTESIAN_POINT ( 'NONE',  ( -1.339457436567417532E-17, 0.000000000000000000, 0.000000000000000000 ) ) ;
#63 = PRESENTATION_LAYER_ASSIGNMENT (  '', '', ( #231 ) ) ;
#64 = PLANE ( 'NONE',  #169 ) ;
#65 =( NAMED_UNIT ( * ) PLANE_ANGLE_UNIT ( ) SI_UNIT ( $, .RADIAN. ) );
#66 = PRESENTATION_STYLE_ASSIGNMENT (( #43 ) ) ;
#67 = AXIS2_PLACEMENT_3D ( 'NONE', #197, #76, #106 ) ;
#68 = DIRECTION ( 'NONE',  ( 0.000000000000000000, 0.000000000000000000, 1.000000000000000000 ) ) ;
#69 = DIRECTION ( 'NONE',  ( -1.000000000000000000, 0.000000000000000000, 0.000000000000000000 ) ) ;
#70 = FILL_AREA_STYLE ('',( #302 ) ) ;
#71 = SURFACE_STYLE_FILL_AREA ( #247 ) ;
#72 = VERTEX_POINT ( 'NONE', #190 ) ;
#73 = VECTOR ( 'NONE', #88, 39.37007874015748143 ) ;
#74 = SURFACE_SIDE_STYLE ('',( #279 ) ) ;
#75 =( GEOMETRIC_REPRESENTATION_CONTEXT ( 3 ) GLOBAL_UNCERTAINTY_ASSIGNED_CONTEXT ( ( #204 ) ) GLOBAL_UNIT_ASSIGNED_CONTEXT ( ( #241, #251, #254 ) ) REPRESENTATION_CONTEXT ( 'NONE', 'WORKASPACE' ) );
#76 = DIRECTION ( 'NONE',  ( -1.224646799147353454E-16, 1.000000000000000000, -0.000000000000000000 ) ) ;
#77 =( LENGTH_UNIT ( ) NAMED_UNIT ( * ) SI_UNIT ( $, .METRE. ) );
#78 = ORIENTED_EDGE ( 'NONE', *, *, #196, .F. ) ;
#79 = DIRECTION ( 'NONE',  ( 1.000000000000000000, 0.000000000000000000, 0.000000000000000000 ) ) ;
#80 = CARTESIAN_POINT ( 'NONE',  ( 0.000000000000000000, 0.000000000000000000, -0.2187499999999998890 ) ) ;
#81 = CARTESIAN_POINT ( 'NONE',  ( 0.2187499999999998057, 3.500000000000000000, 2.678914873134833523E-17 ) ) ;
#82 = DIRECTION ( 'NONE',  ( 0.000000000000000000, 0.000000000000000000, -1.000000000000000000 ) ) ;
#83 = SURFACE_STYLE_FILL_AREA ( #161 ) ;
#84 = CARTESIAN_POINT ( 'NONE',  ( 1.990051048614448376E-16, 1.125000000000000000, 0.000000000000000000 ) ) ;
#85 = CLOSED_SHELL ( 'NONE', ( #159, #98, #92, #372, #61 ) ) ;
#86 = PRESENTATION_LAYER_ASSIGNMENT (  '', '', ( #236 ) ) ;
#87 = EDGE_CURVE ( 'NONE', #29, #34, #150, .T. ) ;
#88 = DIRECTION ( 'NONE',  ( -1.224646799147353454E-16, 1.000000000000000000, -0.000000000000000000 ) ) ;
#89 = EDGE_LOOP ( 'NONE', ( #294, #6, #331, #244, #205 ) ) ;
#90 = CIRCLE ( 'NONE', #295, 0.2187499999999996392 ) ;
#91 = AXIS2_PLACEMENT_3D ( 'NONE', #164, #143, #54 ) ;
#92 = ADVANCED_FACE ( 'NONE', ( #255 ), #160, .T. ) ;
#93 = ORIENTED_EDGE ( 'NONE', *, *, #196, .T. ) ;
#94 = CARTESIAN_POINT ( 'NONE',  ( 2.678914873134833215E-17, 1.125000000000000000, 0.2187499999999998612 ) ) ;
#95 = UNCERTAINTY_MEASURE_WITH_UNIT (LENGTH_MEASURE( 1.000000000000000082E-05 ), #342, 'distance_accuracy_value', 'NONE');
#96 = ORIENTED_EDGE ( 'NONE', *, *, #138, .F. ) ;
#97 = SURFACE_STYLE_FILL_AREA ( #283 ) ;
#98 = ADVANCED_FACE ( 'NONE', ( #111 ), #115, .T. ) ;
#99 = DIMENSIONAL_EXPONENTS ( 1.000000000000000000, 0.000000000000000000, 0.000000000000000000, 0.000000000000000000, 0.000000000000000000, 0.000000000000000000, 0.000000000000000000 ) ;
#100 =( GEOMETRIC_REPRESENTATION_CONTEXT ( 3 ) GLOBAL_UNCERTAINTY_ASSIGNED_CONTEXT ( ( #142 ) ) GLOBAL_UNIT_ASSIGNED_CONTEXT ( ( #261, #24, #290 ) ) REPRESENTATION_CONTEXT ( 'NONE', 'WORKASPACE' ) );
#101 =( LENGTH_UNIT ( ) NAMED_UNIT ( * ) SI_UNIT ( $, .METRE. ) );
#102 = DIRECTION ( 'NONE',  ( 1.224646799147353454E-16, -1.000000000000000000, 0.000000000000000000 ) ) ;
#103 =( CONVERSION_BASED_UNIT ( 'INCH', #133 ) LENGTH_UNIT ( ) NAMED_UNIT ( #305 ) );
#104 = ORIENTED_EDGE ( 'NONE', *, *, #317, .T. ) ;
#105 =( LENGTH_UNIT ( ) NAMED_UNIT ( * ) SI_UNIT ( $, .METRE. ) );
#106 = DIRECTION ( 'NONE',  ( -1.000000000000000000, 0.000000000000000000, 0.000000000000000000 ) ) ;
#107 = AXIS2_PLACEMENT_3D ( 'NONE', #220, #56, #139 ) ;
#108 =( NAMED_UNIT ( * ) SI_UNIT ( $, .STERADIAN. ) SOLID_ANGLE_UNIT ( ) );
#109 = FACE_OUTER_BOUND ( 'NONE', #30, .T. ) ;
#110 = CARTESIAN_POINT ( 'NONE',  ( 2.678914873134833523E-17, 0.000000000000000000, 0.2187499999999998890 ) ) ;
#111 = FACE_OUTER_BOUND ( 'NONE', #282, .T. ) ;
#112 = CARTESIAN_POINT ( 'NONE',  ( -9.184850993605152135E-17, 3.500000000000000000, 0.000000000000000000 ) ) ;
#113 = PRODUCT_RELATED_PRODUCT_CATEGORY ( 'part', '', ( #127 ) ) ;
#114 = CARTESIAN_POINT ( 'NONE',  ( 0.000000000000000000, 0.2187500000000000278, 0.000000000000000000 ) ) ;
#115 = CYLINDRICAL_SURFACE ( 'NONE', #296, 0.2187499999999998890 ) ;
#116 = FILL_AREA_STYLE ('',( #232 ) ) ;
#117 = UNCERTAINTY_MEASURE_WITH_UNIT (LENGTH_MEASURE( 1.000000000000000082E-05 ), #132, 'distance_accuracy_value', 'NONE');
#118 =( NAMED_UNIT ( * ) PLANE_ANGLE_UNIT ( ) SI_UNIT ( $, .RADIAN. ) );
#119 = VERTEX_POINT ( 'NONE', #81 ) ;
#120 = ORIENTED_EDGE ( 'NONE', *, *, #263, .F. ) ;
#121 = CIRCLE ( 'NONE', #235, 0.2187499999999999445 ) ;
#122 =( GEOMETRIC_REPRESENTATION_CONTEXT ( 3 ) GLOBAL_UNCERTAINTY_ASSIGNED_CONTEXT ( ( #95 ) ) GLOBAL_UNIT_ASSIGNED_CONTEXT ( ( #342, #118, #48 ) ) REPRESENTATION_CONTEXT ( 'NONE', 'WORKASPACE' ) );
#123 = DIRECTION ( 'NONE',  ( 0.000000000000000000, 0.000000000000000000, 1.000000000000000000 ) ) ;
#124 = ORIENTED_EDGE ( 'NONE', *, *, #308, .T. ) ;
#125 = EDGE_CURVE ( 'NONE', #238, #188, #366, .T. ) ;
#126 = DIRECTION ( 'NONE',  ( -0.000000000000000000, -1.000000000000000000, -0.000000000000000000 ) ) ;
#127 = PRODUCT ( '56437', '56437', '', ( #311 ) ) ;
#128 = CIRCLE ( 'NONE', #219, 0.2187499999999999445 ) ;
#129 = MECHANICAL_DESIGN_GEOMETRIC_PRESENTATION_REPRESENTATION (  '', ( #231 ), #122 ) ;
#130 = FILL_AREA_STYLE ('',( #187 ) ) ;
#131 = SURFACE_SIDE_STYLE ('',( #213 ) ) ;
#132 =( CONVERSION_BASED_UNIT ( 'INCH', #22 ) LENGTH_UNIT ( ) NAMED_UNIT ( #184 ) );
#133 = LENGTH_MEASURE_WITH_UNIT ( LENGTH_MEASURE( 0.02539999999999999897 ), #183 );
#134 = PRESENTATION_LAYER_ASSIGNMENT (  '', '', ( #174 ) ) ;
#135 = PRESENTATION_STYLE_ASSIGNMENT (( #289 ) ) ;
#136 = MECHANICAL_DESIGN_GEOMETRIC_PRESENTATION_REPRESENTATION (  '', ( #236 ), #100 ) ;
#137 = CARTESIAN_POINT ( 'NONE',  ( 0.2187499999999998057, 1.125000000000000222, 2.678914873134833523E-17 ) ) ;
#138 = EDGE_CURVE ( 'NONE', #72, #14, #278, .T. ) ;
#139 = DIRECTION ( 'NONE',  ( 1.000000000000000000, 0.000000000000000000, -1.224646799147353207E-16 ) ) ;
#140 = LENGTH_MEASURE_WITH_UNIT ( LENGTH_MEASURE( 0.02539999999999999897 ), #77 );
#141 = ADVANCED_BREP_SHAPE_REPRESENTATION ( '56437', ( #176, #326, #297 ), #26 ) ;
#142 = UNCERTAINTY_MEASURE_WITH_UNIT (LENGTH_MEASURE( 1.000000000000000082E-05 ), #261, 'distance_accuracy_value', 'NONE');
#143 = DIRECTION ( 'NONE',  ( -1.224646799147353454E-16, 1.000000000000000000, -0.000000000000000000 ) ) ;
#144 = DIRECTION ( 'NONE',  ( -1.000000000000000000, 0.000000000000000000, 0.000000000000000000 ) ) ;
#145 = CARTESIAN_POINT ( 'NONE',  ( 0.000000000000000000, 0.000000000000000000, 0.000000000000000000 ) ) ;
#146 = COLOUR_RGB ( '',0.7921568627450980005, 0.8196078431372548767, 0.9333333333333333481 ) ;
#147 = PRESENTATION_STYLE_ASSIGNMENT (( #168 ) ) ;
#148 = EDGE_LOOP ( 'NONE', ( #175, #277 ) ) ;
#149 = ORIENTED_EDGE ( 'NONE', *, *, #269, .F. ) ;
#150 = CIRCLE ( 'NONE', #337, 0.2187499999999998612 ) ;
#151 = ORIENTED_EDGE ( 'NONE', *, *, #293, .T. ) ;
#152 = ADVANCED_FACE ( 'NONE', ( #292 ), #162, .F. ) ;
#153 = MECHANICAL_DESIGN_GEOMETRIC_PRESENTATION_REPRESENTATION (  '', ( #320 ), #347 ) ;
#154 = AXIS2_PLACEMENT_3D ( 'NONE', #167, #260, #314 ) ;
#155 =( CONVERSION_BASED_UNIT ( 'INCH', #12 ) LENGTH_UNIT ( ) NAMED_UNIT ( #301 ) );
#156 = CARTESIAN_POINT ( 'NONE',  ( 0.000000000000000000, 1.125000000000000000, 0.000000000000000000 ) ) ;
#157 = PRESENTATION_LAYER_ASSIGNMENT (  '', '', ( #320 ) ) ;
#158 = CIRCLE ( 'NONE', #154, 0.2187499999999998612 ) ;
#159 = ADVANCED_FACE ( 'NONE', ( #3 ), #280, .T. ) ;
#160 = PLANE ( 'NONE',  #266 ) ;
#161 = FILL_AREA_STYLE ('',( #226 ) ) ;
#162 = PLANE ( 'NONE',  #31 ) ;
#163 = CIRCLE ( 'NONE', #58, 0.2187499999999999445 ) ;
#164 = CARTESIAN_POINT ( 'NONE',  ( -9.184850993605152135E-17, 3.500000000000000000, 0.000000000000000000 ) ) ;
#165 = PRODUCT_DEFINITION ( 'UNKNOWN', '', #21, #228 ) ;
#166 = PRESENTATION_STYLE_ASSIGNMENT (( #318 ) ) ;
#167 = CARTESIAN_POINT ( 'NONE',  ( 0.000000000000000000, 1.125000000000000000, 0.000000000000000000 ) ) ;
#168 = SURFACE_STYLE_USAGE ( .BOTH. , #49 ) ;
#169 = AXIS2_PLACEMENT_3D ( 'NONE', #179, #102, #365 ) ;
#170 = VERTEX_POINT ( 'NONE', #137 ) ;
#171 = ORIENTED_EDGE ( 'NONE', *, *, #13, .T. ) ;
#172 = ADVANCED_FACE ( 'NONE', ( #362 ), #64, .F. ) ;
#173 = CARTESIAN_POINT ( 'NONE',  ( 0.000000000000000000, 0.2187500000000000278, 0.000000000000000000 ) ) ;
#174 = STYLED_ITEM ( 'NONE', ( #285 ), #61 ) ;
#175 = ORIENTED_EDGE ( 'NONE', *, *, #263, .T. ) ;
#176 = MANIFOLD_SOLID_BREP ( 'Revolve - Cutting Edge', #85 ) ;
#177 = ORIENTED_EDGE ( 'NONE', *, *, #41, .T. ) ;
#178 = CYLINDRICAL_SURFACE ( 'NONE', #358, 0.2187499999999998890 ) ;
#179 = CARTESIAN_POINT ( 'NONE',  ( 0.2187499999999998612, 3.500000000000000000, 0.000000000000000000 ) ) ;
#180 = DIRECTION ( 'NONE',  ( 0.000000000000000000, 0.000000000000000000, -1.000000000000000000 ) ) ;
#181 = AXIS2_PLACEMENT_3D ( 'NONE', #216, #221, #69 ) ;
#182 = MECHANICAL_DESIGN_GEOMETRIC_PRESENTATION_REPRESENTATION (  '', ( #272 ), #47 ) ;
#183 =( LENGTH_UNIT ( ) NAMED_UNIT ( * ) SI_UNIT ( $, .METRE. ) );
#184 = DIMENSIONAL_EXPONENTS ( 1.000000000000000000, 0.000000000000000000, 0.000000000000000000, 0.000000000000000000, 0.000000000000000000, 0.000000000000000000, 0.000000000000000000 ) ;
#185 =( NAMED_UNIT ( * ) SI_UNIT ( $, .STERADIAN. ) SOLID_ANGLE_UNIT ( ) );
#186 = SURFACE_STYLE_USAGE ( .BOTH. , #217 ) ;
#187 = FILL_AREA_STYLE_COLOUR ( '', #271 ) ;
#188 = VERTEX_POINT ( 'NONE', #321 ) ;
#189 = VECTOR ( 'NONE', #338, 39.37007874015748143 ) ;
#190 = CARTESIAN_POINT ( 'NONE',  ( 0.2187499999999999445, 0.2187500000000000278, 0.000000000000000000 ) ) ;
#191 = LENGTH_MEASURE_WITH_UNIT ( LENGTH_MEASURE( 0.02539999999999999897 ), #257 );
#192 = EDGE_CURVE ( 'NONE', #34, #273, #215, .T. ) ;
#193 = LINE ( 'NONE', #324, #334 ) ;
#194 = DIRECTION ( 'NONE',  ( -1.000000000000000000, -1.224646799147353454E-16, 0.000000000000000000 ) ) ;
#195 = CARTESIAN_POINT ( 'NONE',  ( 0.000000000000000000, 0.000000000000000000, 0.000000000000000000 ) ) ;
#196 = EDGE_CURVE ( 'NONE', #273, #72, #163, .T. ) ;
#197 = CARTESIAN_POINT ( 'NONE',  ( -9.184850993605152135E-17, 3.500000000000000000, 0.000000000000000000 ) ) ;
#198 = SURFACE_SIDE_STYLE ('',( #268 ) ) ;
#199 = AXIS2_PLACEMENT_3D ( 'NONE', #325, #57, #144 ) ;
#200 = FILL_AREA_STYLE_COLOUR ( '', #250 ) ;
#201 = CYLINDRICAL_SURFACE ( 'NONE', #91, 0.2187499999999998057 ) ;
#202 = APPLICATION_CONTEXT ( 'automotive_design' ) ;
#203 = DIRECTION ( 'NONE',  ( -1.000000000000000000, 0.000000000000000000, 0.000000000000000000 ) ) ;
#204 = UNCERTAINTY_MEASURE_WITH_UNIT (LENGTH_MEASURE( 1.000000000000000082E-05 ), #241, 'distance_accuracy_value', 'NONE');
#205 = ORIENTED_EDGE ( 'NONE', *, *, #125, .F. ) ;
#206 = CARTESIAN_POINT ( 'NONE',  ( 0.000000000000000000, 1.125000000000000000, -0.2187499999999998612 ) ) ;
#207 = AXIS2_PLACEMENT_3D ( 'NONE', #284, #123, #367 ) ;
#208 = ORIENTED_EDGE ( 'NONE', *, *, #317, .F. ) ;
#209 =( CONVERSION_BASED_UNIT ( 'INCH', #361 ) LENGTH_UNIT ( ) NAMED_UNIT ( #33 ) );
#210 = VERTEX_POINT ( 'NONE', #23 ) ;
#211 = CIRCLE ( 'NONE', #286, 0.2187499999999999445 ) ;
#212 = COLOUR_RGB ( '',1.000000000000000000, 0.000000000000000000, 0.000000000000000000 ) ;
#213 = SURFACE_STYLE_FILL_AREA ( #70 ) ;
#214 = DIRECTION ( 'NONE',  ( 0.000000000000000000, 0.000000000000000000, -1.000000000000000000 ) ) ;
#215 = LINE ( 'NONE', #80, #189 ) ;
#216 = CARTESIAN_POINT ( 'NONE',  ( 1.990051048614449116E-16, 1.125000000000000222, 0.000000000000000000 ) ) ;
#217 = SURFACE_SIDE_STYLE ('',( #71 ) ) ;
#218 = ADVANCED_FACE ( 'NONE', ( #109 ), #201, .T. ) ;
#219 = AXIS2_PLACEMENT_3D ( 'NONE', #249, #126, #214 ) ;
#220 = CARTESIAN_POINT ( 'NONE',  ( -2.678914873134835064E-17, 0.2187500000000000000, 0.000000000000000000 ) ) ;
#221 = DIRECTION ( 'NONE',  ( -1.224646799147353454E-16, 1.000000000000000000, -0.000000000000000000 ) ) ;
#222 =( NAMED_UNIT ( * ) PLANE_ANGLE_UNIT ( ) SI_UNIT ( $, .RADIAN. ) );
#223 = CARTESIAN_POINT ( 'NONE',  ( -0.2187499999999999167, 3.500000000000000000, 0.000000000000000000 ) ) ;
#224 = APPLICATION_CONTEXT ( 'automotive_design' ) ;
#225 = LENGTH_MEASURE_WITH_UNIT ( LENGTH_MEASURE( 0.02539999999999999897 ), #259 );
#226 = FILL_AREA_STYLE_COLOUR ( '', #146 ) ;
#227 = ADVANCED_FACE ( 'NONE', ( #341 ), #2, .T. ) ;
#228 = PRODUCT_DEFINITION_CONTEXT ( 'detailed design', #224, 'design' ) ;
#229 = MECHANICAL_DESIGN_GEOMETRIC_PRESENTATION_REPRESENTATION (  '', ( #174 ), #281 ) ;
#230 = DIRECTION ( 'NONE',  ( -1.224646799147353454E-16, 1.000000000000000000, -0.000000000000000000 ) ) ;
#231 = STYLED_ITEM ( 'NONE', ( #147 ), #159 ) ;
#232 = FILL_AREA_STYLE_COLOUR ( '', #4 ) ;
#233 = MECHANICAL_DESIGN_GEOMETRIC_PRESENTATION_REPRESENTATION (  '', ( #353 ), #75 ) ;
#234 = DIRECTION ( 'NONE',  ( -1.000000000000000000, 0.000000000000000000, 0.000000000000000000 ) ) ;
#235 = AXIS2_PLACEMENT_3D ( 'NONE', #173, #274, #8 ) ;
#236 = STYLED_ITEM ( 'NONE', ( #166 ), #98 ) ;
#237 = PRESENTATION_LAYER_ASSIGNMENT (  '', '', ( #272 ) ) ;
#238 = VERTEX_POINT ( 'NONE', #262 ) ;
#239 = DIMENSIONAL_EXPONENTS ( 1.000000000000000000, 0.000000000000000000, 0.000000000000000000, 0.000000000000000000, 0.000000000000000000, 0.000000000000000000, 0.000000000000000000 ) ;
#240 = CARTESIAN_POINT ( 'NONE',  ( 1.990051048614449116E-16, 1.125000000000000222, 0.000000000000000000 ) ) ;
#241 =( CONVERSION_BASED_UNIT ( 'INCH', #32 ) LENGTH_UNIT ( ) NAMED_UNIT ( #44 ) );
#242 = EDGE_CURVE ( 'NONE', #29, #238, #265, .T. ) ;
#243 = ORIENTED_EDGE ( 'NONE', *, *, #59, .T. ) ;
#244 = ORIENTED_EDGE ( 'NONE', *, *, #41, .F. ) ;
#245 = VECTOR ( 'NONE', #256, 39.37007874015748143 ) ;
#246 = ORIENTED_EDGE ( 'NONE', *, *, #20, .F. ) ;
#247 = FILL_AREA_STYLE ('',( #40 ) ) ;
#248 = FACE_OUTER_BOUND ( 'NONE', #300, .T. ) ;
#249 = CARTESIAN_POINT ( 'NONE',  ( 0.000000000000000000, 0.2187500000000000278, 0.000000000000000000 ) ) ;
#250 = COLOUR_RGB ( '',1.000000000000000000, 0.000000000000000000, 0.000000000000000000 ) ;
#251 =( NAMED_UNIT ( * ) PLANE_ANGLE_UNIT ( ) SI_UNIT ( $, .RADIAN. ) );
#252 = DIRECTION ( 'NONE',  ( -0.000000000000000000, -1.000000000000000000, -0.000000000000000000 ) ) ;
#253 = ORIENTED_EDGE ( 'NONE', *, *, #125, .T. ) ;
#254 =( NAMED_UNIT ( * ) SI_UNIT ( $, .STERADIAN. ) SOLID_ANGLE_UNIT ( ) );
#255 = FACE_OUTER_BOUND ( 'NONE', #310, .T. ) ;
#256 = DIRECTION ( 'NONE',  ( -0.000000000000000000, -1.000000000000000000, -0.000000000000000000 ) ) ;
#257 =( LENGTH_UNIT ( ) NAMED_UNIT ( * ) SI_UNIT ( $, .METRE. ) );
#258 =( LENGTH_UNIT ( ) NAMED_UNIT ( * ) SI_UNIT ( $, .METRE. ) );
#259 =( LENGTH_UNIT ( ) NAMED_UNIT ( * ) SI_UNIT ( $, .METRE. ) );
#260 = DIRECTION ( 'NONE',  ( -0.000000000000000000, -1.000000000000000000, -0.000000000000000000 ) ) ;
#261 =( CONVERSION_BASED_UNIT ( 'INCH', #140 ) LENGTH_UNIT ( ) NAMED_UNIT ( #332 ) );
#262 = CARTESIAN_POINT ( 'NONE',  ( 2.678914873134834447E-17, 0.2187500000000000278, 0.2187499999999999167 ) ) ;
#263 = EDGE_CURVE ( 'NONE', #363, #119, #304, .T. ) ;
#264 = UNCERTAINTY_MEASURE_WITH_UNIT (LENGTH_MEASURE( 1.000000000000000082E-05 ), #103, 'distance_accuracy_value', 'NONE');
#265 = LINE ( 'NONE', #110, #245 ) ;
#266 = AXIS2_PLACEMENT_3D ( 'NONE', #42, #18, #50 ) ;
#267 = PRESENTATION_LAYER_ASSIGNMENT (  '', '', ( #353 ) ) ;
#268 = SURFACE_STYLE_FILL_AREA ( #116 ) ;
#269 = EDGE_CURVE ( 'NONE', #210, #363, #350, .T. ) ;
#270 = ORIENTED_EDGE ( 'NONE', *, *, #13, .F. ) ;
#271 = COLOUR_RGB ( '',1.000000000000000000, 0.000000000000000000, 0.000000000000000000 ) ;
#272 = STYLED_ITEM ( 'NONE', ( #66 ), #372 ) ;
#273 = VERTEX_POINT ( 'NONE', #368 ) ;
#274 = DIRECTION ( 'NONE',  ( -0.000000000000000000, -1.000000000000000000, -0.000000000000000000 ) ) ;
#275 = EDGE_CURVE ( 'NONE', #119, #363, #211, .T. ) ;
#276 = COLOUR_RGB ( '',1.000000000000000000, 0.000000000000000000, 0.000000000000000000 ) ;
#277 = ORIENTED_EDGE ( 'NONE', *, *, #275, .T. ) ;
#278 = CIRCLE ( 'NONE', #199, 0.2187500000000000000 ) ;
#279 = SURFACE_STYLE_FILL_AREA ( #130 ) ;
#280 = SPHERICAL_SURFACE ( 'NONE', #207, 0.2187500000000000000 ) ;
#281 =( GEOMETRIC_REPRESENTATION_CONTEXT ( 3 ) GLOBAL_UNCERTAINTY_ASSIGNED_CONTEXT ( ( #28 ) ) GLOBAL_UNIT_ASSIGNED_CONTEXT ( ( #155, #65, #185 ) ) REPRESENTATION_CONTEXT ( 'NONE', 'WORKASPACE' ) );
#282 = EDGE_LOOP ( 'NONE', ( #104, #330, #246, #78, #9 ) ) ;
#283 = FILL_AREA_STYLE ('',( #312 ) ) ;
#284 = CARTESIAN_POINT ( 'NONE',  ( -2.678914873134835064E-17, 0.2187500000000000000, 0.000000000000000000 ) ) ;
#285 = PRESENTATION_STYLE_ASSIGNMENT (( #307 ) ) ;
#286 = AXIS2_PLACEMENT_3D ( 'NONE', #316, #17, #203 ) ;
#287 = DIRECTION ( 'NONE',  ( -1.224646799147353454E-16, 1.000000000000000000, -0.000000000000000000 ) ) ;
#288 = DIRECTION ( 'NONE',  ( -0.000000000000000000, -1.000000000000000000, -0.000000000000000000 ) ) ;
#289 = SURFACE_STYLE_USAGE ( .BOTH. , #344 ) ;
#290 =( NAMED_UNIT ( * ) SI_UNIT ( $, .STERADIAN. ) SOLID_ANGLE_UNIT ( ) );
#291 = CIRCLE ( 'NONE', #107, 0.2187500000000000000 ) ;
#292 = FACE_OUTER_BOUND ( 'NONE', #355, .T. ) ;
#293 = EDGE_CURVE ( 'NONE', #170, #119, #193, .T. ) ;
#294 = ORIENTED_EDGE ( 'NONE', *, *, #242, .F. ) ;
#295 = AXIS2_PLACEMENT_3D ( 'NONE', #240, #328, #354 ) ;
#296 = AXIS2_PLACEMENT_3D ( 'NONE', #145, #323, #345 ) ;
#297 = AXIS2_PLACEMENT_3D ( 'NONE', #195, #319, #79 ) ;
#298 = ORIENTED_EDGE ( 'NONE', *, *, #269, .T. ) ;
#299 = ORIENTED_EDGE ( 'NONE', *, *, #308, .F. ) ;
#300 = EDGE_LOOP ( 'NONE', ( #299, #177, #93, #339 ) ) ;
#301 = DIMENSIONAL_EXPONENTS ( 1.000000000000000000, 0.000000000000000000, 0.000000000000000000, 0.000000000000000000, 0.000000000000000000, 0.000000000000000000, 0.000000000000000000 ) ;
#302 = FILL_AREA_STYLE_COLOUR ( '', #212 ) ;
#303 = SPHERICAL_SURFACE ( 'NONE', #39, 0.2187500000000000000 ) ;
#304 = CIRCLE ( 'NONE', #352, 0.2187499999999999445 ) ;
#305 = DIMENSIONAL_EXPONENTS ( 1.000000000000000000, 0.000000000000000000, 0.000000000000000000, 0.000000000000000000, 0.000000000000000000, 0.000000000000000000, 0.000000000000000000 ) ;
#306 =( NAMED_UNIT ( * ) PLANE_ANGLE_UNIT ( ) SI_UNIT ( $, .RADIAN. ) );
#307 = SURFACE_STYLE_USAGE ( .BOTH. , #369 ) ;
#308 = EDGE_CURVE ( 'NONE', #188, #14, #291, .T. ) ;
#309 =( NAMED_UNIT ( * ) PLANE_ANGLE_UNIT ( ) SI_UNIT ( $, .RADIAN. ) );
#310 = EDGE_LOOP ( 'NONE', ( #208, #60 ) ) ;
#311 = PRODUCT_CONTEXT ( 'NONE', #202, 'mechanical' ) ;
#312 = FILL_AREA_STYLE_COLOUR ( '', #276 ) ;
#313 =( CONVERSION_BASED_UNIT ( 'INCH', #191 ) LENGTH_UNIT ( ) NAMED_UNIT ( #99 ) );
#314 = DIRECTION ( 'NONE',  ( 0.000000000000000000, 0.000000000000000000, -1.000000000000000000 ) ) ;
#315 = SURFACE_STYLE_FILL_AREA ( #25 ) ;
#316 = CARTESIAN_POINT ( 'NONE',  ( -9.184850993605152135E-17, 3.500000000000000000, 0.000000000000000000 ) ) ;
#317 = EDGE_CURVE ( 'NONE', #34, #29, #158, .T. ) ;
#318 = SURFACE_STYLE_USAGE ( .BOTH. , #198 ) ;
#319 = DIRECTION ( 'NONE',  ( 0.000000000000000000, 0.000000000000000000, 1.000000000000000000 ) ) ;
#320 = STYLED_ITEM ( 'NONE', ( #45 ), #92 ) ;
#321 = CARTESIAN_POINT ( 'NONE',  ( -0.2187500000000000000, 0.2187500000000000278, 2.678914873134834756E-17 ) ) ;
#322 = DIRECTION ( 'NONE',  ( 0.000000000000000000, 0.000000000000000000, -1.000000000000000000 ) ) ;
#323 = DIRECTION ( 'NONE',  ( -0.000000000000000000, -1.000000000000000000, -0.000000000000000000 ) ) ;
#324 = CARTESIAN_POINT ( 'NONE',  ( 0.2187499999999997224, 3.500000000000000000, 2.678914873134832907E-17 ) ) ;
#325 = CARTESIAN_POINT ( 'NONE',  ( -2.678914873134835064E-17, 0.2187500000000000000, 0.000000000000000000 ) ) ;
#326 = MANIFOLD_SOLID_BREP ( 'Revolve - Tool Body (Straight Shanked)', #38 ) ;
#327 = EDGE_LOOP ( 'NONE', ( #243, #151, #120, #149 ) ) ;
#328 = DIRECTION ( 'NONE',  ( -1.224646799147353454E-16, 1.000000000000000000, -0.000000000000000000 ) ) ;
#329 = AXIS2_PLACEMENT_3D ( 'NONE', #348, #288, #27 ) ;
#330 = ORIENTED_EDGE ( 'NONE', *, *, #242, .T. ) ;
#331 = ORIENTED_EDGE ( 'NONE', *, *, #192, .T. ) ;
#332 = DIMENSIONAL_EXPONENTS ( 1.000000000000000000, 0.000000000000000000, 0.000000000000000000, 0.000000000000000000, 0.000000000000000000, 0.000000000000000000, 0.000000000000000000 ) ;
#333 = CARTESIAN_POINT ( 'NONE',  ( -2.678914873134835064E-17, 0.2187500000000000000, 0.000000000000000000 ) ) ;
#334 = VECTOR ( 'NONE', #287, 39.37007874015748143 ) ;
#335 = PRESENTATION_STYLE_ASSIGNMENT (( #186 ) ) ;
#336 = SURFACE_STYLE_USAGE ( .BOTH. , #74 ) ;
#337 = AXIS2_PLACEMENT_3D ( 'NONE', #156, #252, #180 ) ;
#338 = DIRECTION ( 'NONE',  ( -0.000000000000000000, -1.000000000000000000, -0.000000000000000000 ) ) ;
#339 = ORIENTED_EDGE ( 'NONE', *, *, #138, .T. ) ;
#340 =( NAMED_UNIT ( * ) SI_UNIT ( $, .STERADIAN. ) SOLID_ANGLE_UNIT ( ) );
#341 = FACE_OUTER_BOUND ( 'NONE', #327, .T. ) ;
#342 =( CONVERSION_BASED_UNIT ( 'INCH', #225 ) LENGTH_UNIT ( ) NAMED_UNIT ( #239 ) );
#343 = DIRECTION ( 'NONE',  ( -0.000000000000000000, -1.000000000000000000, -0.000000000000000000 ) ) ;
#344 = SURFACE_SIDE_STYLE ('',( #83 ) ) ;
#345 = DIRECTION ( 'NONE',  ( 0.000000000000000000, 0.000000000000000000, -1.000000000000000000 ) ) ;
#346 = CIRCLE ( 'NONE', #181, 0.2187499999999996392 ) ;
#347 =( GEOMETRIC_REPRESENTATION_CONTEXT ( 3 ) GLOBAL_UNCERTAINTY_ASSIGNED_CONTEXT ( ( #264 ) ) GLOBAL_UNIT_ASSIGNED_CONTEXT ( ( #103, #309, #15 ) ) REPRESENTATION_CONTEXT ( 'NONE', 'WORKASPACE' ) );
#348 = CARTESIAN_POINT ( 'NONE',  ( 0.000000000000000000, 0.2187500000000000278, 0.000000000000000000 ) ) ;
#349 = UNCERTAINTY_MEASURE_WITH_UNIT (LENGTH_MEASURE( 1.000000000000000082E-05 ), #313, 'distance_accuracy_value', 'NONE');
#350 = LINE ( 'NONE', #223, #73 ) ;
#351 = ORIENTED_EDGE ( 'NONE', *, *, #275, .F. ) ;
#352 = AXIS2_PLACEMENT_3D ( 'NONE', #112, #230, #234 ) ;
#353 = STYLED_ITEM ( 'NONE', ( #135 ), #326 ) ;
#354 = DIRECTION ( 'NONE',  ( -1.000000000000000000, 0.000000000000000000, 0.000000000000000000 ) ) ;
#355 = EDGE_LOOP ( 'NONE', ( #11, #270 ) ) ;
#356 = COLOUR_RGB ( '',0.7921568627450980005, 0.8196078431372548767, 0.9333333333333333481 ) ;
#357 =( GEOMETRIC_REPRESENTATION_CONTEXT ( 3 ) GLOBAL_UNCERTAINTY_ASSIGNED_CONTEXT ( ( #117 ) ) GLOBAL_UNIT_ASSIGNED_CONTEXT ( ( #132, #371, #5 ) ) REPRESENTATION_CONTEXT ( 'NONE', 'WORKASPACE' ) );
#358 = AXIS2_PLACEMENT_3D ( 'NONE', #53, #343, #82 ) ;
#359 = ORIENTED_EDGE ( 'NONE', *, *, #293, .F. ) ;
#360 = PRODUCT_DEFINITION_SHAPE ( 'NONE', 'NONE',  #165 ) ;
#361 = LENGTH_MEASURE_WITH_UNIT ( LENGTH_MEASURE( 0.02539999999999999897 ), #105 );
#362 = FACE_OUTER_BOUND ( 'NONE', #148, .T. ) ;
#363 = VERTEX_POINT ( 'NONE', #373 ) ;
#364 = DIRECTION ( 'NONE',  ( 1.000000000000000000, 0.000000000000000000, 0.000000000000000000 ) ) ;
#365 = DIRECTION ( 'NONE',  ( 1.000000000000000000, 1.224646799147353454E-16, 0.000000000000000000 ) ) ;
#366 = CIRCLE ( 'NONE', #329, 0.2187499999999999445 ) ;
#367 = DIRECTION ( 'NONE',  ( 1.000000000000000000, 0.000000000000000000, 0.000000000000000000 ) ) ;
#368 = CARTESIAN_POINT ( 'NONE',  ( 0.000000000000000000, 0.2187500000000000278, -0.2187499999999999445 ) ) ;
#369 = SURFACE_SIDE_STYLE ('',( #97 ) ) ;
#370 = SHAPE_DEFINITION_REPRESENTATION ( #360, #141 ) ;
#371 =( NAMED_UNIT ( * ) PLANE_ANGLE_UNIT ( ) SI_UNIT ( $, .RADIAN. ) );
#372 = ADVANCED_FACE ( 'NONE', ( #36 ), #178, .T. ) ;
#373 = CARTESIAN_POINT ( 'NONE',  ( -0.2187500000000000555, 3.500000000000000000, 0.000000000000000000 ) ) ;
ENDSEC;
END-ISO-10303-21;
