ISO-10303-21;
HEADER;
FILE_DESCRIPTION (( 'STEP AP214' ),
    '1' );
FILE_NAME ('44287.STEP',
    '2023-06-22T19:54:30',
    ( '' ),
    ( '' ),
    'SwSTEP 2.0',
    'SolidWorks 2023',
    '' );
FILE_SCHEMA (( 'AUTOMOTIVE_DESIGN' ));
ENDSEC;

DATA;
#1 = CARTESIAN_POINT ( 'NONE',  ( 0.000000000000000000, 0.000000000000000000, 0.000000000000000000 ) ) ;
#2 = AXIS2_PLACEMENT_3D ( 'NONE', #175, #117, #120 ) ;
#3 = DIMENSIONAL_EXPONENTS ( 1.000000000000000000, 0.000000000000000000, 0.000000000000000000, 0.000000000000000000, 0.000000000000000000, 0.000000000000000000, 0.000000000000000000 ) ;
#4 = DIRECTION ( 'NONE',  ( 0.000000000000000000, 0.000000000000000000, -1.000000000000000000 ) ) ;
#5 = CIRCLE ( 'NONE', #178, 0.2500000000000001110 ) ;
#6 = ADVANCED_FACE ( 'NONE', ( #243 ), #181, .T. ) ;
#7 = SURFACE_SIDE_STYLE ('',( #257 ) ) ;
#8 = LINE ( 'NONE', #263, #113 ) ;
#9 = CARTESIAN_POINT ( 'NONE',  ( 3.061616997868383018E-17, 0.000000000000000000, 0.2500000000000000000 ) ) ;
#10 = DIRECTION ( 'NONE',  ( -1.000000000000000000, 0.000000000000000000, 0.000000000000000000 ) ) ;
#11 = CIRCLE ( 'NONE', #104, 0.2499999999999999722 ) ;
#12 = DIRECTION ( 'NONE',  ( -0.000000000000000000, -1.000000000000000000, -0.000000000000000000 ) ) ;
#13 = ORIENTED_EDGE ( 'NONE', *, *, #74, .T. ) ;
#14 = FACE_OUTER_BOUND ( 'NONE', #100, .T. ) ;
#15 = DIRECTION ( 'NONE',  ( 1.000000000000000000, 3.498990854706726443E-17, 0.000000000000000000 ) ) ;
#16 = COLOUR_RGB ( '',1.000000000000000000, 0.000000000000000000, 0.000000000000000000 ) ;
#17 = CIRCLE ( 'NONE', #144, 0.2500000000000000000 ) ;
#18 = APPLICATION_PROTOCOL_DEFINITION ( 'draft international standard', 'automotive_design', 1998, #52 ) ;
#19 = ORIENTED_EDGE ( 'NONE', *, *, #43, .T. ) ;
#20 = ORIENTED_EDGE ( 'NONE', *, *, #288, .T. ) ;
#21 = ADVANCED_FACE ( 'NONE', ( #153 ), #130, .F. ) ;
#22 = SURFACE_STYLE_FILL_AREA ( #253 ) ;
#23 = PRESENTATION_LAYER_ASSIGNMENT (  '', '', ( #151 ) ) ;
#24 = DIMENSIONAL_EXPONENTS ( 1.000000000000000000, 0.000000000000000000, 0.000000000000000000, 0.000000000000000000, 0.000000000000000000, 0.000000000000000000, 0.000000000000000000 ) ;
#25 = FILL_AREA_STYLE_COLOUR ( '', #148 ) ;
#26 = DIRECTION ( 'NONE',  ( 0.000000000000000000, 0.000000000000000000, -1.000000000000000000 ) ) ;
#27 = EDGE_CURVE ( 'NONE', #248, #152, #49, .T. ) ;
#28 =( LENGTH_UNIT ( ) NAMED_UNIT ( * ) SI_UNIT ( $, .METRE. ) );
#29 = FILL_AREA_STYLE ('',( #51 ) ) ;
#30 = STYLED_ITEM ( 'NONE', ( #65 ), #142 ) ;
#31 =( NAMED_UNIT ( * ) PLANE_ANGLE_UNIT ( ) SI_UNIT ( $, .RADIAN. ) );
#32 = AXIS2_PLACEMENT_3D ( 'NONE', #1, #255, #163 ) ;
#33 =( NAMED_UNIT ( * ) PLANE_ANGLE_UNIT ( ) SI_UNIT ( $, .RADIAN. ) );
#34 = ORIENTED_EDGE ( 'NONE', *, *, #46, .F. ) ;
#35 = VERTEX_POINT ( 'NONE', #212 ) ;
#36 = DIRECTION ( 'NONE',  ( -3.498990854706726443E-17, 1.000000000000000000, -0.000000000000000000 ) ) ;
#37 = MECHANICAL_DESIGN_GEOMETRIC_PRESENTATION_REPRESENTATION (  '', ( #64 ), #67 ) ;
#38 = ORIENTED_EDGE ( 'NONE', *, *, #46, .T. ) ;
#39 = PLANE ( 'NONE',  #2 ) ;
#40 = ORIENTED_EDGE ( 'NONE', *, *, #27, .T. ) ;
#41 = SURFACE_SIDE_STYLE ('',( #22 ) ) ;
#42 = AXIS2_PLACEMENT_3D ( 'NONE', #189, #305, #85 ) ;
#43 = EDGE_CURVE ( 'NONE', #152, #186, #90, .T. ) ;
#44 = PRODUCT_DEFINITION_FORMATION_WITH_SPECIFIED_SOURCE ( 'ANY', '', #306, .NOT_KNOWN. ) ;
#45 = DIRECTION ( 'NONE',  ( 0.000000000000000000, 0.000000000000000000, -1.000000000000000000 ) ) ;
#46 = EDGE_CURVE ( 'NONE', #225, #35, #8, .T. ) ;
#47 = CARTESIAN_POINT ( 'NONE',  ( 0.000000000000000000, 0.000000000000000000, 0.000000000000000000 ) ) ;
#48 = LINE ( 'NONE', #9, #95 ) ;
#49 = CIRCLE ( 'NONE', #111, 0.2499999999999999722 ) ;
#50 = FILL_AREA_STYLE ('',( #260 ) ) ;
#51 = FILL_AREA_STYLE_COLOUR ( '', #138 ) ;
#52 = APPLICATION_CONTEXT ( 'automotive_design' ) ;
#53 = FILL_AREA_STYLE ('',( #203 ) ) ;
#54 = CLOSED_SHELL ( 'NONE', ( #185, #191, #6, #21 ) ) ;
#55 = ORIENTED_EDGE ( 'NONE', *, *, #74, .F. ) ;
#56 = DIRECTION ( 'NONE',  ( 1.000000000000000000, 0.000000000000000000, 0.000000000000000000 ) ) ;
#57 = DIRECTION ( 'NONE',  ( -1.000000000000000000, 0.000000000000000000, 0.000000000000000000 ) ) ;
#58 = SURFACE_SIDE_STYLE ('',( #294 ) ) ;
#59 = ORIENTED_EDGE ( 'NONE', *, *, #172, .F. ) ;
#60 = CIRCLE ( 'NONE', #42, 0.2499999999999999722 ) ;
#61 = AXIS2_PLACEMENT_3D ( 'NONE', #217, #72, #10 ) ;
#62 = ORIENTED_EDGE ( 'NONE', *, *, #146, .T. ) ;
#63 = DIRECTION ( 'NONE',  ( 0.000000000000000000, -1.000000000000000000, -0.000000000000000000 ) ) ;
#64 = STYLED_ITEM ( 'NONE', ( #177 ), #97 ) ;
#65 = PRESENTATION_STYLE_ASSIGNMENT (( #278 ) ) ;
#66 = DIRECTION ( 'NONE',  ( -3.498990854706726443E-17, 1.000000000000000000, 0.000000000000000000 ) ) ;
#67 =( GEOMETRIC_REPRESENTATION_CONTEXT ( 3 ) GLOBAL_UNCERTAINTY_ASSIGNED_CONTEXT ( ( #271 ) ) GLOBAL_UNIT_ASSIGNED_CONTEXT ( ( #195, #33, #298 ) ) REPRESENTATION_CONTEXT ( 'NONE', 'WORKASPACE' ) );
#68 =( NAMED_UNIT ( * ) SI_UNIT ( $, .STERADIAN. ) SOLID_ANGLE_UNIT ( ) );
#69 = PRODUCT_DEFINITION_SHAPE ( 'NONE', 'NONE',  #272 ) ;
#70 = PLANE ( 'NONE',  #267 ) ;
#71 = CARTESIAN_POINT ( 'NONE',  ( 0.2499999999999999722, 1.250000000000000000, 3.061616997868383634E-17 ) ) ;
#72 = DIRECTION ( 'NONE',  ( -3.498990854706726443E-17, 1.000000000000000000, -0.000000000000000000 ) ) ;
#73 = CARTESIAN_POINT ( 'NONE',  ( 3.061616997868383018E-17, 0.000000000000000000, 0.2500000000000000000 ) ) ;
#74 = EDGE_CURVE ( 'NONE', #82, #225, #198, .T. ) ;
#75 = EDGE_LOOP ( 'NONE', ( #102, #55 ) ) ;
#76 = SURFACE_SIDE_STYLE ('',( #222 ) ) ;
#77 = STYLED_ITEM ( 'NONE', ( #228 ), #168 ) ;
#78 = EDGE_LOOP ( 'NONE', ( #81, #160, #59, #223 ) ) ;
#79 = SHAPE_DEFINITION_REPRESENTATION ( #69, #108 ) ;
#80 = SURFACE_STYLE_USAGE ( .BOTH. , #103 ) ;
#81 = ORIENTED_EDGE ( 'NONE', *, *, #165, .T. ) ;
#82 = VERTEX_POINT ( 'NONE', #71 ) ;
#83 = ORIENTED_EDGE ( 'NONE', *, *, #303, .T. ) ;
#84 = MECHANICAL_DESIGN_GEOMETRIC_PRESENTATION_REPRESENTATION (  '', ( #192 ), #205 ) ;
#85 = DIRECTION ( 'NONE',  ( 0.000000000000000000, 0.000000000000000000, -1.000000000000000000 ) ) ;
#86 = LENGTH_MEASURE_WITH_UNIT ( LENGTH_MEASURE( 0.02539999999999999897 ), #281 );
#87 =( GEOMETRIC_REPRESENTATION_CONTEXT ( 3 ) GLOBAL_UNCERTAINTY_ASSIGNED_CONTEXT ( ( #210 ) ) GLOBAL_UNIT_ASSIGNED_CONTEXT ( ( #157, #123, #246 ) ) REPRESENTATION_CONTEXT ( 'NONE', 'WORKASPACE' ) );
#88 = CARTESIAN_POINT ( 'NONE',  ( 0.2500000000000000555, 3.000000000000000444, 3.061616997868384251E-17 ) ) ;
#89 = UNCERTAINTY_MEASURE_WITH_UNIT (LENGTH_MEASURE( 1.000000000000000082E-05 ), #140, 'distance_accuracy_value', 'NONE');
#90 = LINE ( 'NONE', #116, #143 ) ;
#91 =( CONVERSION_BASED_UNIT ( 'INCH', #94 ) LENGTH_UNIT ( ) NAMED_UNIT ( #24 ) );
#92 = DIRECTION ( 'NONE',  ( -3.498990854706726443E-17, 1.000000000000000000, -0.000000000000000000 ) ) ;
#93 = PRESENTATION_LAYER_ASSIGNMENT (  '', '', ( #64 ) ) ;
#94 = LENGTH_MEASURE_WITH_UNIT ( LENGTH_MEASURE( 0.02539999999999999897 ), #28 );
#95 = VECTOR ( 'NONE', #176, 39.37007874015748143 ) ;
#96 = PRESENTATION_STYLE_ASSIGNMENT (( #145 ) ) ;
#97 = MANIFOLD_SOLID_BREP ( 'Revolve - Cutting Edge', #275 ) ;
#98 = LINE ( 'NONE', #284, #118 ) ;
#99 = STYLED_ITEM ( 'NONE', ( #96 ), #308 ) ;
#100 = EDGE_LOOP ( 'NONE', ( #293, #40, #19, #196 ) ) ;
#101 = PRESENTATION_STYLE_ASSIGNMENT (( #80 ) ) ;
#102 = ORIENTED_EDGE ( 'NONE', *, *, #105, .F. ) ;
#103 = SURFACE_SIDE_STYLE ('',( #276 ) ) ;
#104 = AXIS2_PLACEMENT_3D ( 'NONE', #174, #154, #197 ) ;
#105 = EDGE_CURVE ( 'NONE', #225, #82, #11, .T. ) ;
#106 = CYLINDRICAL_SURFACE ( 'NONE', #219, 0.2500000000000000000 ) ;
#107 = EDGE_LOOP ( 'NONE', ( #250, #62 ) ) ;
#108 = ADVANCED_BREP_SHAPE_REPRESENTATION ( '44287', ( #97, #308, #114 ), #285 ) ;
#109 = EDGE_LOOP ( 'NONE', ( #182, #83 ) ) ;
#110 = ADVANCED_FACE ( 'NONE', ( #14 ), #106, .T. ) ;
#111 = AXIS2_PLACEMENT_3D ( 'NONE', #200, #256, #26 ) ;
#112 = SURFACE_STYLE_FILL_AREA ( #139 ) ;
#113 = VECTOR ( 'NONE', #92, 39.37007874015748143 ) ;
#114 = AXIS2_PLACEMENT_3D ( 'NONE', #240, #245, #56 ) ;
#115 = DIRECTION ( 'NONE',  ( 0.000000000000000000, 0.000000000000000000, -1.000000000000000000 ) ) ;
#116 = CARTESIAN_POINT ( 'NONE',  ( 0.000000000000000000, 0.000000000000000000, -0.2500000000000000000 ) ) ;
#117 = DIRECTION ( 'NONE',  ( 0.000000000000000000, 1.000000000000000000, 0.000000000000000000 ) ) ;
#118 = VECTOR ( 'NONE', #234, 39.37007874015748143 ) ;
#119 = ADVANCED_FACE ( 'NONE', ( #124 ), #202, .T. ) ;
#120 = DIRECTION ( 'NONE',  ( 0.000000000000000000, -0.000000000000000000, 1.000000000000000000 ) ) ;
#121 = PRODUCT_RELATED_PRODUCT_CATEGORY ( 'part', '', ( #306 ) ) ;
#122 =( GEOMETRIC_REPRESENTATION_CONTEXT ( 3 ) GLOBAL_UNCERTAINTY_ASSIGNED_CONTEXT ( ( #156 ) ) GLOBAL_UNIT_ASSIGNED_CONTEXT ( ( #208, #141, #251 ) ) REPRESENTATION_CONTEXT ( 'NONE', 'WORKASPACE' ) );
#123 =( NAMED_UNIT ( * ) PLANE_ANGLE_UNIT ( ) SI_UNIT ( $, .RADIAN. ) );
#124 = FACE_OUTER_BOUND ( 'NONE', #109, .T. ) ;
#125 =( CONVERSION_BASED_UNIT ( 'INCH', #273 ) LENGTH_UNIT ( ) NAMED_UNIT ( #254 ) );
#126 = DIRECTION ( 'NONE',  ( 3.498990854706726443E-17, -1.000000000000000000, 0.000000000000000000 ) ) ;
#127 = LENGTH_MEASURE_WITH_UNIT ( LENGTH_MEASURE( 0.02539999999999999897 ), #216 );
#128 =( LENGTH_UNIT ( ) NAMED_UNIT ( * ) SI_UNIT ( $, .METRE. ) );
#129 = PRESENTATION_LAYER_ASSIGNMENT (  '', '', ( #192 ) ) ;
#130 = PLANE ( 'NONE',  #238 ) ;
#131 = DIRECTION ( 'NONE',  ( 0.000000000000000000, 0.000000000000000000, -1.000000000000000000 ) ) ;
#132 = ORIENTED_EDGE ( 'NONE', *, *, #146, .F. ) ;
#133 = UNCERTAINTY_MEASURE_WITH_UNIT (LENGTH_MEASURE( 1.000000000000000082E-05 ), #264, 'distance_accuracy_value', 'NONE');
#134 = FILL_AREA_STYLE_COLOUR ( '', #215 ) ;
#135 = EDGE_LOOP ( 'NONE', ( #184, #20, #277, #34 ) ) ;
#136 = SURFACE_STYLE_USAGE ( .BOTH. , #41 ) ;
#137 = MECHANICAL_DESIGN_GEOMETRIC_PRESENTATION_REPRESENTATION (  '', ( #30 ), #122 ) ;
#138 = COLOUR_RGB ( '',0.7921568627450980005, 0.8196078431372548767, 0.9333333333333333481 ) ;
#139 = FILL_AREA_STYLE ('',( #25 ) ) ;
#140 =( CONVERSION_BASED_UNIT ( 'INCH', #86 ) LENGTH_UNIT ( ) NAMED_UNIT ( #309 ) );
#141 =( NAMED_UNIT ( * ) PLANE_ANGLE_UNIT ( ) SI_UNIT ( $, .RADIAN. ) );
#142 = ADVANCED_FACE ( 'NONE', ( #304 ), #232, .T. ) ;
#143 = VECTOR ( 'NONE', #193, 39.37007874015748143 ) ;
#144 = AXIS2_PLACEMENT_3D ( 'NONE', #47, #289, #115 ) ;
#145 = SURFACE_STYLE_USAGE ( .BOTH. , #7 ) ;
#146 = EDGE_CURVE ( 'NONE', #155, #35, #5, .T. ) ;
#147 = FACE_OUTER_BOUND ( 'NONE', #135, .T. ) ;
#148 = COLOUR_RGB ( '',1.000000000000000000, 0.000000000000000000, 0.000000000000000000 ) ;
#149 = DIRECTION ( 'NONE',  ( -3.498990854706726443E-17, 1.000000000000000000, -0.000000000000000000 ) ) ;
#150 = DIRECTION ( 'NONE',  ( -1.000000000000000000, -3.498990854706726443E-17, 0.000000000000000000 ) ) ;
#151 = STYLED_ITEM ( 'NONE', ( #101 ), #110 ) ;
#152 = VERTEX_POINT ( 'NONE', #206 ) ;
#153 = FACE_OUTER_BOUND ( 'NONE', #107, .T. ) ;
#154 = DIRECTION ( 'NONE',  ( -3.498990854706726443E-17, 1.000000000000000000, -0.000000000000000000 ) ) ;
#155 = VERTEX_POINT ( 'NONE', #88 ) ;
#156 = UNCERTAINTY_MEASURE_WITH_UNIT (LENGTH_MEASURE( 1.000000000000000082E-05 ), #208, 'distance_accuracy_value', 'NONE');
#157 =( CONVERSION_BASED_UNIT ( 'INCH', #224 ) LENGTH_UNIT ( ) NAMED_UNIT ( #207 ) );
#158 = PRESENTATION_LAYER_ASSIGNMENT (  '', '', ( #30 ) ) ;
#159 = ORIENTED_EDGE ( 'NONE', *, *, #27, .F. ) ;
#160 = ORIENTED_EDGE ( 'NONE', *, *, #247, .T. ) ;
#161 = UNCERTAINTY_MEASURE_WITH_UNIT (LENGTH_MEASURE( 1.000000000000000082E-05 ), #125, 'distance_accuracy_value', 'NONE');
#162 = SURFACE_SIDE_STYLE ('',( #112 ) ) ;
#163 = DIRECTION ( 'NONE',  ( 0.000000000000000000, 0.000000000000000000, -1.000000000000000000 ) ) ;
#164 = DIMENSIONAL_EXPONENTS ( 1.000000000000000000, 0.000000000000000000, 0.000000000000000000, 0.000000000000000000, 0.000000000000000000, 0.000000000000000000, 0.000000000000000000 ) ;
#165 = EDGE_CURVE ( 'NONE', #152, #248, #60, .T. ) ;
#166 = UNCERTAINTY_MEASURE_WITH_UNIT (LENGTH_MEASURE( 1.000000000000000082E-05 ), #91, 'distance_accuracy_value', 'NONE');
#167 = CARTESIAN_POINT ( 'NONE',  ( 3.061616997868382402E-17, 1.250000000000000000, 0.2499999999999999722 ) ) ;
#168 = ADVANCED_FACE ( 'NONE', ( #279 ), #39, .T. ) ;
#169 =( GEOMETRIC_REPRESENTATION_CONTEXT ( 3 ) GLOBAL_UNCERTAINTY_ASSIGNED_CONTEXT ( ( #166 ) ) GLOBAL_UNIT_ASSIGNED_CONTEXT ( ( #91, #286, #68 ) ) REPRESENTATION_CONTEXT ( 'NONE', 'WORKASPACE' ) );
#170 = APPLICATION_CONTEXT ( 'automotive_design' ) ;
#171 = CARTESIAN_POINT ( 'NONE',  ( -6.123233995736772199E-17, 3.000000000000000444, 0.000000000000000000 ) ) ;
#172 = EDGE_CURVE ( 'NONE', #186, #270, #220, .T. ) ;
#173 = CARTESIAN_POINT ( 'NONE',  ( 0.000000000000000000, 0.000000000000000000, -0.2500000000000000000 ) ) ;
#174 = CARTESIAN_POINT ( 'NONE',  ( 0.000000000000000000, 1.250000000000000000, 0.000000000000000000 ) ) ;
#175 = CARTESIAN_POINT ( 'NONE',  ( 0.000000000000000000, 1.250000000000000000, 0.000000000000000000 ) ) ;
#176 = DIRECTION ( 'NONE',  ( -0.000000000000000000, -1.000000000000000000, -0.000000000000000000 ) ) ;
#177 = PRESENTATION_STYLE_ASSIGNMENT (( #199 ) ) ;
#178 = AXIS2_PLACEMENT_3D ( 'NONE', #307, #249, #211 ) ;
#179 = SURFACE_STYLE_USAGE ( .BOTH. , #76 ) ;
#180 = CIRCLE ( 'NONE', #282, 0.2500000000000001110 ) ;
#181 = CYLINDRICAL_SURFACE ( 'NONE', #244, 0.2500000000000000555 ) ;
#182 = ORIENTED_EDGE ( 'NONE', *, *, #172, .T. ) ;
#183 =( LENGTH_UNIT ( ) NAMED_UNIT ( * ) SI_UNIT ( $, .METRE. ) );
#184 = ORIENTED_EDGE ( 'NONE', *, *, #105, .T. ) ;
#185 = ADVANCED_FACE ( 'NONE', ( #147 ), #290, .T. ) ;
#186 = VERTEX_POINT ( 'NONE', #173 ) ;
#187 =( NAMED_UNIT ( * ) SI_UNIT ( $, .STERADIAN. ) SOLID_ANGLE_UNIT ( ) );
#188 =( NAMED_UNIT ( * ) PLANE_ANGLE_UNIT ( ) SI_UNIT ( $, .RADIAN. ) );
#189 = CARTESIAN_POINT ( 'NONE',  ( 0.000000000000000000, 1.250000000000000000, 0.000000000000000000 ) ) ;
#190 =( LENGTH_UNIT ( ) NAMED_UNIT ( * ) SI_UNIT ( $, .METRE. ) );
#191 = ADVANCED_FACE ( 'NONE', ( #236 ), #70, .F. ) ;
#192 = STYLED_ITEM ( 'NONE', ( #300 ), #119 ) ;
#193 = DIRECTION ( 'NONE',  ( -0.000000000000000000, -1.000000000000000000, -0.000000000000000000 ) ) ;
#194 = CARTESIAN_POINT ( 'NONE',  ( -0.2499999999999999722, 1.250000000000000000, 0.000000000000000000 ) ) ;
#195 =( CONVERSION_BASED_UNIT ( 'INCH', #221 ) LENGTH_UNIT ( ) NAMED_UNIT ( #164 ) );
#196 = ORIENTED_EDGE ( 'NONE', *, *, #303, .F. ) ;
#197 = DIRECTION ( 'NONE',  ( -1.000000000000000000, 0.000000000000000000, 0.000000000000000000 ) ) ;
#198 = CIRCLE ( 'NONE', #229, 0.2499999999999999722 ) ;
#199 = SURFACE_STYLE_USAGE ( .BOTH. , #58 ) ;
#200 = CARTESIAN_POINT ( 'NONE',  ( 0.000000000000000000, 1.250000000000000000, 0.000000000000000000 ) ) ;
#201 =( NAMED_UNIT ( * ) PLANE_ANGLE_UNIT ( ) SI_UNIT ( $, .RADIAN. ) );
#202 = PLANE ( 'NONE',  #280 ) ;
#203 = FILL_AREA_STYLE_COLOUR ( '', #302 ) ;
#204 = PRODUCT_DEFINITION_CONTEXT ( 'detailed design', #52, 'design' ) ;
#205 =( GEOMETRIC_REPRESENTATION_CONTEXT ( 3 ) GLOBAL_UNCERTAINTY_ASSIGNED_CONTEXT ( ( #161 ) ) GLOBAL_UNIT_ASSIGNED_CONTEXT ( ( #125, #188, #187 ) ) REPRESENTATION_CONTEXT ( 'NONE', 'WORKASPACE' ) );
#206 = CARTESIAN_POINT ( 'NONE',  ( 0.000000000000000000, 1.250000000000000000, -0.2499999999999999722 ) ) ;
#207 = DIMENSIONAL_EXPONENTS ( 1.000000000000000000, 0.000000000000000000, 0.000000000000000000, 0.000000000000000000, 0.000000000000000000, 0.000000000000000000, 0.000000000000000000 ) ;
#208 =( CONVERSION_BASED_UNIT ( 'INCH', #231 ) LENGTH_UNIT ( ) NAMED_UNIT ( #283 ) );
#209 = AXIS2_PLACEMENT_3D ( 'NONE', #213, #218, #4 ) ;
#210 = UNCERTAINTY_MEASURE_WITH_UNIT (LENGTH_MEASURE( 1.000000000000000082E-05 ), #157, 'distance_accuracy_value', 'NONE');
#211 = DIRECTION ( 'NONE',  ( -1.000000000000000000, 0.000000000000000000, 0.000000000000000000 ) ) ;
#212 = CARTESIAN_POINT ( 'NONE',  ( -0.2500000000000001665, 3.000000000000000444, 0.000000000000000000 ) ) ;
#213 = CARTESIAN_POINT ( 'NONE',  ( 0.000000000000000000, 0.000000000000000000, 0.000000000000000000 ) ) ;
#214 = CARTESIAN_POINT ( 'NONE',  ( 0.000000000000000000, 1.250000000000000000, 0.000000000000000000 ) ) ;
#215 = COLOUR_RGB ( '',1.000000000000000000, 0.000000000000000000, 0.000000000000000000 ) ;
#216 =( LENGTH_UNIT ( ) NAMED_UNIT ( * ) SI_UNIT ( $, .METRE. ) );
#217 = CARTESIAN_POINT ( 'NONE',  ( -6.123233995736772199E-17, 3.000000000000000444, 0.000000000000000000 ) ) ;
#218 = DIRECTION ( 'NONE',  ( -0.000000000000000000, -1.000000000000000000, -0.000000000000000000 ) ) ;
#219 = AXIS2_PLACEMENT_3D ( 'NONE', #265, #12, #131 ) ;
#220 = CIRCLE ( 'NONE', #209, 0.2500000000000000000 ) ;
#221 = LENGTH_MEASURE_WITH_UNIT ( LENGTH_MEASURE( 0.02539999999999999897 ), #269 );
#222 = SURFACE_STYLE_FILL_AREA ( #53 ) ;
#223 = ORIENTED_EDGE ( 'NONE', *, *, #43, .F. ) ;
#224 = LENGTH_MEASURE_WITH_UNIT ( LENGTH_MEASURE( 0.02539999999999999897 ), #128 );
#225 = VERTEX_POINT ( 'NONE', #194 ) ;
#226 = EDGE_LOOP ( 'NONE', ( #266, #159 ) ) ;
#227 = CARTESIAN_POINT ( 'NONE',  ( 0.000000000000000000, 0.000000000000000000, 0.000000000000000000 ) ) ;
#228 = PRESENTATION_STYLE_ASSIGNMENT (( #136 ) ) ;
#229 = AXIS2_PLACEMENT_3D ( 'NONE', #214, #149, #287 ) ;
#230 =( GEOMETRIC_REPRESENTATION_CONTEXT ( 3 ) GLOBAL_UNCERTAINTY_ASSIGNED_CONTEXT ( ( #89 ) ) GLOBAL_UNIT_ASSIGNED_CONTEXT ( ( #140, #31, #262 ) ) REPRESENTATION_CONTEXT ( 'NONE', 'WORKASPACE' ) );
#231 = LENGTH_MEASURE_WITH_UNIT ( LENGTH_MEASURE( 0.02539999999999999897 ), #190 );
#232 = CYLINDRICAL_SURFACE ( 'NONE', #32, 0.2500000000000000000 ) ;
#233 = DIRECTION ( 'NONE',  ( -1.000000000000000000, 0.000000000000000000, 0.000000000000000000 ) ) ;
#234 = DIRECTION ( 'NONE',  ( -3.498990854706726443E-17, 1.000000000000000000, -0.000000000000000000 ) ) ;
#235 = EDGE_CURVE ( 'NONE', #35, #155, #180, .T. ) ;
#236 = FACE_OUTER_BOUND ( 'NONE', #75, .T. ) ;
#237 = FILL_AREA_STYLE ('',( #301 ) ) ;
#238 = AXIS2_PLACEMENT_3D ( 'NONE', #241, #126, #15 ) ;
#239 = MECHANICAL_DESIGN_GEOMETRIC_PRESENTATION_REPRESENTATION (  '', ( #99 ), #169 ) ;
#240 = CARTESIAN_POINT ( 'NONE',  ( 0.000000000000000000, 0.000000000000000000, 0.000000000000000000 ) ) ;
#241 = CARTESIAN_POINT ( 'NONE',  ( 0.2500000000000000555, 3.000000000000000444, 0.000000000000000000 ) ) ;
#242 = PRODUCT_CONTEXT ( 'NONE', #170, 'mechanical' ) ;
#243 = FACE_OUTER_BOUND ( 'NONE', #274, .T. ) ;
#244 = AXIS2_PLACEMENT_3D ( 'NONE', #268, #36, #57 ) ;
#245 = DIRECTION ( 'NONE',  ( 0.000000000000000000, 0.000000000000000000, 1.000000000000000000 ) ) ;
#246 =( NAMED_UNIT ( * ) SI_UNIT ( $, .STERADIAN. ) SOLID_ANGLE_UNIT ( ) );
#247 = EDGE_CURVE ( 'NONE', #248, #270, #48, .T. ) ;
#248 = VERTEX_POINT ( 'NONE', #167 ) ;
#249 = DIRECTION ( 'NONE',  ( -3.498990854706726443E-17, 1.000000000000000000, -0.000000000000000000 ) ) ;
#250 = ORIENTED_EDGE ( 'NONE', *, *, #235, .T. ) ;
#251 =( NAMED_UNIT ( * ) SI_UNIT ( $, .STERADIAN. ) SOLID_ANGLE_UNIT ( ) );
#252 = PRESENTATION_LAYER_ASSIGNMENT (  '', '', ( #77 ) ) ;
#253 = FILL_AREA_STYLE ('',( #134 ) ) ;
#254 = DIMENSIONAL_EXPONENTS ( 1.000000000000000000, 0.000000000000000000, 0.000000000000000000, 0.000000000000000000, 0.000000000000000000, 0.000000000000000000, 0.000000000000000000 ) ;
#255 = DIRECTION ( 'NONE',  ( -0.000000000000000000, -1.000000000000000000, -0.000000000000000000 ) ) ;
#256 = DIRECTION ( 'NONE',  ( -0.000000000000000000, -1.000000000000000000, -0.000000000000000000 ) ) ;
#257 = SURFACE_STYLE_FILL_AREA ( #29 ) ;
#258 = CARTESIAN_POINT ( 'NONE',  ( 1.530367125165163381E-34, 1.250000000000000000, 0.000000000000000000 ) ) ;
#259 = DIRECTION ( 'NONE',  ( -3.498990854706726443E-17, 1.000000000000000000, -0.000000000000000000 ) ) ;
#260 = FILL_AREA_STYLE_COLOUR ( '', #261 ) ;
#261 = COLOUR_RGB ( '',0.7921568627450980005, 0.8196078431372548767, 0.9333333333333333481 ) ;
#262 =( NAMED_UNIT ( * ) SI_UNIT ( $, .STERADIAN. ) SOLID_ANGLE_UNIT ( ) );
#263 = CARTESIAN_POINT ( 'NONE',  ( -0.2500000000000001110, 3.000000000000000444, 0.000000000000000000 ) ) ;
#264 =( CONVERSION_BASED_UNIT ( 'INCH', #127 ) LENGTH_UNIT ( ) NAMED_UNIT ( #3 ) );
#265 = CARTESIAN_POINT ( 'NONE',  ( 0.000000000000000000, 0.000000000000000000, 0.000000000000000000 ) ) ;
#266 = ORIENTED_EDGE ( 'NONE', *, *, #165, .F. ) ;
#267 = AXIS2_PLACEMENT_3D ( 'NONE', #258, #66, #150 ) ;
#268 = CARTESIAN_POINT ( 'NONE',  ( -6.123233995736772199E-17, 3.000000000000000444, 0.000000000000000000 ) ) ;
#269 =( LENGTH_UNIT ( ) NAMED_UNIT ( * ) SI_UNIT ( $, .METRE. ) );
#270 = VERTEX_POINT ( 'NONE', #73 ) ;
#271 = UNCERTAINTY_MEASURE_WITH_UNIT (LENGTH_MEASURE( 1.000000000000000082E-05 ), #195, 'distance_accuracy_value', 'NONE');
#272 = PRODUCT_DEFINITION ( 'UNKNOWN', '', #44, #204 ) ;
#273 = LENGTH_MEASURE_WITH_UNIT ( LENGTH_MEASURE( 0.02539999999999999897 ), #183 );
#274 = EDGE_LOOP ( 'NONE', ( #295, #13, #38, #132 ) ) ;
#275 = CLOSED_SHELL ( 'NONE', ( #142, #168, #110, #119 ) ) ;
#276 = SURFACE_STYLE_FILL_AREA ( #237 ) ;
#277 = ORIENTED_EDGE ( 'NONE', *, *, #235, .F. ) ;
#278 = SURFACE_STYLE_USAGE ( .BOTH. , #162 ) ;
#279 = FACE_OUTER_BOUND ( 'NONE', #226, .T. ) ;
#280 = AXIS2_PLACEMENT_3D ( 'NONE', #227, #63, #45 ) ;
#281 =( LENGTH_UNIT ( ) NAMED_UNIT ( * ) SI_UNIT ( $, .METRE. ) );
#282 = AXIS2_PLACEMENT_3D ( 'NONE', #171, #259, #233 ) ;
#283 = DIMENSIONAL_EXPONENTS ( 1.000000000000000000, 0.000000000000000000, 0.000000000000000000, 0.000000000000000000, 0.000000000000000000, 0.000000000000000000, 0.000000000000000000 ) ;
#284 = CARTESIAN_POINT ( 'NONE',  ( 0.2499999999999999722, 3.000000000000000444, 3.061616997868383634E-17 ) ) ;
#285 =( GEOMETRIC_REPRESENTATION_CONTEXT ( 3 ) GLOBAL_UNCERTAINTY_ASSIGNED_CONTEXT ( ( #133 ) ) GLOBAL_UNIT_ASSIGNED_CONTEXT ( ( #264, #201, #299 ) ) REPRESENTATION_CONTEXT ( 'NONE', 'WORKASPACE' ) );
#286 =( NAMED_UNIT ( * ) PLANE_ANGLE_UNIT ( ) SI_UNIT ( $, .RADIAN. ) );
#287 = DIRECTION ( 'NONE',  ( -1.000000000000000000, 0.000000000000000000, 0.000000000000000000 ) ) ;
#288 = EDGE_CURVE ( 'NONE', #82, #155, #98, .T. ) ;
#289 = DIRECTION ( 'NONE',  ( -0.000000000000000000, -1.000000000000000000, -0.000000000000000000 ) ) ;
#290 = CYLINDRICAL_SURFACE ( 'NONE', #61, 0.2500000000000000555 ) ;
#291 = MECHANICAL_DESIGN_GEOMETRIC_PRESENTATION_REPRESENTATION (  '', ( #151 ), #87 ) ;
#292 = APPLICATION_PROTOCOL_DEFINITION ( 'draft international standard', 'automotive_design', 1998, #170 ) ;
#293 = ORIENTED_EDGE ( 'NONE', *, *, #247, .F. ) ;
#294 = SURFACE_STYLE_FILL_AREA ( #50 ) ;
#295 = ORIENTED_EDGE ( 'NONE', *, *, #288, .F. ) ;
#296 = MECHANICAL_DESIGN_GEOMETRIC_PRESENTATION_REPRESENTATION (  '', ( #77 ), #230 ) ;
#297 = PRESENTATION_LAYER_ASSIGNMENT (  '', '', ( #99 ) ) ;
#298 =( NAMED_UNIT ( * ) SI_UNIT ( $, .STERADIAN. ) SOLID_ANGLE_UNIT ( ) );
#299 =( NAMED_UNIT ( * ) SI_UNIT ( $, .STERADIAN. ) SOLID_ANGLE_UNIT ( ) );
#300 = PRESENTATION_STYLE_ASSIGNMENT (( #179 ) ) ;
#301 = FILL_AREA_STYLE_COLOUR ( '', #16 ) ;
#302 = COLOUR_RGB ( '',1.000000000000000000, 0.000000000000000000, 0.000000000000000000 ) ;
#303 = EDGE_CURVE ( 'NONE', #270, #186, #17, .T. ) ;
#304 = FACE_OUTER_BOUND ( 'NONE', #78, .T. ) ;
#305 = DIRECTION ( 'NONE',  ( -0.000000000000000000, -1.000000000000000000, -0.000000000000000000 ) ) ;
#306 = PRODUCT ( '44287', '44287', '', ( #242 ) ) ;
#307 = CARTESIAN_POINT ( 'NONE',  ( -6.123233995736772199E-17, 3.000000000000000444, 0.000000000000000000 ) ) ;
#308 = MANIFOLD_SOLID_BREP ( 'Revolve - Tool Body (Straight Shanked)', #54 ) ;
#309 = DIMENSIONAL_EXPONENTS ( 1.000000000000000000, 0.000000000000000000, 0.000000000000000000, 0.000000000000000000, 0.000000000000000000, 0.000000000000000000, 0.000000000000000000 ) ;
ENDSEC;
END-ISO-10303-21;
