ISO-10303-21;
HEADER;
FILE_DESCRIPTION (( 'STEP AP214' ),
    '1' );
FILE_NAME ('Micro_MMBM-020-15X.STEP',
    '2021-09-03T16:30:43',
    ( '' ),
    ( '' ),
    'SwSTEP 2.0',
    'SolidWorks 2020',
    '' );
FILE_SCHEMA (( 'AUTOMOTIVE_DESIGN' ));
ENDSEC;

DATA;
#1 = CARTESIAN_POINT ( 'NONE',  ( 0.0000000000000000000, 0.0000000000000000000, 0.0000000000000000000 ) ) ;
#2 = FACE_OUTER_BOUND ( 'NONE', #266, .T. ) ;
#3 = STYLED_ITEM ( 'NONE', ( #138 ), #228 ) ;
#4 = AXIS2_PLACEMENT_3D ( 'NONE', #190, #348, #275 ) ;
#5 = VERTEX_POINT ( 'NONE', #231 ) ;
#6 = CARTESIAN_POINT ( 'NONE',  ( -0.03936606300000000669, 0.0000000000000000000, 0.0000000000000000000 ) ) ;
#7 = VERTEX_POINT ( 'NONE', #318 ) ;
#8 = CARTESIAN_POINT ( 'NONE',  ( 0.0000000000000000000, 0.0000000000000000000, 0.0000000000000000000 ) ) ;
#9 = ADVANCED_FACE ( 'NONE', ( #313 ), #233, .T. ) ;
#10 = ORIENTED_EDGE ( 'NONE', *, *, #137, .F. ) ;
#11 = FACE_OUTER_BOUND ( 'NONE', #239, .T. ) ;
#12 = UNCERTAINTY_MEASURE_WITH_UNIT (LENGTH_MEASURE( 1.000000000000000082E-05 ), #95, 'distance_accuracy_value', 'NONE');
#13 =( GEOMETRIC_REPRESENTATION_CONTEXT ( 3 ) GLOBAL_UNCERTAINTY_ASSIGNED_CONTEXT ( ( #12 ) ) GLOBAL_UNIT_ASSIGNED_CONTEXT ( ( #95, #195, #284 ) ) REPRESENTATION_CONTEXT ( 'NONE', 'WORKASPACE' ) );
#14 = ORIENTED_EDGE ( 'NONE', *, *, #357, .F. ) ;
#15 = ORIENTED_EDGE ( 'NONE', *, *, #281, .F. ) ;
#16 = DIRECTION ( 'NONE',  ( -0.0000000000000000000, -0.0000000000000000000, -1.000000000000000000 ) ) ;
#17 =( LENGTH_UNIT ( ) NAMED_UNIT ( * ) SI_UNIT ( $, .METRE. ) );
#18 = CARTESIAN_POINT ( 'NONE',  ( 0.0000000000000000000, 0.0000000000000000000, 0.5905510000000000481 ) ) ;
#19 = CIRCLE ( 'NONE', #230, 0.03740150000000001113 ) ;
#20 = CARTESIAN_POINT ( 'NONE',  ( -0.1031100000000002570, 0.0000000000000000000, 2.244094000000000033 ) ) ;
#21 =( CONVERSION_BASED_UNIT ( 'INCH', #362 ) LENGTH_UNIT ( ) NAMED_UNIT ( #208 ) );
#22 = DIRECTION ( 'NONE',  ( -1.000000000000000000, 0.0000000000000000000, 0.0000000000000000000 ) ) ;
#23 = DIRECTION ( 'NONE',  ( -1.000000000000000000, 0.0000000000000000000, 0.0000000000000000000 ) ) ;
#24 = CIRCLE ( 'NONE', #287, 0.03936606300000000669 ) ;
#25 = AXIS2_PLACEMENT_3D ( 'NONE', #310, #227, #115 ) ;
#26 = DIRECTION ( 'NONE',  ( 0.0000000000000000000, 0.0000000000000000000, 1.000000000000000000 ) ) ;
#27 = ORIENTED_EDGE ( 'NONE', *, *, #282, .T. ) ;
#28 = EDGE_LOOP ( 'NONE', ( #34, #264, #211, #354 ) ) ;
#29 = CARTESIAN_POINT ( 'NONE',  ( 0.0000000000000000000, 0.0000000000000000000, 0.5905510000000000481 ) ) ;
#30 = FACE_BOUND ( 'NONE', #248, .T. ) ;
#31 = VERTEX_POINT ( 'NONE', #182 ) ;
#32 = DIRECTION ( 'NONE',  ( -1.000000000000000000, 0.0000000000000000000, 0.0000000000000000000 ) ) ;
#33 = EDGE_CURVE ( 'NONE', #150, #93, #68, .T. ) ;
#34 = ORIENTED_EDGE ( 'NONE', *, *, #302, .T. ) ;
#35 = CARTESIAN_POINT ( 'NONE',  ( 0.0000000000000000000, 0.0000000000000000000, 2.244094000000000033 ) ) ;
#36 = DIRECTION ( 'NONE',  ( -0.0000000000000000000, -0.0000000000000000000, -1.000000000000000000 ) ) ;
#37 = CIRCLE ( 'NONE', #99, 0.1031100000000002570 ) ;
#38 = SURFACE_STYLE_USAGE ( .BOTH. , #304 ) ;
#39 = CARTESIAN_POINT ( 'NONE',  ( 0.03936606300000000669, 4.820952304798306567E-18, 0.07874000000000000443 ) ) ;
#40 = UNCERTAINTY_MEASURE_WITH_UNIT (LENGTH_MEASURE( 1.000000000000000082E-05 ), #21, 'distance_accuracy_value', 'NONE');
#41 = VERTEX_POINT ( 'NONE', #294 ) ;
#42 = FILL_AREA_STYLE ('',( #142 ) ) ;
#43 = ORIENTED_EDGE ( 'NONE', *, *, #200, .F. ) ;
#44 =( NAMED_UNIT ( * ) SI_UNIT ( $, .STERADIAN. ) SOLID_ANGLE_UNIT ( ) );
#45 = APPLICATION_CONTEXT ( 'automotive_design' ) ;
#46 = VECTOR ( 'NONE', #185, 39.37007874015748854 ) ;
#47 = CARTESIAN_POINT ( 'NONE',  ( 0.0000000000000000000, 0.0000000000000000000, 2.244094000000000033 ) ) ;
#48 = PRODUCT ( 'Micro_MMBM-020-15X', 'Micro_MMBM-020-15X', '', ( #166 ) ) ;
#49 = CARTESIAN_POINT ( 'NONE',  ( 0.0000000000000000000, 0.0000000000000000000, 0.07874000000000000443 ) ) ;
#50 = AXIS2_PLACEMENT_3D ( 'NONE', #49, #82, #23 ) ;
#51 = PRODUCT_DEFINITION_CONTEXT ( 'detailed design', #45, 'design' ) ;
#52 = DIRECTION ( 'NONE',  ( -1.000000000000000000, 0.0000000000000000000, 0.0000000000000000000 ) ) ;
#53 = VECTOR ( 'NONE', #160, 39.37007874015748143 ) ;
#54 = DIRECTION ( 'NONE',  ( -0.0000000000000000000, -0.0000000000000000000, -1.000000000000000000 ) ) ;
#55 = EDGE_CURVE ( 'NONE', #31, #350, #202, .T. ) ;
#56 = ORIENTED_EDGE ( 'NONE', *, *, #357, .T. ) ;
#57 = FACE_OUTER_BOUND ( 'NONE', #358, .T. ) ;
#58 = DIRECTION ( 'NONE',  ( -0.0000000000000000000, -0.0000000000000000000, -1.000000000000000000 ) ) ;
#59 = ORIENTED_EDGE ( 'NONE', *, *, #281, .T. ) ;
#60 = ORIENTED_EDGE ( 'NONE', *, *, #224, .F. ) ;
#61 = DIRECTION ( 'NONE',  ( 0.0000000000000000000, 0.0000000000000000000, -1.000000000000000000 ) ) ;
#62 = ADVANCED_FACE ( 'NONE', ( #30, #149 ), #378, .T. ) ;
#63 = CIRCLE ( 'NONE', #118, 0.1031100000000002570 ) ;
#64 = ORIENTED_EDGE ( 'NONE', *, *, #158, .T. ) ;
#65 = CYLINDRICAL_SURFACE ( 'NONE', #151, 0.03740150000000003888 ) ;
#66 = EDGE_CURVE ( 'NONE', #41, #375, #295, .T. ) ;
#67 = DIMENSIONAL_EXPONENTS ( 1.000000000000000000, 0.0000000000000000000, 0.0000000000000000000, 0.0000000000000000000, 0.0000000000000000000, 0.0000000000000000000, 0.0000000000000000000 ) ;
#68 = LINE ( 'NONE', #343, #131 ) ;
#69 = DIRECTION ( 'NONE',  ( -1.000000000000000000, 0.0000000000000000000, 0.0000000000000000000 ) ) ;
#70 = AXIS2_PLACEMENT_3D ( 'NONE', #135, #303, #288 ) ;
#71 = AXIS2_PLACEMENT_3D ( 'NONE', #128, #352, #157 ) ;
#72 = EDGE_CURVE ( 'NONE', #127, #7, #191, .T. ) ;
#73 = DIRECTION ( 'NONE',  ( -1.000000000000000000, 0.0000000000000000000, 0.0000000000000000000 ) ) ;
#74 = CARTESIAN_POINT ( 'NONE',  ( 0.1181100000000000066, 1.446430334472939084E-17, 2.229093999999999465 ) ) ;
#75 = DIRECTION ( 'NONE',  ( 0.0000000000000000000, 0.0000000000000000000, 1.000000000000000000 ) ) ;
#76 = ADVANCED_FACE ( 'NONE', ( #260 ), #86, .T. ) ;
#77 = AXIS2_PLACEMENT_3D ( 'NONE', #110, #163, #194 ) ;
#78 = CIRCLE ( 'NONE', #346, 0.1181100000000000066 ) ;
#79 = DIRECTION ( 'NONE',  ( -0.0000000000000000000, -0.0000000000000000000, -1.000000000000000000 ) ) ;
#80 = ADVANCED_FACE ( 'NONE', ( #2 ), #203, .T. ) ;
#81 = CARTESIAN_POINT ( 'NONE',  ( 0.0000000000000000000, 0.0000000000000000000, 0.07874000000000000443 ) ) ;
#82 = DIRECTION ( 'NONE',  ( -0.0000000000000000000, -0.0000000000000000000, -1.000000000000000000 ) ) ;
#83 = AXIS2_PLACEMENT_3D ( 'NONE', #120, #232, #52 ) ;
#84 = AXIS2_PLACEMENT_3D ( 'NONE', #253, #366, #111 ) ;
#85 = CARTESIAN_POINT ( 'NONE',  ( 0.0000000000000000000, 0.0000000000000000000, 2.244094000000000033 ) ) ;
#86 = PLANE ( 'NONE',  #123 ) ;
#87 = EDGE_CURVE ( 'NONE', #134, #350, #98, .T. ) ;
#88 = COLOUR_RGB ( '',0.7921568627450980005, 0.8196078431372548767, 0.9333333333333333481 ) ;
#89 = PRODUCT_DEFINITION_FORMATION_WITH_SPECIFIED_SOURCE ( 'ANY', '', #48, .NOT_KNOWN. ) ;
#90 = EDGE_LOOP ( 'NONE', ( #100, #329, #299, #180 ) ) ;
#91 = ORIENTED_EDGE ( 'NONE', *, *, #282, .F. ) ;
#92 = CARTESIAN_POINT ( 'NONE',  ( 0.1181100000000000066, 1.446430334472939084E-17, 0.5905510000000000481 ) ) ;
#93 = VERTEX_POINT ( 'NONE', #169 ) ;
#94 = ORIENTED_EDGE ( 'NONE', *, *, #259, .T. ) ;
#95 =( CONVERSION_BASED_UNIT ( 'INCH', #152 ) LENGTH_UNIT ( ) NAMED_UNIT ( #155 ) );
#96 = ORIENTED_EDGE ( 'NONE', *, *, #119, .F. ) ;
#97 = DIRECTION ( 'NONE',  ( 0.0000000000000000000, 0.0000000000000000000, -1.000000000000000000 ) ) ;
#98 = CIRCLE ( 'NONE', #261, 0.03936606300000000669 ) ;
#99 = AXIS2_PLACEMENT_3D ( 'NONE', #47, #75, #307 ) ;
#100 = ORIENTED_EDGE ( 'NONE', *, *, #319, .F. ) ;
#101 = DIRECTION ( 'NONE',  ( -1.000000000000000000, 0.0000000000000000000, 0.0000000000000000000 ) ) ;
#102 = UNCERTAINTY_MEASURE_WITH_UNIT (LENGTH_MEASURE( 1.000000000000000082E-05 ), #276, 'distance_accuracy_value', 'NONE');
#103 = ORIENTED_EDGE ( 'NONE', *, *, #145, .F. ) ;
#104 = CARTESIAN_POINT ( 'NONE',  ( 0.0000000000000000000, 0.0000000000000000000, 0.07874000000000000443 ) ) ;
#105 =( LENGTH_UNIT ( ) NAMED_UNIT ( * ) SI_UNIT ( $, .METRE. ) );
#106 = CARTESIAN_POINT ( 'NONE',  ( -0.03936606300000000669, 0.0000000000000000000, 0.0000000000000000000 ) ) ;
#107 = CONICAL_SURFACE ( 'NONE', #50, 0.03936606300000000669, 0.1745329251994332254 ) ;
#108 = DIRECTION ( 'NONE',  ( -1.000000000000000000, 0.0000000000000000000, 0.0000000000000000000 ) ) ;
#109 = DIRECTION ( 'NONE',  ( -0.0000000000000000000, -0.0000000000000000000, -1.000000000000000000 ) ) ;
#110 = CARTESIAN_POINT ( 'NONE',  ( 0.0000000000000000000, 0.0000000000000000000, 0.08988159042539359267 ) ) ;
#111 = DIRECTION ( 'NONE',  ( 1.000000000000000000, 0.0000000000000000000, 0.0000000000000000000 ) ) ;
#112 = AXIS2_PLACEMENT_3D ( 'NONE', #81, #225, #73 ) ;
#113 = MECHANICAL_DESIGN_GEOMETRIC_PRESENTATION_REPRESENTATION (  '', ( #204 ), #256 ) ;
#114 = DIRECTION ( 'NONE',  ( -0.0000000000000000000, -0.0000000000000000000, -1.000000000000000000 ) ) ;
#115 = DIRECTION ( 'NONE',  ( 1.000000000000000000, 0.0000000000000000000, 0.0000000000000000000 ) ) ;
#116 = APPLICATION_CONTEXT ( 'automotive_design' ) ;
#117 = ADVANCED_BREP_SHAPE_REPRESENTATION ( 'Micro_MMBM-020-15X', ( #228, #84 ), #13 ) ;
#118 = AXIS2_PLACEMENT_3D ( 'NONE', #278, #219, #285 ) ;
#119 = EDGE_CURVE ( 'NONE', #189, #5, #305, .T. ) ;
#120 = CARTESIAN_POINT ( 'NONE',  ( 0.03740150000000006664, 0.0000000000000000000, 0.5905510000000000481 ) ) ;
#121 = DIRECTION ( 'NONE',  ( -0.0000000000000000000, -0.0000000000000000000, -1.000000000000000000 ) ) ;
#122 = ORIENTED_EDGE ( 'NONE', *, *, #87, .F. ) ;
#123 = AXIS2_PLACEMENT_3D ( 'NONE', #85, #26, #262 ) ;
#124 = AXIS2_PLACEMENT_3D ( 'NONE', #356, #265, #360 ) ;
#125 = DIRECTION ( 'NONE',  ( 0.0000000000000000000, 0.0000000000000000000, 1.000000000000000000 ) ) ;
#126 = CARTESIAN_POINT ( 'NONE',  ( 0.0000000000000000000, 0.0000000000000000000, 0.0000000000000000000 ) ) ;
#127 = VERTEX_POINT ( 'NONE', #20 ) ;
#128 = CARTESIAN_POINT ( 'NONE',  ( 0.0000000000000000000, 0.0000000000000000000, 2.244094000000000033 ) ) ;
#129 = CYLINDRICAL_SURFACE ( 'NONE', #4, 0.03740150000000003888 ) ;
#130 = EDGE_LOOP ( 'NONE', ( #103, #179, #147, #60 ) ) ;
#131 = VECTOR ( 'NONE', #58, 39.37007874015748143 ) ;
#132 = CARTESIAN_POINT ( 'NONE',  ( 0.0000000000000000000, 0.0000000000000000000, 0.08988159042539359267 ) ) ;
#133 = PRESENTATION_LAYER_ASSIGNMENT (  '', '', ( #3 ) ) ;
#134 = VERTEX_POINT ( 'NONE', #106 ) ;
#135 = CARTESIAN_POINT ( 'NONE',  ( 0.0000000000000000000, 0.0000000000000000000, 0.5905510000000000481 ) ) ;
#136 = FACE_OUTER_BOUND ( 'NONE', #28, .T. ) ;
#137 = EDGE_CURVE ( 'NONE', #7, #41, #309, .T. ) ;
#138 = PRESENTATION_STYLE_ASSIGNMENT (( #255 ) ) ;
#139 = SURFACE_STYLE_FILL_AREA ( #42 ) ;
#140 =( NAMED_UNIT ( * ) SI_UNIT ( $, .STERADIAN. ) SOLID_ANGLE_UNIT ( ) );
#141 = CARTESIAN_POINT ( 'NONE',  ( 0.03740150000000007358, 4.580362725830981266E-18, 0.5905510000000000481 ) ) ;
#142 = FILL_AREA_STYLE_COLOUR ( '', #88 ) ;
#143 = FACE_OUTER_BOUND ( 'NONE', #247, .T. ) ;
#144 = VERTEX_POINT ( 'NONE', #74 ) ;
#145 = EDGE_CURVE ( 'NONE', #5, #31, #170, .T. ) ;
#146 = DIRECTION ( 'NONE',  ( -0.0000000000000000000, -0.0000000000000000000, -1.000000000000000000 ) ) ;
#147 = ORIENTED_EDGE ( 'NONE', *, *, #341, .T. ) ;
#148 = DIRECTION ( 'NONE',  ( -1.000000000000000000, 0.0000000000000000000, 0.0000000000000000000 ) ) ;
#149 = FACE_OUTER_BOUND ( 'NONE', #156, .T. ) ;
#150 = VERTEX_POINT ( 'NONE', #221 ) ;
#151 = AXIS2_PLACEMENT_3D ( 'NONE', #317, #293, #216 ) ;
#152 = LENGTH_MEASURE_WITH_UNIT ( LENGTH_MEASURE( 0.02539999999999999897 ), #105 );
#153 = ORIENTED_EDGE ( 'NONE', *, *, #137, .T. ) ;
#154 = DIRECTION ( 'NONE',  ( -0.0000000000000000000, -0.0000000000000000000, -1.000000000000000000 ) ) ;
#155 = DIMENSIONAL_EXPONENTS ( 1.000000000000000000, 0.0000000000000000000, 0.0000000000000000000, 0.0000000000000000000, 0.0000000000000000000, 0.0000000000000000000, 0.0000000000000000000 ) ;
#156 = EDGE_LOOP ( 'NONE', ( #217, #59 ) ) ;
#157 = DIRECTION ( 'NONE',  ( -1.000000000000000000, 0.0000000000000000000, 0.0000000000000000000 ) ) ;
#158 = EDGE_CURVE ( 'NONE', #144, #375, #283, .T. ) ;
#159 = ORIENTED_EDGE ( 'NONE', *, *, #200, .T. ) ;
#160 = DIRECTION ( 'NONE',  ( -0.1736481776669306087, 0.0000000000000000000, -0.9848077530122080203 ) ) ;
#161 =( GEOMETRIC_REPRESENTATION_CONTEXT ( 3 ) GLOBAL_UNCERTAINTY_ASSIGNED_CONTEXT ( ( #40 ) ) GLOBAL_UNIT_ASSIGNED_CONTEXT ( ( #21, #196, #140 ) ) REPRESENTATION_CONTEXT ( 'NONE', 'WORKASPACE' ) );
#162 = AXIS2_PLACEMENT_3D ( 'NONE', #206, #297, #148 ) ;
#163 = DIRECTION ( 'NONE',  ( -0.0000000000000000000, -0.0000000000000000000, -1.000000000000000000 ) ) ;
#164 = CARTESIAN_POINT ( 'NONE',  ( 0.0000000000000000000, 0.0000000000000000000, 0.07874000000000000443 ) ) ;
#165 =( LENGTH_UNIT ( ) NAMED_UNIT ( * ) SI_UNIT ( $, .METRE. ) );
#166 = PRODUCT_CONTEXT ( 'NONE', #116, 'mechanical' ) ;
#167 = CIRCLE ( 'NONE', #373, 0.03740150000000006664 ) ;
#168 = ORIENTED_EDGE ( 'NONE', *, *, #341, .F. ) ;
#169 = CARTESIAN_POINT ( 'NONE',  ( -0.03740150000000001113, 0.0000000000000000000, 0.08988159042539359267 ) ) ;
#170 = LINE ( 'NONE', #39, #321 ) ;
#171 = DIRECTION ( 'NONE',  ( -0.0000000000000000000, -0.0000000000000000000, -1.000000000000000000 ) ) ;
#172 = VECTOR ( 'NONE', #109, 39.37007874015748143 ) ;
#173 = PRODUCT_DEFINITION ( 'UNKNOWN', '', #89, #51 ) ;
#174 = ORIENTED_EDGE ( 'NONE', *, *, #226, .T. ) ;
#175 = CIRCLE ( 'NONE', #162, 0.03740150000000006664 ) ;
#176 = DIRECTION ( 'NONE',  ( -1.000000000000000000, 0.0000000000000000000, 0.0000000000000000000 ) ) ;
#177 = ORIENTED_EDGE ( 'NONE', *, *, #319, .T. ) ;
#178 = PRODUCT_DEFINITION_SHAPE ( 'NONE', 'NONE',  #173 ) ;
#179 = ORIENTED_EDGE ( 'NONE', *, *, #342, .T. ) ;
#180 = ORIENTED_EDGE ( 'NONE', *, *, #306, .F. ) ;
#181 = DIRECTION ( 'NONE',  ( 1.000000000000000000, 0.0000000000000000000, -0.0000000000000000000 ) ) ;
#182 = CARTESIAN_POINT ( 'NONE',  ( 0.03936606300000000669, 4.820952304798306567E-18, 0.07874000000000000443 ) ) ;
#183 = ORIENTED_EDGE ( 'NONE', *, *, #188, .F. ) ;
#184 = AXIS2_PLACEMENT_3D ( 'NONE', #372, #171, #291 ) ;
#185 = DIRECTION ( 'NONE',  ( 0.7071067811865358044, 8.659560562354788645E-17, -0.7071067811865590080 ) ) ;
#186 = ORIENTED_EDGE ( 'NONE', *, *, #66, .F. ) ;
#187 = CARTESIAN_POINT ( 'NONE',  ( -0.03936606300000000669, 0.0000000000000000000, 0.07874000000000000443 ) ) ;
#188 = EDGE_CURVE ( 'NONE', #316, #127, #63, .T. ) ;
#189 = VERTEX_POINT ( 'NONE', #141 ) ;
#190 = CARTESIAN_POINT ( 'NONE',  ( 0.0000000000000000000, 0.0000000000000000000, 0.0000000000000000000 ) ) ;
#191 = LINE ( 'NONE', #377, #340 ) ;
#192 = CIRCLE ( 'NONE', #234, 0.1181100000000000066 ) ;
#193 = SURFACE_STYLE_FILL_AREA ( #280 ) ;
#194 = DIRECTION ( 'NONE',  ( -1.000000000000000000, 0.0000000000000000000, 0.0000000000000000000 ) ) ;
#195 =( NAMED_UNIT ( * ) PLANE_ANGLE_UNIT ( ) SI_UNIT ( $, .RADIAN. ) );
#196 =( NAMED_UNIT ( * ) PLANE_ANGLE_UNIT ( ) SI_UNIT ( $, .RADIAN. ) );
#197 = VECTOR ( 'NONE', #16, 39.37007874015748143 ) ;
#198 = DIRECTION ( 'NONE',  ( -1.000000000000000000, 0.0000000000000000000, 0.0000000000000000000 ) ) ;
#199 = CARTESIAN_POINT ( 'NONE',  ( -0.1181100000000000066, 0.0000000000000000000, 2.244094000000000033 ) ) ;
#200 = EDGE_CURVE ( 'NONE', #189, #150, #167, .T. ) ;
#201 = EDGE_CURVE ( 'NONE', #263, #31, #212, .T. ) ;
#202 = LINE ( 'NONE', #274, #370 ) ;
#203 = CYLINDRICAL_SURFACE ( 'NONE', #229, 0.03936606300000000669 ) ;
#204 = STYLED_ITEM ( 'NONE', ( #308 ), #117 ) ;
#205 = ORIENTED_EDGE ( 'NONE', *, *, #342, .F. ) ;
#206 = CARTESIAN_POINT ( 'NONE',  ( 0.0000000000000000000, 0.0000000000000000000, 0.5905510000000000481 ) ) ;
#207 = ORIENTED_EDGE ( 'NONE', *, *, #201, .T. ) ;
#208 = DIMENSIONAL_EXPONENTS ( 1.000000000000000000, 0.0000000000000000000, 0.0000000000000000000, 0.0000000000000000000, 0.0000000000000000000, 0.0000000000000000000, 0.0000000000000000000 ) ;
#209 = EDGE_LOOP ( 'NONE', ( #96, #159, #296, #205 ) ) ;
#210 = DIRECTION ( 'NONE',  ( -0.0000000000000000000, -0.0000000000000000000, -1.000000000000000000 ) ) ;
#211 = ORIENTED_EDGE ( 'NONE', *, *, #226, .F. ) ;
#212 = CIRCLE ( 'NONE', #273, 0.03936606300000000669 ) ;
#213 = DIRECTION ( 'NONE',  ( -1.000000000000000000, 0.0000000000000000000, 0.0000000000000000000 ) ) ;
#214 = EDGE_LOOP ( 'NONE', ( #328, #56 ) ) ;
#215 = ORIENTED_EDGE ( 'NONE', *, *, #55, .F. ) ;
#216 = DIRECTION ( 'NONE',  ( -1.000000000000000000, 0.0000000000000000000, 0.0000000000000000000 ) ) ;
#217 = ORIENTED_EDGE ( 'NONE', *, *, #66, .T. ) ;
#218 = CARTESIAN_POINT ( 'NONE',  ( 0.0000000000000000000, 0.0000000000000000000, 2.229093999999999465 ) ) ;
#219 = DIRECTION ( 'NONE',  ( 0.0000000000000000000, 0.0000000000000000000, 1.000000000000000000 ) ) ;
#220 = ORIENTED_EDGE ( 'NONE', *, *, #55, .T. ) ;
#221 = CARTESIAN_POINT ( 'NONE',  ( -0.03740150000000006664, 0.0000000000000000000, 0.5905510000000000481 ) ) ;
#222 = FACE_OUTER_BOUND ( 'NONE', #323, .T. ) ;
#223 = CYLINDRICAL_SURFACE ( 'NONE', #244, 0.03936606300000000669 ) ;
#224 = EDGE_CURVE ( 'NONE', #31, #263, #353, .T. ) ;
#225 = DIRECTION ( 'NONE',  ( -0.0000000000000000000, -0.0000000000000000000, -1.000000000000000000 ) ) ;
#226 = EDGE_CURVE ( 'NONE', #93, #5, #243, .T. ) ;
#227 = DIRECTION ( 'NONE',  ( 0.0000000000000000000, 0.0000000000000000000, -1.000000000000000000 ) ) ;
#228 = MANIFOLD_SOLID_BREP ( 'Cut-Revolve1', #335 ) ;
#229 = AXIS2_PLACEMENT_3D ( 'NONE', #314, #54, #176 ) ;
#230 = AXIS2_PLACEMENT_3D ( 'NONE', #132, #154, #32 ) ;
#231 = CARTESIAN_POINT ( 'NONE',  ( 0.03740150000000001113, 4.700657515314640450E-18, 0.08988159042539359267 ) ) ;
#232 = DIRECTION ( 'NONE',  ( -0.0000000000000000000, 0.0000000000000000000, -1.000000000000000000 ) ) ;
#233 = CONICAL_SURFACE ( 'NONE', #279, 0.03936606300000000669, 0.1745329251994332254 ) ;
#234 = AXIS2_PLACEMENT_3D ( 'NONE', #218, #61, #241 ) ;
#235 = PLANE ( 'NONE',  #322 ) ;
#236 = DIRECTION ( 'NONE',  ( -0.0000000000000000000, -0.0000000000000000000, -1.000000000000000000 ) ) ;
#237 = ORIENTED_EDGE ( 'NONE', *, *, #188, .T. ) ;
#238 = FACE_OUTER_BOUND ( 'NONE', #209, .T. ) ;
#239 = EDGE_LOOP ( 'NONE', ( #183, #177, #272, #359 ) ) ;
#240 = ADVANCED_FACE ( 'NONE', ( #222 ), #223, .T. ) ;
#241 = DIRECTION ( 'NONE',  ( 1.000000000000000000, 0.0000000000000000000, 0.0000000000000000000 ) ) ;
#242 = ORIENTED_EDGE ( 'NONE', *, *, #302, .F. ) ;
#243 = CIRCLE ( 'NONE', #77, 0.03740150000000001113 ) ;
#244 = AXIS2_PLACEMENT_3D ( 'NONE', #369, #334, #198 ) ;
#245 = EDGE_CURVE ( 'NONE', #127, #316, #37, .T. ) ;
#246 = CARTESIAN_POINT ( 'NONE',  ( 0.03936606300000000669, 4.820952304798306567E-18, 0.0000000000000000000 ) ) ;
#247 = EDGE_LOOP ( 'NONE', ( #174, #270, #347, #168 ) ) ;
#248 = EDGE_LOOP ( 'NONE', ( #242, #43 ) ) ;
#249 = DIRECTION ( 'NONE',  ( 0.1736481776669306087, 2.126576849575774688E-17, -0.9848077530122080203 ) ) ;
#250 = LENGTH_MEASURE_WITH_UNIT ( LENGTH_MEASURE( 0.02539999999999999897 ), #17 );
#251 = ORIENTED_EDGE ( 'NONE', *, *, #224, .T. ) ;
#252 = SURFACE_SIDE_STYLE ('',( #139 ) ) ;
#253 = CARTESIAN_POINT ( 'NONE',  ( 0.0000000000000000000, 0.0000000000000000000, 0.0000000000000000000 ) ) ;
#254 = ADVANCED_FACE ( 'NONE', ( #143 ), #107, .T. ) ;
#255 = SURFACE_STYLE_USAGE ( .BOTH. , #252 ) ;
#256 =( GEOMETRIC_REPRESENTATION_CONTEXT ( 3 ) GLOBAL_UNCERTAINTY_ASSIGNED_CONTEXT ( ( #102 ) ) GLOBAL_UNIT_ASSIGNED_CONTEXT ( ( #276, #363, #44 ) ) REPRESENTATION_CONTEXT ( 'NONE', 'WORKASPACE' ) );
#257 = CIRCLE ( 'NONE', #25, 0.1181100000000000066 ) ;
#258 = FACE_OUTER_BOUND ( 'NONE', #351, .T. ) ;
#259 = EDGE_CURVE ( 'NONE', #7, #144, #257, .T. ) ;
#260 = FACE_OUTER_BOUND ( 'NONE', #379, .T. ) ;
#261 = AXIS2_PLACEMENT_3D ( 'NONE', #126, #236, #349 ) ;
#262 = DIRECTION ( 'NONE',  ( 1.000000000000000000, 0.0000000000000000000, -0.0000000000000000000 ) ) ;
#263 = VERTEX_POINT ( 'NONE', #339 ) ;
#264 = ORIENTED_EDGE ( 'NONE', *, *, #119, .T. ) ;
#265 = DIRECTION ( 'NONE',  ( -0.0000000000000000000, -0.0000000000000000000, -1.000000000000000000 ) ) ;
#266 = EDGE_LOOP ( 'NONE', ( #207, #220, #122, #91 ) ) ;
#267 = LINE ( 'NONE', #6, #311 ) ;
#268 = ADVANCED_FACE ( 'NONE', ( #258 ), #286, .T. ) ;
#269 = CYLINDRICAL_SURFACE ( 'NONE', #124, 0.1181100000000000066 ) ;
#270 = ORIENTED_EDGE ( 'NONE', *, *, #145, .T. ) ;
#271 = CARTESIAN_POINT ( 'NONE',  ( 0.1031100000000002570, 1.262733314600838667E-17, 2.244094000000000033 ) ) ;
#272 = ORIENTED_EDGE ( 'NONE', *, *, #259, .F. ) ;
#273 = AXIS2_PLACEMENT_3D ( 'NONE', #164, #114, #108 ) ;
#274 = CARTESIAN_POINT ( 'NONE',  ( 0.03936606300000000669, 4.820952304798306567E-18, 0.0000000000000000000 ) ) ;
#275 = DIRECTION ( 'NONE',  ( -1.000000000000000000, 0.0000000000000000000, 0.0000000000000000000 ) ) ;
#276 =( CONVERSION_BASED_UNIT ( 'INCH', #250 ) LENGTH_UNIT ( ) NAMED_UNIT ( #67 ) );
#277 = ADVANCED_FACE ( 'NONE', ( #298 ), #371, .T. ) ;
#278 = CARTESIAN_POINT ( 'NONE',  ( 0.0000000000000000000, 0.0000000000000000000, 2.244094000000000033 ) ) ;
#279 = AXIS2_PLACEMENT_3D ( 'NONE', #104, #121, #292 ) ;
#280 = FILL_AREA_STYLE ('',( #338 ) ) ;
#281 = EDGE_CURVE ( 'NONE', #375, #41, #78, .T. ) ;
#282 = EDGE_CURVE ( 'NONE', #263, #134, #267, .T. ) ;
#283 = LINE ( 'NONE', #365, #197 ) ;
#284 =( NAMED_UNIT ( * ) SI_UNIT ( $, .STERADIAN. ) SOLID_ANGLE_UNIT ( ) );
#285 = DIRECTION ( 'NONE',  ( 1.000000000000000000, 0.0000000000000000000, 0.0000000000000000000 ) ) ;
#286 = CYLINDRICAL_SURFACE ( 'NONE', #184, 0.1181100000000000066 ) ;
#287 = AXIS2_PLACEMENT_3D ( 'NONE', #8, #36, #101 ) ;
#288 = DIRECTION ( 'NONE',  ( -1.000000000000000000, 0.0000000000000000000, 0.0000000000000000000 ) ) ;
#289 = PRODUCT_RELATED_PRODUCT_CATEGORY ( 'part', '', ( #48 ) ) ;
#290 = ORIENTED_EDGE ( 'NONE', *, *, #158, .F. ) ;
#291 = DIRECTION ( 'NONE',  ( -1.000000000000000000, 0.0000000000000000000, 0.0000000000000000000 ) ) ;
#292 = DIRECTION ( 'NONE',  ( -1.000000000000000000, 0.0000000000000000000, 0.0000000000000000000 ) ) ;
#293 = DIRECTION ( 'NONE',  ( -0.0000000000000000000, -0.0000000000000000000, -1.000000000000000000 ) ) ;
#294 = CARTESIAN_POINT ( 'NONE',  ( -0.1181100000000000066, 0.0000000000000000000, 0.5905510000000000481 ) ) ;
#295 = CIRCLE ( 'NONE', #70, 0.1181100000000000066 ) ;
#296 = ORIENTED_EDGE ( 'NONE', *, *, #33, .T. ) ;
#297 = DIRECTION ( 'NONE',  ( -0.0000000000000000000, -0.0000000000000000000, -1.000000000000000000 ) ) ;
#298 = FACE_OUTER_BOUND ( 'NONE', #90, .T. ) ;
#299 = ORIENTED_EDGE ( 'NONE', *, *, #72, .T. ) ;
#300 = LINE ( 'NONE', #187, #53 ) ;
#301 = VECTOR ( 'NONE', #79, 39.37007874015748143 ) ;
#302 = EDGE_CURVE ( 'NONE', #150, #189, #175, .T. ) ;
#303 = DIRECTION ( 'NONE',  ( -0.0000000000000000000, -0.0000000000000000000, -1.000000000000000000 ) ) ;
#304 = SURFACE_SIDE_STYLE ('',( #193 ) ) ;
#305 = LINE ( 'NONE', #367, #301 ) ;
#306 = EDGE_CURVE ( 'NONE', #144, #7, #192, .T. ) ;
#307 = DIRECTION ( 'NONE',  ( 1.000000000000000000, 0.0000000000000000000, 0.0000000000000000000 ) ) ;
#308 = PRESENTATION_STYLE_ASSIGNMENT (( #38 ) ) ;
#309 = LINE ( 'NONE', #199, #172 ) ;
#310 = CARTESIAN_POINT ( 'NONE',  ( 0.0000000000000000000, 0.0000000000000000000, 2.229093999999999465 ) ) ;
#311 = VECTOR ( 'NONE', #210, 39.37007874015748143 ) ;
#312 = ADVANCED_FACE ( 'NONE', ( #11 ), #331, .T. ) ;
#313 = FACE_OUTER_BOUND ( 'NONE', #130, .T. ) ;
#314 = CARTESIAN_POINT ( 'NONE',  ( 0.0000000000000000000, 0.0000000000000000000, 0.0000000000000000000 ) ) ;
#315 = AXIS2_PLACEMENT_3D ( 'NONE', #35, #97, #69 ) ;
#316 = VERTEX_POINT ( 'NONE', #330 ) ;
#317 = CARTESIAN_POINT ( 'NONE',  ( 0.0000000000000000000, 0.0000000000000000000, 0.0000000000000000000 ) ) ;
#318 = CARTESIAN_POINT ( 'NONE',  ( -0.1181100000000000066, 0.0000000000000000000, 2.229093999999999465 ) ) ;
#319 = EDGE_CURVE ( 'NONE', #316, #144, #324, .T. ) ;
#320 = DIRECTION ( 'NONE',  ( -0.0000000000000000000, -0.0000000000000000000, -1.000000000000000000 ) ) ;
#321 = VECTOR ( 'NONE', #249, 39.37007874015748143 ) ;
#322 = AXIS2_PLACEMENT_3D ( 'NONE', #1, #125, #181 ) ;
#323 = EDGE_LOOP ( 'NONE', ( #215, #251, #27, #14 ) ) ;
#324 = LINE ( 'NONE', #271, #46 ) ;
#325 = ORIENTED_EDGE ( 'NONE', *, *, #245, .T. ) ;
#326 = FACE_OUTER_BOUND ( 'NONE', #214, .T. ) ;
#327 = ADVANCED_FACE ( 'NONE', ( #238 ), #65, .T. ) ;
#328 = ORIENTED_EDGE ( 'NONE', *, *, #87, .T. ) ;
#329 = ORIENTED_EDGE ( 'NONE', *, *, #245, .F. ) ;
#330 = CARTESIAN_POINT ( 'NONE',  ( 0.1031100000000002570, 1.354581824536888722E-17, 2.244094000000000033 ) ) ;
#331 = CONICAL_SURFACE ( 'NONE', #71, 0.1031100000000002570, 0.7853981633974318477 ) ;
#332 = DIRECTION ( 'NONE',  ( -0.0000000000000000000, -0.0000000000000000000, -1.000000000000000000 ) ) ;
#333 = APPLICATION_PROTOCOL_DEFINITION ( 'draft international standard', 'automotive_design', 1998, #45 ) ;
#334 = DIRECTION ( 'NONE',  ( -0.0000000000000000000, -0.0000000000000000000, -1.000000000000000000 ) ) ;
#335 = CLOSED_SHELL ( 'NONE', ( #80, #376, #254, #312, #268, #355, #76, #277, #62, #9, #327, #240, #361 ) ) ;
#336 = MECHANICAL_DESIGN_GEOMETRIC_PRESENTATION_REPRESENTATION (  '', ( #3 ), #161 ) ;
#337 = SHAPE_DEFINITION_REPRESENTATION ( #178, #117 ) ;
#338 = FILL_AREA_STYLE_COLOUR ( '', #374 ) ;
#339 = CARTESIAN_POINT ( 'NONE',  ( -0.03936606300000000669, 0.0000000000000000000, 0.07874000000000000443 ) ) ;
#340 = VECTOR ( 'NONE', #344, 39.37007874015748854 ) ;
#341 = EDGE_CURVE ( 'NONE', #93, #263, #300, .T. ) ;
#342 = EDGE_CURVE ( 'NONE', #5, #93, #19, .T. ) ;
#343 = CARTESIAN_POINT ( 'NONE',  ( -0.03740150000000003888, 0.0000000000000000000, 0.0000000000000000000 ) ) ;
#344 = DIRECTION ( 'NONE',  ( -0.7071067811865358044, 0.0000000000000000000, -0.7071067811865590080 ) ) ;
#345 = ORIENTED_EDGE ( 'NONE', *, *, #306, .T. ) ;
#346 = AXIS2_PLACEMENT_3D ( 'NONE', #29, #320, #213 ) ;
#347 = ORIENTED_EDGE ( 'NONE', *, *, #201, .F. ) ;
#348 = DIRECTION ( 'NONE',  ( -0.0000000000000000000, -0.0000000000000000000, -1.000000000000000000 ) ) ;
#349 = DIRECTION ( 'NONE',  ( -1.000000000000000000, 0.0000000000000000000, 0.0000000000000000000 ) ) ;
#350 = VERTEX_POINT ( 'NONE', #246 ) ;
#351 = EDGE_LOOP ( 'NONE', ( #94, #64, #186, #10 ) ) ;
#352 = DIRECTION ( 'NONE',  ( 0.0000000000000000000, 0.0000000000000000000, -1.000000000000000000 ) ) ;
#353 = CIRCLE ( 'NONE', #112, 0.03936606300000000669 ) ;
#354 = ORIENTED_EDGE ( 'NONE', *, *, #33, .F. ) ;
#355 = ADVANCED_FACE ( 'NONE', ( #57 ), #269, .T. ) ;
#356 = CARTESIAN_POINT ( 'NONE',  ( 0.0000000000000000000, 0.0000000000000000000, 2.244094000000000033 ) ) ;
#357 = EDGE_CURVE ( 'NONE', #350, #134, #24, .T. ) ;
#358 = EDGE_LOOP ( 'NONE', ( #290, #345, #153, #15 ) ) ;
#359 = ORIENTED_EDGE ( 'NONE', *, *, #72, .F. ) ;
#360 = DIRECTION ( 'NONE',  ( -1.000000000000000000, 0.0000000000000000000, 0.0000000000000000000 ) ) ;
#361 = ADVANCED_FACE ( 'NONE', ( #326 ), #235, .F. ) ;
#362 = LENGTH_MEASURE_WITH_UNIT ( LENGTH_MEASURE( 0.02539999999999999897 ), #165 );
#363 =( NAMED_UNIT ( * ) PLANE_ANGLE_UNIT ( ) SI_UNIT ( $, .RADIAN. ) );
#364 = PRESENTATION_LAYER_ASSIGNMENT (  '', '', ( #204 ) ) ;
#365 = CARTESIAN_POINT ( 'NONE',  ( 0.1181100000000000066, 1.446430334472939084E-17, 2.244094000000000033 ) ) ;
#366 = DIRECTION ( 'NONE',  ( 0.0000000000000000000, 0.0000000000000000000, 1.000000000000000000 ) ) ;
#367 = CARTESIAN_POINT ( 'NONE',  ( 0.03740150000000003888, 4.580362725830977414E-18, 0.0000000000000000000 ) ) ;
#368 = APPLICATION_PROTOCOL_DEFINITION ( 'draft international standard', 'automotive_design', 1998, #116 ) ;
#369 = CARTESIAN_POINT ( 'NONE',  ( 0.0000000000000000000, 0.0000000000000000000, 0.0000000000000000000 ) ) ;
#370 = VECTOR ( 'NONE', #146, 39.37007874015748143 ) ;
#371 = CONICAL_SURFACE ( 'NONE', #315, 0.1031100000000002570, 0.7853981633974318477 ) ;
#372 = CARTESIAN_POINT ( 'NONE',  ( 0.0000000000000000000, 0.0000000000000000000, 2.244094000000000033 ) ) ;
#373 = AXIS2_PLACEMENT_3D ( 'NONE', #18, #332, #22 ) ;
#374 = COLOUR_RGB ( '',0.7921568627450980005, 0.8196078431372548767, 0.9333333333333333481 ) ;
#375 = VERTEX_POINT ( 'NONE', #92 ) ;
#376 = ADVANCED_FACE ( 'NONE', ( #136 ), #129, .T. ) ;
#377 = CARTESIAN_POINT ( 'NONE',  ( -0.1031100000000002570, 0.0000000000000000000, 2.244094000000000033 ) ) ;
#378 = PLANE ( 'NONE',  #83 ) ;
#379 = EDGE_LOOP ( 'NONE', ( #325, #237 ) ) ;
ENDSEC;
END-ISO-10303-21;
