ISO-10303-21;
HEADER;
FILE_DESCRIPTION (( 'STEP AP214' ),
    '1' );
FILE_NAME ('Micro_GEC-500-4-010.STEP',
    '2021-09-03T17:24:23',
    ( '' ),
    ( '' ),
    'SwSTEP 2.0',
    'SolidWorks 2020',
    '' );
FILE_SCHEMA (( 'AUTOMOTIVE_DESIGN' ));
ENDSEC;

DATA;
#1 = AXIS2_PLACEMENT_3D ( 'NONE', #328, #299, #330 ) ;
#2 = CARTESIAN_POINT ( 'NONE',  ( 0.0000000000000000000, 0.0000000000000000000, 3.000000000000000444 ) ) ;
#3 = CARTESIAN_POINT ( 'NONE',  ( 0.2497499999999999998, 3.058555380870514950E-17, -3.058555380870515566E-17 ) ) ;
#4 = CARTESIAN_POINT ( 'NONE',  ( 0.2500000000000000000, 3.061616997868382402E-17, 3.000000000000000444 ) ) ;
#5 = EDGE_CURVE ( 'NONE', #335, #23, #142, .T. ) ;
#6 = CONICAL_SURFACE ( 'NONE', #117, 0.2497499999999999998, 0.1745329251994338360 ) ;
#7 = FACE_OUTER_BOUND ( 'NONE', #152, .T. ) ;
#8 =( LENGTH_UNIT ( ) NAMED_UNIT ( * ) SI_UNIT ( $, .METRE. ) );
#9 = CYLINDRICAL_SURFACE ( 'NONE', #176, 0.2500000000000000000 ) ;
#10 = PRESENTATION_STYLE_ASSIGNMENT (( #80 ) ) ;
#11 = AXIS2_PLACEMENT_3D ( 'NONE', #196, #295, #55 ) ;
#12 = ADVANCED_FACE ( 'NONE', ( #195 ), #67, .T. ) ;
#13 = ORIENTED_EDGE ( 'NONE', *, *, #327, .T. ) ;
#14 = DIRECTION ( 'NONE',  ( 1.000000000000000000, 0.0000000000000000000, 0.0000000000000000000 ) ) ;
#15 = AXIS2_PLACEMENT_3D ( 'NONE', #107, #135, #69 ) ;
#16 = CIRCLE ( 'NONE', #11, 0.2497499999999999998 ) ;
#17 = ORIENTED_EDGE ( 'NONE', *, *, #244, .F. ) ;
#18 = SURFACE_SIDE_STYLE ('',( #257 ) ) ;
#19 = EDGE_LOOP ( 'NONE', ( #340, #238, #232, #177 ) ) ;
#20 = DIRECTION ( 'NONE',  ( -0.0000000000000000000, -0.0000000000000000000, -1.000000000000000000 ) ) ;
#21 = VECTOR ( 'NONE', #109, 39.37007874015748143 ) ;
#22 = LINE ( 'NONE', #292, #338 ) ;
#23 = VERTEX_POINT ( 'NONE', #129 ) ;
#24 = EDGE_CURVE ( 'NONE', #279, #348, #155, .T. ) ;
#25 = DIRECTION ( 'NONE',  ( -1.224646799147353454E-16, -0.0000000000000000000, -1.000000000000000000 ) ) ;
#26 = FACE_OUTER_BOUND ( 'NONE', #144, .T. ) ;
#27 = VERTEX_POINT ( 'NONE', #161 ) ;
#28 = VECTOR ( 'NONE', #136, 39.37007874015748854 ) ;
#29 = DIRECTION ( 'NONE',  ( 1.000000000000000000, 0.0000000000000000000, 0.0000000000000000000 ) ) ;
#30 = AXIS2_PLACEMENT_3D ( 'NONE', #38, #40, #78 ) ;
#31 = CARTESIAN_POINT ( 'NONE',  ( 0.0000000000000000000, 0.0000000000000000000, 3.000000000000000444 ) ) ;
#32 = EDGE_CURVE ( 'NONE', #348, #279, #41, .T. ) ;
#33 = SURFACE_STYLE_FILL_AREA ( #329 ) ;
#34 = AXIS2_PLACEMENT_3D ( 'NONE', #311, #66, #308 ) ;
#35 = STYLED_ITEM ( 'NONE', ( #233 ), #197 ) ;
#36 = ADVANCED_FACE ( 'NONE', ( #273 ), #236, .T. ) ;
#37 =( GEOMETRIC_REPRESENTATION_CONTEXT ( 3 ) GLOBAL_UNCERTAINTY_ASSIGNED_CONTEXT ( ( #61 ) ) GLOBAL_UNIT_ASSIGNED_CONTEXT ( ( #201, #303, #57 ) ) REPRESENTATION_CONTEXT ( 'NONE', 'WORKASPACE' ) );
#38 = CARTESIAN_POINT ( 'NONE',  ( 1.224646799147353577E-18, 0.0000000000000000000, 0.0000000000000000000 ) ) ;
#39 = CARTESIAN_POINT ( 'NONE',  ( 0.2500000000000001110, 3.061616997868383634E-17, 1.001417820454904462 ) ) ;
#40 = DIRECTION ( 'NONE',  ( -0.0000000000000000000, -0.0000000000000000000, -1.000000000000000000 ) ) ;
#41 = CIRCLE ( 'NONE', #287, 0.2497499999999999998 ) ;
#42 = EDGE_CURVE ( 'NONE', #183, #120, #215, .T. ) ;
#43 = ORIENTED_EDGE ( 'NONE', *, *, #79, .T. ) ;
#44 = FACE_OUTER_BOUND ( 'NONE', #317, .T. ) ;
#45 = DIRECTION ( 'NONE',  ( -1.224646799147353454E-16, -0.0000000000000000000, -1.000000000000000000 ) ) ;
#46 = ORIENTED_EDGE ( 'NONE', *, *, #310, .F. ) ;
#47 = PRODUCT_DEFINITION_CONTEXT ( 'detailed design', #141, 'design' ) ;
#48 = CARTESIAN_POINT ( 'NONE',  ( 1.224646799147353454E-16, 0.0000000000000000000, 1.000000000000000000 ) ) ;
#49 = ORIENTED_EDGE ( 'NONE', *, *, #79, .F. ) ;
#50 = DIRECTION ( 'NONE',  ( 0.0000000000000000000, 0.0000000000000000000, 1.000000000000000000 ) ) ;
#51 = CARTESIAN_POINT ( 'NONE',  ( 1.224646799147353577E-18, 0.0000000000000000000, 0.0000000000000000000 ) ) ;
#52 =( NAMED_UNIT ( * ) PLANE_ANGLE_UNIT ( ) SI_UNIT ( $, .RADIAN. ) );
#53 = EDGE_CURVE ( 'NONE', #132, #209, #86, .T. ) ;
#54 = DIRECTION ( 'NONE',  ( -1.000000000000000000, 0.0000000000000000000, 0.0000000000000000000 ) ) ;
#55 = DIRECTION ( 'NONE',  ( 1.000000000000000000, 0.0000000000000000000, 0.0000000000000000000 ) ) ;
#56 = MECHANICAL_DESIGN_GEOMETRIC_PRESENTATION_REPRESENTATION (  '', ( #77 ), #37 ) ;
#57 =( NAMED_UNIT ( * ) SI_UNIT ( $, .STERADIAN. ) SOLID_ANGLE_UNIT ( ) );
#58 = CIRCLE ( 'NONE', #30, 0.2397500000000000187 ) ;
#59 = DIRECTION ( 'NONE',  ( 0.1736481776669313304, 0.0000000000000000000, 0.9848077530122077983 ) ) ;
#60 = AXIS2_PLACEMENT_3D ( 'NONE', #2, #71, #212 ) ;
#61 = UNCERTAINTY_MEASURE_WITH_UNIT (LENGTH_MEASURE( 1.000000000000000082E-05 ), #201, 'distance_accuracy_value', 'NONE');
#62 = ORIENTED_EDGE ( 'NONE', *, *, #173, .F. ) ;
#63 = ORIENTED_EDGE ( 'NONE', *, *, #304, .F. ) ;
#64 = DIRECTION ( 'NONE',  ( 0.0000000000000000000, 0.0000000000000000000, -1.000000000000000000 ) ) ;
#65 = CARTESIAN_POINT ( 'NONE',  ( -0.2497499999999998888, 3.058555380870514950E-17, 1.000000000000000000 ) ) ;
#66 = DIRECTION ( 'NONE',  ( 1.224646799147353454E-16, 0.0000000000000000000, 1.000000000000000000 ) ) ;
#67 = CYLINDRICAL_SURFACE ( 'NONE', #15, 0.2497499999999999998 ) ;
#68 = MECHANICAL_DESIGN_GEOMETRIC_PRESENTATION_REPRESENTATION (  '', ( #35 ), #131 ) ;
#69 = DIRECTION ( 'NONE',  ( -1.000000000000000000, 0.0000000000000000000, 1.224646799147353700E-16 ) ) ;
#70 = UNCERTAINTY_MEASURE_WITH_UNIT (LENGTH_MEASURE( 1.000000000000000082E-05 ), #274, 'distance_accuracy_value', 'NONE');
#71 = DIRECTION ( 'NONE',  ( 0.0000000000000000000, 0.0000000000000000000, 1.000000000000000000 ) ) ;
#72 = DIRECTION ( 'NONE',  ( 0.0000000000000000000, 0.0000000000000000000, -1.000000000000000000 ) ) ;
#73 = EDGE_LOOP ( 'NONE', ( #206, #285, #217, #127 ) ) ;
#74 = DIRECTION ( 'NONE',  ( -1.000000000000000000, 1.224646799147354933E-16, 0.0000000000000000000 ) ) ;
#75 = CARTESIAN_POINT ( 'NONE',  ( -0.2497499999999999998, 0.0000000000000000000, 3.058555380870515566E-17 ) ) ;
#76 = AXIS2_PLACEMENT_3D ( 'NONE', #31, #246, #240 ) ;
#77 = STYLED_ITEM ( 'NONE', ( #10 ), #249 ) ;
#78 = DIRECTION ( 'NONE',  ( 1.000000000000000000, 0.0000000000000000000, 0.0000000000000000000 ) ) ;
#79 = EDGE_CURVE ( 'NONE', #279, #27, #125, .T. ) ;
#80 = SURFACE_STYLE_USAGE ( .BOTH. , #139 ) ;
#81 =( NAMED_UNIT ( * ) PLANE_ANGLE_UNIT ( ) SI_UNIT ( $, .RADIAN. ) );
#82 = COLOUR_RGB ( '',0.7921568627450980005, 0.8196078431372548767, 0.9333333333333333481 ) ;
#83 = CIRCLE ( 'NONE', #168, 0.2500000000000000000 ) ;
#84 = FACE_OUTER_BOUND ( 'NONE', #19, .T. ) ;
#85 = ORIENTED_EDGE ( 'NONE', *, *, #53, .T. ) ;
#86 = CIRCLE ( 'NONE', #313, 0.2397500000000000187 ) ;
#87 = CIRCLE ( 'NONE', #1, 0.2497499999999999998 ) ;
#88 = EDGE_CURVE ( 'NONE', #23, #335, #256, .T. ) ;
#89 = VERTEX_POINT ( 'NONE', #192 ) ;
#90 = DIRECTION ( 'NONE',  ( 1.000000000000000000, 0.0000000000000000000, 0.0000000000000000000 ) ) ;
#91 = ORIENTED_EDGE ( 'NONE', *, *, #331, .F. ) ;
#92 = FACE_OUTER_BOUND ( 'NONE', #153, .T. ) ;
#93 = ORIENTED_EDGE ( 'NONE', *, *, #96, .T. ) ;
#94 = CYLINDRICAL_SURFACE ( 'NONE', #272, 0.2497499999999999998 ) ;
#95 = APPLICATION_PROTOCOL_DEFINITION ( 'draft international standard', 'automotive_design', 1998, #106 ) ;
#96 = EDGE_CURVE ( 'NONE', #27, #120, #101, .T. ) ;
#97 = ORIENTED_EDGE ( 'NONE', *, *, #218, .T. ) ;
#98 = DIRECTION ( 'NONE',  ( 1.000000000000000000, 0.0000000000000000000, 0.0000000000000000000 ) ) ;
#99 = ORIENTED_EDGE ( 'NONE', *, *, #24, .F. ) ;
#100 = CARTESIAN_POINT ( 'NONE',  ( -0.2497499999999998888, 3.060086189369449292E-17, 1.000000000000000000 ) ) ;
#101 = CIRCLE ( 'NONE', #113, 0.2500000000000000000 ) ;
#102 = ORIENTED_EDGE ( 'NONE', *, *, #347, .F. ) ;
#103 = ADVANCED_FACE ( 'NONE', ( #7 ), #9, .T. ) ;
#104 = CARTESIAN_POINT ( 'NONE',  ( 0.0000000000000000000, 0.0000000000000000000, 2.985000000000001208 ) ) ;
#105 = DIMENSIONAL_EXPONENTS ( 1.000000000000000000, 0.0000000000000000000, 0.0000000000000000000, 0.0000000000000000000, 0.0000000000000000000, 0.0000000000000000000, 0.0000000000000000000 ) ;
#106 = APPLICATION_CONTEXT ( 'automotive_design' ) ;
#107 = CARTESIAN_POINT ( 'NONE',  ( 0.0000000000000000000, 0.0000000000000000000, 0.0000000000000000000 ) ) ;
#108 = DIRECTION ( 'NONE',  ( 1.224646799147353207E-16, 1.000000000000000000, -0.0000000000000000000 ) ) ;
#109 = DIRECTION ( 'NONE',  ( -0.0000000000000000000, -0.0000000000000000000, -1.000000000000000000 ) ) ;
#110 = FACE_OUTER_BOUND ( 'NONE', #267, .T. ) ;
#111 = CARTESIAN_POINT ( 'NONE',  ( 0.2497500000000001386, 0.0000000000000000000, 1.000000000000000000 ) ) ;
#112 = DIRECTION ( 'NONE',  ( -0.0000000000000000000, -0.0000000000000000000, -1.000000000000000000 ) ) ;
#113 = AXIS2_PLACEMENT_3D ( 'NONE', #291, #164, #137 ) ;
#114 = CARTESIAN_POINT ( 'NONE',  ( 0.2397500000000000187, 0.0000000000000000000, 0.0000000000000000000 ) ) ;
#115 = DIRECTION ( 'NONE',  ( -1.000000000000000000, 0.0000000000000000000, 0.0000000000000000000 ) ) ;
#116 = EDGE_CURVE ( 'NONE', #348, #120, #302, .T. ) ;
#117 = AXIS2_PLACEMENT_3D ( 'NONE', #145, #281, #254 ) ;
#118 = PRODUCT ( 'Micro_GEC-500-4-010', 'Micro_GEC-500-4-010', '', ( #293 ) ) ;
#119 = DIRECTION ( 'NONE',  ( 0.0000000000000000000, 0.0000000000000000000, 1.000000000000000000 ) ) ;
#120 = VERTEX_POINT ( 'NONE', #39 ) ;
#121 = CARTESIAN_POINT ( 'NONE',  ( 1.224646799147353577E-18, 0.0000000000000000000, 0.01000000000000000021 ) ) ;
#122 = SURFACE_STYLE_USAGE ( .BOTH. , #18 ) ;
#123 = ORIENTED_EDGE ( 'NONE', *, *, #290, .T. ) ;
#124 = ORIENTED_EDGE ( 'NONE', *, *, #173, .T. ) ;
#125 = LINE ( 'NONE', #65, #235 ) ;
#126 = LINE ( 'NONE', #75, #275 ) ;
#127 = ORIENTED_EDGE ( 'NONE', *, *, #264, .F. ) ;
#128 = CARTESIAN_POINT ( 'NONE',  ( 0.2350000000000011524, 2.877919977996294002E-17, 3.000000000000000444 ) ) ;
#129 = CARTESIAN_POINT ( 'NONE',  ( 0.2350000000000011524, 2.969768487932338510E-17, 3.000000000000000444 ) ) ;
#130 = DIMENSIONAL_EXPONENTS ( 1.000000000000000000, 0.0000000000000000000, 0.0000000000000000000, 0.0000000000000000000, 0.0000000000000000000, 0.0000000000000000000, 0.0000000000000000000 ) ;
#131 =( GEOMETRIC_REPRESENTATION_CONTEXT ( 3 ) GLOBAL_UNCERTAINTY_ASSIGNED_CONTEXT ( ( #70 ) ) GLOBAL_UNIT_ASSIGNED_CONTEXT ( ( #274, #52, #171 ) ) REPRESENTATION_CONTEXT ( 'NONE', 'WORKASPACE' ) );
#132 = VERTEX_POINT ( 'NONE', #114 ) ;
#133 = CIRCLE ( 'NONE', #301, 0.009999999999999995004 ) ;
#134 = CARTESIAN_POINT ( 'NONE',  ( 1.226383128429217700E-16, 0.0000000000000000000, 1.001417820454904462 ) ) ;
#135 = DIRECTION ( 'NONE',  ( -1.224646799147353454E-16, -0.0000000000000000000, -1.000000000000000000 ) ) ;
#136 = DIRECTION ( 'NONE',  ( 0.7071067811865402453, 8.659560562354845344E-17, -0.7071067811865546782 ) ) ;
#137 = DIRECTION ( 'NONE',  ( 1.000000000000000000, 0.0000000000000000000, 0.0000000000000000000 ) ) ;
#138 = DIRECTION ( 'NONE',  ( -0.0000000000000000000, -0.0000000000000000000, -1.000000000000000000 ) ) ;
#139 = SURFACE_SIDE_STYLE ('',( #33 ) ) ;
#140 = CONICAL_SURFACE ( 'NONE', #208, 0.2350000000000011524, 0.7853981633974380649 ) ;
#141 = APPLICATION_CONTEXT ( 'automotive_design' ) ;
#142 = CIRCLE ( 'NONE', #60, 0.2350000000000011524 ) ;
#143 = ORIENTED_EDGE ( 'NONE', *, *, #290, .F. ) ;
#144 = EDGE_LOOP ( 'NONE', ( #269, #97, #143, #17 ) ) ;
#145 = CARTESIAN_POINT ( 'NONE',  ( 1.224646799147353454E-16, 0.0000000000000000000, 1.000000000000000000 ) ) ;
#146 = ORIENTED_EDGE ( 'NONE', *, *, #42, .T. ) ;
#147 = FILL_AREA_STYLE ('',( #339 ) ) ;
#148 = CLOSED_SHELL ( 'NONE', ( #227, #151, #160, #298, #36, #103, #231, #316, #170, #12, #276, #178 ) ) ;
#149 = COLOUR_RGB ( '',0.7921568627450980005, 0.8196078431372548767, 0.9333333333333333481 ) ;
#150 = DIRECTION ( 'NONE',  ( 0.0000000000000000000, -1.000000000000000000, 0.0000000000000000000 ) ) ;
#151 = ADVANCED_FACE ( 'NONE', ( #228 ), #94, .T. ) ;
#152 = EDGE_LOOP ( 'NONE', ( #312, #234, #13, #243 ) ) ;
#153 = EDGE_LOOP ( 'NONE', ( #63, #337, #124, #46 ) ) ;
#154 = CARTESIAN_POINT ( 'NONE',  ( 0.2397500000000000187, 0.0000000000000000000, 0.01000000000000000021 ) ) ;
#155 = CIRCLE ( 'NONE', #187, 0.2497499999999999998 ) ;
#156 = PRESENTATION_LAYER_ASSIGNMENT (  '', '', ( #77 ) ) ;
#157 = ORIENTED_EDGE ( 'NONE', *, *, #32, .T. ) ;
#158 =( LENGTH_UNIT ( ) NAMED_UNIT ( * ) SI_UNIT ( $, .METRE. ) );
#159 = APPLICATION_PROTOCOL_DEFINITION ( 'draft international standard', 'automotive_design', 1998, #141 ) ;
#160 = ADVANCED_FACE ( 'NONE', ( #44 ), #221, .T. ) ;
#161 = CARTESIAN_POINT ( 'NONE',  ( -0.2499999999999998612, 0.0000000000000000000, 1.001417820454904462 ) ) ;
#162 = DIRECTION ( 'NONE',  ( 1.000000000000000000, 0.0000000000000000000, 0.0000000000000000000 ) ) ;
#163 = UNCERTAINTY_MEASURE_WITH_UNIT (LENGTH_MEASURE( 1.000000000000000082E-05 ), #200, 'distance_accuracy_value', 'NONE');
#164 = DIRECTION ( 'NONE',  ( -1.224646799147353454E-16, -0.0000000000000000000, -1.000000000000000000 ) ) ;
#165 = DIRECTION ( 'NONE',  ( 1.000000000000000000, 0.0000000000000000000, 0.0000000000000000000 ) ) ;
#166 = CIRCLE ( 'NONE', #300, 0.01000000000000000021 ) ;
#167 = DIRECTION ( 'NONE',  ( -1.000000000000000000, 0.0000000000000000000, 0.0000000000000000000 ) ) ;
#168 = AXIS2_PLACEMENT_3D ( 'NONE', #134, #191, #98 ) ;
#169 = CARTESIAN_POINT ( 'NONE',  ( -0.2397500000000000187, 2.997323040913146809E-17, 0.0000000000000000000 ) ) ;
#170 = ADVANCED_FACE ( 'NONE', ( #179 ), #6, .T. ) ;
#171 =( NAMED_UNIT ( * ) SI_UNIT ( $, .STERADIAN. ) SOLID_ANGLE_UNIT ( ) );
#172 = TOROIDAL_SURFACE ( 'NONE', #307, 0.2397500000000000187, 0.01000000000000000021 ) ;
#173 = EDGE_CURVE ( 'NONE', #132, #265, #166, .T. ) ;
#174 = CARTESIAN_POINT ( 'NONE',  ( 0.0000000000000000000, 0.0000000000000000000, 3.000000000000000444 ) ) ;
#175 =( NAMED_UNIT ( * ) SI_UNIT ( $, .STERADIAN. ) SOLID_ANGLE_UNIT ( ) );
#176 = AXIS2_PLACEMENT_3D ( 'NONE', #174, #138, #224 ) ;
#177 = ORIENTED_EDGE ( 'NONE', *, *, #182, .F. ) ;
#178 = ADVANCED_FACE ( 'NONE', ( #92 ), #242, .T. ) ;
#179 = FACE_OUTER_BOUND ( 'NONE', #343, .T. ) ;
#180 = EDGE_LOOP ( 'NONE', ( #306, #157, #190, #261 ) ) ;
#181 = AXIS2_PLACEMENT_3D ( 'NONE', #104, #72, #162 ) ;
#182 = EDGE_CURVE ( 'NONE', #183, #89, #247, .T. ) ;
#183 = VERTEX_POINT ( 'NONE', #314 ) ;
#184 = DIRECTION ( 'NONE',  ( -0.1736481776669311639, 2.126576849575782392E-17, 0.9848077530122080203 ) ) ;
#185 = EDGE_LOOP ( 'NONE', ( #85, #255 ) ) ;
#186 = FACE_OUTER_BOUND ( 'NONE', #185, .T. ) ;
#187 = AXIS2_PLACEMENT_3D ( 'NONE', #48, #288, #54 ) ;
#188 = AXIS2_PLACEMENT_3D ( 'NONE', #207, #64, #14 ) ;
#189 = CONICAL_SURFACE ( 'NONE', #296, 0.2350000000000011524, 0.7853981633974380649 ) ;
#190 = ORIENTED_EDGE ( 'NONE', *, *, #264, .T. ) ;
#191 = DIRECTION ( 'NONE',  ( -1.224646799147353454E-16, -0.0000000000000000000, -1.000000000000000000 ) ) ;
#192 = CARTESIAN_POINT ( 'NONE',  ( -0.2500000000000000000, 0.0000000000000000000, 2.985000000000001208 ) ) ;
#193 = DIRECTION ( 'NONE',  ( -1.000000000000000000, 0.0000000000000000000, 0.0000000000000000000 ) ) ;
#194 = DIRECTION ( 'NONE',  ( 0.0000000000000000000, 0.0000000000000000000, 1.000000000000000000 ) ) ;
#195 = FACE_OUTER_BOUND ( 'NONE', #180, .T. ) ;
#196 = CARTESIAN_POINT ( 'NONE',  ( 1.224646799147353770E-18, 0.0000000000000000000, 0.01000000000000000194 ) ) ;
#197 = MANIFOLD_SOLID_BREP ( 'Fillet1', #148 ) ;
#198 = FACE_OUTER_BOUND ( 'NONE', #309, .T. ) ;
#199 = LENGTH_MEASURE_WITH_UNIT ( LENGTH_MEASURE( 0.02539999999999999897 ), #8 );
#200 =( CONVERSION_BASED_UNIT ( 'INCH', #199 ) LENGTH_UNIT ( ) NAMED_UNIT ( #271 ) );
#201 =( CONVERSION_BASED_UNIT ( 'INCH', #334 ) LENGTH_UNIT ( ) NAMED_UNIT ( #130 ) );
#202 = PRODUCT_RELATED_PRODUCT_CATEGORY ( 'part', '', ( #118 ) ) ;
#203 = ORIENTED_EDGE ( 'NONE', *, *, #116, .F. ) ;
#204 = AXIS2_PLACEMENT_3D ( 'NONE', #121, #119, #90 ) ;
#205 = LINE ( 'NONE', #128, #28 ) ;
#206 = ORIENTED_EDGE ( 'NONE', *, *, #24, .T. ) ;
#207 = CARTESIAN_POINT ( 'NONE',  ( 0.0000000000000000000, 0.0000000000000000000, 2.985000000000001208 ) ) ;
#208 = AXIS2_PLACEMENT_3D ( 'NONE', #251, #223, #115 ) ;
#209 = VERTEX_POINT ( 'NONE', #169 ) ;
#210 = ORIENTED_EDGE ( 'NONE', *, *, #88, .T. ) ;
#211 = CARTESIAN_POINT ( 'NONE',  ( 0.0000000000000000000, 0.0000000000000000000, 3.000000000000000444 ) ) ;
#212 = DIRECTION ( 'NONE',  ( 1.000000000000000000, 0.0000000000000000000, 0.0000000000000000000 ) ) ;
#213 = LINE ( 'NONE', #3, #282 ) ;
#214 = AXIS2_PLACEMENT_3D ( 'NONE', #286, #349, #323 ) ;
#215 = LINE ( 'NONE', #4, #21 ) ;
#216 = DIRECTION ( 'NONE',  ( 0.0000000000000000000, 0.0000000000000000000, 1.000000000000000000 ) ) ;
#217 = ORIENTED_EDGE ( 'NONE', *, *, #347, .T. ) ;
#218 = EDGE_CURVE ( 'NONE', #23, #183, #205, .T. ) ;
#219 = DIRECTION ( 'NONE',  ( 1.000000000000000000, 0.0000000000000000000, 0.0000000000000000000 ) ) ;
#220 = CARTESIAN_POINT ( 'NONE',  ( 1.224646799147353577E-18, 0.0000000000000000000, 0.01000000000000000021 ) ) ;
#221 = CONICAL_SURFACE ( 'NONE', #34, 0.2497499999999999998, 0.1745329251994338360 ) ;
#222 = AXIS2_PLACEMENT_3D ( 'NONE', #237, #194, #29 ) ;
#223 = DIRECTION ( 'NONE',  ( 0.0000000000000000000, 0.0000000000000000000, -1.000000000000000000 ) ) ;
#224 = DIRECTION ( 'NONE',  ( -1.000000000000000000, 0.0000000000000000000, 0.0000000000000000000 ) ) ;
#225 = CARTESIAN_POINT ( 'NONE',  ( -0.2350000000000011524, 0.0000000000000000000, 3.000000000000000444 ) ) ;
#226 = CARTESIAN_POINT ( 'NONE',  ( -0.2500000000000000000, 0.0000000000000000000, 3.000000000000000444 ) ) ;
#227 = ADVANCED_FACE ( 'NONE', ( #110 ), #172, .T. ) ;
#228 = FACE_OUTER_BOUND ( 'NONE', #73, .T. ) ;
#229 = PRESENTATION_LAYER_ASSIGNMENT (  '', '', ( #35 ) ) ;
#230 = CIRCLE ( 'NONE', #181, 0.2500000000000000000 ) ;
#231 = ADVANCED_FACE ( 'NONE', ( #198 ), #326, .T. ) ;
#232 = ORIENTED_EDGE ( 'NONE', *, *, #244, .T. ) ;
#233 = PRESENTATION_STYLE_ASSIGNMENT (( #122 ) ) ;
#234 = ORIENTED_EDGE ( 'NONE', *, *, #182, .T. ) ;
#235 = VECTOR ( 'NONE', #184, 39.37007874015747433 ) ;
#236 = CYLINDRICAL_SURFACE ( 'NONE', #76, 0.2500000000000000000 ) ;
#237 = CARTESIAN_POINT ( 'NONE',  ( 0.0000000000000000000, 0.0000000000000000000, 0.0000000000000000000 ) ) ;
#238 = ORIENTED_EDGE ( 'NONE', *, *, #5, .F. ) ;
#239 = PLANE ( 'NONE',  #214 ) ;
#240 = DIRECTION ( 'NONE',  ( -1.000000000000000000, 0.0000000000000000000, 0.0000000000000000000 ) ) ;
#241 = CARTESIAN_POINT ( 'NONE',  ( 0.0000000000000000000, 0.0000000000000000000, 3.000000000000000444 ) ) ;
#242 = TOROIDAL_SURFACE ( 'NONE', #204, 0.2397500000000000187, 0.01000000000000000021 ) ;
#243 = ORIENTED_EDGE ( 'NONE', *, *, #268, .F. ) ;
#244 = EDGE_CURVE ( 'NONE', #335, #89, #22, .T. ) ;
#245 = CARTESIAN_POINT ( 'NONE',  ( -0.2397500000000000187, 2.936090700955779284E-17, 0.01000000000000000021 ) ) ;
#246 = DIRECTION ( 'NONE',  ( -0.0000000000000000000, -0.0000000000000000000, -1.000000000000000000 ) ) ;
#247 = CIRCLE ( 'NONE', #188, 0.2500000000000000000 ) ;
#248 =( LENGTH_UNIT ( ) NAMED_UNIT ( * ) SI_UNIT ( $, .METRE. ) );
#249 = ADVANCED_BREP_SHAPE_REPRESENTATION ( 'Micro_GEC-500-4-010', ( #197, #222 ), #258 ) ;
#250 = FILL_AREA_STYLE_COLOUR ( '', #149 ) ;
#251 = CARTESIAN_POINT ( 'NONE',  ( 0.0000000000000000000, 0.0000000000000000000, 3.000000000000000444 ) ) ;
#252 = ORIENTED_EDGE ( 'NONE', *, *, #304, .T. ) ;
#253 = ORIENTED_EDGE ( 'NONE', *, *, #116, .T. ) ;
#254 = DIRECTION ( 'NONE',  ( 1.000000000000000000, 0.0000000000000000000, 0.0000000000000000000 ) ) ;
#255 = ORIENTED_EDGE ( 'NONE', *, *, #331, .T. ) ;
#256 = CIRCLE ( 'NONE', #277, 0.2350000000000011524 ) ;
#257 = SURFACE_STYLE_FILL_AREA ( #147 ) ;
#258 =( GEOMETRIC_REPRESENTATION_CONTEXT ( 3 ) GLOBAL_UNCERTAINTY_ASSIGNED_CONTEXT ( ( #163 ) ) GLOBAL_UNIT_ASSIGNED_CONTEXT ( ( #200, #81, #175 ) ) REPRESENTATION_CONTEXT ( 'NONE', 'WORKASPACE' ) );
#259 = PRODUCT_DEFINITION_SHAPE ( 'NONE', 'NONE',  #342 ) ;
#260 = DIRECTION ( 'NONE',  ( 0.0000000000000000000, 0.0000000000000000000, -1.000000000000000000 ) ) ;
#261 = ORIENTED_EDGE ( 'NONE', *, *, #310, .T. ) ;
#262 = CARTESIAN_POINT ( 'NONE',  ( 1.224646799147353454E-16, 0.0000000000000000000, 1.000000000000000000 ) ) ;
#263 = CARTESIAN_POINT ( 'NONE',  ( 0.0000000000000000000, 0.0000000000000000000, 0.0000000000000000000 ) ) ;
#264 = EDGE_CURVE ( 'NONE', #279, #284, #126, .T. ) ;
#265 = VERTEX_POINT ( 'NONE', #270 ) ;
#266 = DIRECTION ( 'NONE',  ( 1.000000000000000000, 0.0000000000000000000, -0.0000000000000000000 ) ) ;
#267 = EDGE_LOOP ( 'NONE', ( #91, #252, #102, #62 ) ) ;
#268 = EDGE_CURVE ( 'NONE', #120, #27, #83, .T. ) ;
#269 = ORIENTED_EDGE ( 'NONE', *, *, #88, .F. ) ;
#270 = CARTESIAN_POINT ( 'NONE',  ( 0.2497499999999999998, 3.058555380870514950E-17, 0.01000000000000000194 ) ) ;
#271 = DIMENSIONAL_EXPONENTS ( 1.000000000000000000, 0.0000000000000000000, 0.0000000000000000000, 0.0000000000000000000, 0.0000000000000000000, 0.0000000000000000000, 0.0000000000000000000 ) ;
#272 = AXIS2_PLACEMENT_3D ( 'NONE', #263, #45, #341 ) ;
#273 = FACE_OUTER_BOUND ( 'NONE', #350, .T. ) ;
#274 =( CONVERSION_BASED_UNIT ( 'INCH', #325 ) LENGTH_UNIT ( ) NAMED_UNIT ( #105 ) );
#275 = VECTOR ( 'NONE', #297, 39.37007874015748143 ) ;
#276 = ADVANCED_FACE ( 'NONE', ( #186 ), #239, .F. ) ;
#277 = AXIS2_PLACEMENT_3D ( 'NONE', #318, #346, #322 ) ;
#278 = ORIENTED_EDGE ( 'NONE', *, *, #268, .T. ) ;
#279 = VERTEX_POINT ( 'NONE', #100 ) ;
#280 = ORIENTED_EDGE ( 'NONE', *, *, #96, .F. ) ;
#281 = DIRECTION ( 'NONE',  ( 1.224646799147353454E-16, 0.0000000000000000000, 1.000000000000000000 ) ) ;
#282 = VECTOR ( 'NONE', #321, 39.37007874015748143 ) ;
#283 = EDGE_CURVE ( 'NONE', #348, #265, #213, .T. ) ;
#284 = VERTEX_POINT ( 'NONE', #289 ) ;
#285 = ORIENTED_EDGE ( 'NONE', *, *, #283, .T. ) ;
#286 = CARTESIAN_POINT ( 'NONE',  ( 0.0000000000000000000, 0.0000000000000000000, 0.0000000000000000000 ) ) ;
#287 = AXIS2_PLACEMENT_3D ( 'NONE', #262, #25, #167 ) ;
#288 = DIRECTION ( 'NONE',  ( -1.224646799147353454E-16, -0.0000000000000000000, -1.000000000000000000 ) ) ;
#289 = CARTESIAN_POINT ( 'NONE',  ( -0.2497499999999999998, 0.0000000000000000000, 0.01000000000000000194 ) ) ;
#290 = EDGE_CURVE ( 'NONE', #89, #183, #230, .T. ) ;
#291 = CARTESIAN_POINT ( 'NONE',  ( 1.226383128429217700E-16, 0.0000000000000000000, 1.001417820454904462 ) ) ;
#292 = CARTESIAN_POINT ( 'NONE',  ( -0.2350000000000011524, 0.0000000000000000000, 3.000000000000000444 ) ) ;
#293 = PRODUCT_CONTEXT ( 'NONE', #106, 'mechanical' ) ;
#294 = ORIENTED_EDGE ( 'NONE', *, *, #327, .F. ) ;
#295 = DIRECTION ( 'NONE',  ( 0.0000000000000000000, 0.0000000000000000000, 1.000000000000000000 ) ) ;
#296 = AXIS2_PLACEMENT_3D ( 'NONE', #241, #351, #193 ) ;
#297 = DIRECTION ( 'NONE',  ( -1.224646799147353454E-16, -0.0000000000000000000, -1.000000000000000000 ) ) ;
#298 = ADVANCED_FACE ( 'NONE', ( #26 ), #189, .T. ) ;
#299 = DIRECTION ( 'NONE',  ( 0.0000000000000000000, 0.0000000000000000000, 1.000000000000000000 ) ) ;
#300 = AXIS2_PLACEMENT_3D ( 'NONE', #154, #150, #260 ) ;
#301 = AXIS2_PLACEMENT_3D ( 'NONE', #245, #108, #74 ) ;
#302 = LINE ( 'NONE', #111, #336 ) ;
#303 =( NAMED_UNIT ( * ) PLANE_ANGLE_UNIT ( ) SI_UNIT ( $, .RADIAN. ) );
#304 = EDGE_CURVE ( 'NONE', #209, #284, #133, .T. ) ;
#305 = LINE ( 'NONE', #226, #332 ) ;
#306 = ORIENTED_EDGE ( 'NONE', *, *, #283, .F. ) ;
#307 = AXIS2_PLACEMENT_3D ( 'NONE', #220, #50, #165 ) ;
#308 = DIRECTION ( 'NONE',  ( 1.000000000000000000, 0.0000000000000000000, 0.0000000000000000000 ) ) ;
#309 = EDGE_LOOP ( 'NONE', ( #320, #210 ) ) ;
#310 = EDGE_CURVE ( 'NONE', #284, #265, #16, .T. ) ;
#311 = CARTESIAN_POINT ( 'NONE',  ( 1.224646799147353454E-16, 0.0000000000000000000, 1.000000000000000000 ) ) ;
#312 = ORIENTED_EDGE ( 'NONE', *, *, #42, .F. ) ;
#313 = AXIS2_PLACEMENT_3D ( 'NONE', #51, #20, #219 ) ;
#314 = CARTESIAN_POINT ( 'NONE',  ( 0.2500000000000000000, 3.061616997868382402E-17, 2.985000000000001208 ) ) ;
#315 = AXIS2_PLACEMENT_3D ( 'NONE', #211, #216, #266 ) ;
#316 = ADVANCED_FACE ( 'NONE', ( #84 ), #140, .T. ) ;
#317 = EDGE_LOOP ( 'NONE', ( #99, #43, #93, #203 ) ) ;
#318 = CARTESIAN_POINT ( 'NONE',  ( 0.0000000000000000000, 0.0000000000000000000, 3.000000000000000444 ) ) ;
#319 = DIRECTION ( 'NONE',  ( -0.7071067811865402453, 0.0000000000000000000, -0.7071067811865546782 ) ) ;
#320 = ORIENTED_EDGE ( 'NONE', *, *, #5, .T. ) ;
#321 = DIRECTION ( 'NONE',  ( -1.224646799147353454E-16, -0.0000000000000000000, -1.000000000000000000 ) ) ;
#322 = DIRECTION ( 'NONE',  ( 1.000000000000000000, 0.0000000000000000000, 0.0000000000000000000 ) ) ;
#323 = DIRECTION ( 'NONE',  ( 1.000000000000000000, 0.0000000000000000000, -0.0000000000000000000 ) ) ;
#324 = ORIENTED_EDGE ( 'NONE', *, *, #32, .F. ) ;
#325 = LENGTH_MEASURE_WITH_UNIT ( LENGTH_MEASURE( 0.02539999999999999897 ), #158 );
#326 = PLANE ( 'NONE',  #315 ) ;
#327 = EDGE_CURVE ( 'NONE', #89, #27, #305, .T. ) ;
#328 = CARTESIAN_POINT ( 'NONE',  ( 1.224646799147353770E-18, 0.0000000000000000000, 0.01000000000000000194 ) ) ;
#329 = FILL_AREA_STYLE ('',( #250 ) ) ;
#330 = DIRECTION ( 'NONE',  ( 1.000000000000000000, 0.0000000000000000000, 0.0000000000000000000 ) ) ;
#331 = EDGE_CURVE ( 'NONE', #209, #132, #58, .T. ) ;
#332 = VECTOR ( 'NONE', #112, 39.37007874015748143 ) ;
#333 = CARTESIAN_POINT ( 'NONE',  ( 0.2497500000000001386, 0.0000000000000000000, 1.000000000000000000 ) ) ;
#334 = LENGTH_MEASURE_WITH_UNIT ( LENGTH_MEASURE( 0.02539999999999999897 ), #248 );
#335 = VERTEX_POINT ( 'NONE', #225 ) ;
#336 = VECTOR ( 'NONE', #59, 39.37007874015748143 ) ;
#337 = ORIENTED_EDGE ( 'NONE', *, *, #53, .F. ) ;
#338 = VECTOR ( 'NONE', #319, 39.37007874015748854 ) ;
#339 = FILL_AREA_STYLE_COLOUR ( '', #82 ) ;
#340 = ORIENTED_EDGE ( 'NONE', *, *, #218, .F. ) ;
#341 = DIRECTION ( 'NONE',  ( -1.000000000000000000, 0.0000000000000000000, 1.224646799147353700E-16 ) ) ;
#342 = PRODUCT_DEFINITION ( 'UNKNOWN', '', #344, #47 ) ;
#343 = EDGE_LOOP ( 'NONE', ( #49, #324, #253, #278 ) ) ;
#344 = PRODUCT_DEFINITION_FORMATION_WITH_SPECIFIED_SOURCE ( 'ANY', '', #118, .NOT_KNOWN. ) ;
#345 = SHAPE_DEFINITION_REPRESENTATION ( #259, #249 ) ;
#346 = DIRECTION ( 'NONE',  ( 0.0000000000000000000, 0.0000000000000000000, 1.000000000000000000 ) ) ;
#347 = EDGE_CURVE ( 'NONE', #265, #284, #87, .T. ) ;
#348 = VERTEX_POINT ( 'NONE', #333 ) ;
#349 = DIRECTION ( 'NONE',  ( 0.0000000000000000000, 0.0000000000000000000, 1.000000000000000000 ) ) ;
#350 = EDGE_LOOP ( 'NONE', ( #123, #146, #280, #294 ) ) ;
#351 = DIRECTION ( 'NONE',  ( 0.0000000000000000000, 0.0000000000000000000, -1.000000000000000000 ) ) ;
ENDSEC;
END-ISO-10303-21;
